  0
SECTION
  2
HEADER
  9
$ACADVER
  1
AC1009
  9
$DWGCODEPAGE
  3
ansi_1252
  9
$INSBASE
 10
0.0
 20
0.0
 30
0.0
  9
$EXTMIN
 10
1.054512195121946
 20
5.165932055749127
 30
0.0
  9
$EXTMAX
 10
8.304512195121951
 20
6.70093205574913
 30
0.0
  9
$LIMMIN
 10
0.0
 20
0.0
  9
$LIMMAX
 10
12.0
 20
9.0
  9
$ORTHOMODE
 70
     1
  9
$REGENMODE
 70
     1
  9
$FILLMODE
 70
     1
  9
$QTEXTMODE
 70
     0
  9
$MIRRTEXT
 70
     0
  9
$DRAGMODE
 70
     2
  9
$LTSCALE
 40
1.0
  9
$OSMODE
 70
   239
  9
$ATTMODE
 70
     1
  9
$TEXTSIZE
 40
0.2
  9
$TRACEWID
 40
0.05
  9
$TEXTSTYLE
  7
STANDARD
  9
$CLAYER
  8
0
  9
$CELTYPE
  6
BYLAYER
  9
$CECOLOR
 62
   256
  9
$DIMSCALE
 40
1.0
  9
$DIMASZ
 40
0.18
  9
$DIMEXO
 40
0.0625
  9
$DIMDLI
 40
0.38
  9
$DIMRND
 40
0.0
  9
$DIMDLE
 40
0.0
  9
$DIMEXE
 40
0.18
  9
$DIMTP
 40
0.0
  9
$DIMTM
 40
0.0
  9
$DIMTXT
 40
0.18
  9
$DIMCEN
 40
0.09
  9
$DIMTSZ
 40
0.0
  9
$DIMTOL
 70
     0
  9
$DIMLIM
 70
     0
  9
$DIMTIH
 70
     1
  9
$DIMTOH
 70
     1
  9
$DIMSE1
 70
     0
  9
$DIMSE2
 70
     0
  9
$DIMTAD
 70
     0
  9
$DIMZIN
 70
     0
  9
$DIMBLK
  1

  9
$DIMASO
 70
     1
  9
$DIMSHO
 70
     1
  9
$DIMPOST
  1

  9
$DIMAPOST
  1

  9
$DIMALT
 70
     0
  9
$DIMALTD
 70
     2
  9
$DIMALTF
 40
25.4
  9
$DIMLFAC
 40
1.0
  9
$DIMTOFL
 70
     0
  9
$DIMTVP
 40
0.0
  9
$DIMTIX
 70
     0
  9
$DIMSOXD
 70
     0
  9
$DIMSAH
 70
     0
  9
$DIMBLK1
  1

  9
$DIMBLK2
  1

  9
$DIMSTYLE
  2
STANDARD
  9
$DIMCLRD
 70
     0
  9
$DIMCLRE
 70
     0
  9
$DIMCLRT
 70
     0
  9
$DIMTFAC
 40
1.0
  9
$DIMGAP
 40
0.09
  9
$LUNITS
 70
     2
  9
$LUPREC
 70
     4
  9
$SKETCHINC
 40
0.1
  9
$FILLETRAD
 40
0.12
  9
$AUNITS
 70
     0
  9
$AUPREC
 70
     0
  9
$MENU
  1
.
  9
$ELEVATION
 40
0.0
  9
$PELEVATION
 40
0.0
  9
$THICKNESS
 40
0.0
  9
$LIMCHECK
 70
     0
  9
$CHAMFERA
 40
0.12
  9
$CHAMFERB
 40
0.12
  9
$SKPOLY
 70
     0
  9
$TDCREATE
 40
2452642.771717593
  9
$TDUPDATE
 40
2459701.557929039
  9
$TDINDWG
 40
0.0174244329
  9
$TDUSRTIMER
 40
0.000933831
  9
$USRTIMER
 70
     1
  9
$ANGBASE
 50
0.0
  9
$ANGDIR
 70
     0
  9
$PDMODE
 70
     0
  9
$PDSIZE
 40
0.0
  9
$PLINEWID
 40
0.0
  9
$COORDS
 70
     1
  9
$SPLFRAME
 70
     0
  9
$SPLINETYPE
 70
     6
  9
$SPLINESEGS
 70
     8
  9
$ATTDIA
 70
     0
  9
$ATTREQ
 70
     1
  9
$HANDLING
 70
     1
  9
$HANDSEED
  5
39A
  9
$SURFTAB1
 70
     6
  9
$SURFTAB2
 70
     6
  9
$SURFTYPE
 70
     6
  9
$SURFU
 70
     6
  9
$SURFV
 70
     6
  9
$UCSNAME
  2

  9
$UCSORG
 10
0.0
 20
0.0
 30
0.0
  9
$UCSXDIR
 10
1.0
 20
0.0
 30
0.0
  9
$UCSYDIR
 10
0.0
 20
1.0
 30
0.0
  9
$PUCSNAME
  2

  9
$PUCSORG
 10
0.0
 20
0.0
 30
0.0
  9
$PUCSXDIR
 10
1.0
 20
0.0
 30
0.0
  9
$PUCSYDIR
 10
0.0
 20
1.0
 30
0.0
  9
$USERI1
 70
     0
  9
$USERI2
 70
     0
  9
$USERI3
 70
     0
  9
$USERI4
 70
     0
  9
$USERI5
 70
     0
  9
$USERR1
 40
0.0
  9
$USERR2
 40
0.0
  9
$USERR3
 40
0.0
  9
$USERR4
 40
0.0
  9
$USERR5
 40
0.0
  9
$WORLDVIEW
 70
     1
  9
$SHADEDGE
 70
     3
  9
$SHADEDIF
 70
    70
  9
$TILEMODE
 70
     1
  9
$MAXACTVP
 70
    64
  9
$PLIMCHECK
 70
     0
  9
$PEXTMIN
 10
0.0
 20
0.0
 30
0.0
  9
$PEXTMAX
 10
0.0
 20
0.0
 30
0.0
  9
$PLIMMIN
 10
0.0
 20
0.0
  9
$PLIMMAX
 10
0.0
 20
0.0
  9
$UNITMODE
 70
     0
  9
$VISRETAIN
 70
     1
  9
$PLINEGEN
 70
     0
  9
$PSLTSCALE
 70
     1
  0
ENDSEC
  0
SECTION
  2
TABLES
  0
TABLE
  2
VPORT
 70
     1
  0
VPORT
  2
*ACTIVE
 70
     0
 10
0.0
 20
0.0
 11
1.0
 21
1.0
 12
32.34910576110178
 22
25.47213501361115
 13
0.0
 23
0.0
 14
0.5
 24
0.5
 15
0.5
 25
0.5
 16
0.0
 26
0.0
 36
1.0
 17
-27.66959356597983
 27
-19.53870295786202
 37
0.0
 40
3.541537962362105
 41
2.088075880758808
 42
50.0
 43
0.0
 44
0.0
 50
0.0
 51
0.0
 71
    16
 72
  1000
 73
     1
 74
     3
 75
     0
 76
     0
 77
     0
 78
     0
  0
ENDTAB
  0
TABLE
  2
LTYPE
 70
     1
  0
LTYPE
  2
CONTINUOUS
 70
     0
  3
Solid line
 72
    65
 73
     0
 40
0.0
  0
ENDTAB
  0
TABLE
  2
LAYER
 70
     2
  0
LAYER
  2
0
 70
     0
 62
     7
  6
CONTINUOUS
  0
LAYER
  2
DEFPOINTS
 70
     0
 62
     7
  6
CONTINUOUS
  0
ENDTAB
  0
TABLE
  2
STYLE
 70
     2
  0
STYLE
  2
STANDARD
 70
     0
 40
0.0
 41
1.0
 50
0.0
 71
     0
 42
0.2
  3
arial.ttf
  4

  0
STYLE
  2
ANNOTATIVE
 70
     0
 40
0.0
 41
1.0
 50
0.0
 71
     0
 42
0.2
  3
arial.ttf
  4

  0
ENDTAB
  0
TABLE
  2
VIEW
 70
     0
  0
ENDTAB
  0
TABLE
  2
UCS
 70
     0
  0
ENDTAB
  0
TABLE
  2
APPID
 70
     2
  0
APPID
  2
ACAD
 70
     0
  0
APPID
  2
ACADANNOTATIVE
 70
     0
  0
ENDTAB
  0
TABLE
  2
DIMSTYLE
 70
     2
  0
DIMSTYLE
  2
STANDARD
 70
     0
  3

  4

  5

  6

  7

 40
1.0
 41
0.18
 42
0.0625
 43
0.38
 44
0.18
 45
0.0
 46
0.0
 47
0.0
 48
0.0
140
0.18
141
0.09
142
0.0
143
25.4
144
1.0
145
0.0
146
1.0
147
0.09
 71
     0
 72
     0
 73
     1
 74
     1
 75
     0
 76
     0
 77
     0
 78
     0
170
     0
171
     2
172
     0
173
     0
174
     0
175
     0
176
     0
177
     0
178
     0
  0
DIMSTYLE
  2
ANNOTATIVE
 70
     0
  3

  4

  5

  6

  7

 40
0.0
 41
0.18
 42
0.0625
 43
0.38
 44
0.18
 45
0.0
 46
0.0
 47
0.0
 48
0.0
140
0.18
141
0.09
142
0.0
143
25.4
144
1.0
145
0.0
146
1.0
147
0.09
 71
     0
 72
     0
 73
     1
 74
     1
 75
     0
 76
     0
 77
     0
 78
     0
170
     0
171
     2
172
     0
173
     0
174
     0
175
     0
176
     0
177
     0
178
     0
  0
ENDTAB
  0
ENDSEC
  0
SECTION
  2
BLOCKS
  0
BLOCK
  8
0
  2
$MODEL_SPACE
 70
     0
 10
0.0
 20
0.0
 30
0.0
  3
$MODEL_SPACE
  1

  0
ENDBLK
  5
21
  8
0
  0
BLOCK
 67
     1
  8
0
  2
$PAPER_SPACE
 70
     0
 10
0.0
 20
0.0
 30
0.0
  3
$PAPER_SPACE
  1

  0
ENDBLK
  5
5B
 67
     1
  8
0
  0
BLOCK
  8
0
  2
*D0
 70
     1
 10
0.0
 20
0.0
 30
0.0
  3
*D0
  1

  0
LINE
  5
1C1
  8
0
 62
     0
 10
1.054512195121947
 20
5.348432055749129
 30
0.0
 11
1.054512195121948
 21
4.771345808048796
 31
0.0
  0
LINE
  5
1C2
  8
0
 62
     0
 10
8.304512195121951
 20
5.348432055749127
 30
0.0
 11
8.304512195121951
 21
4.771345808048796
 31
0.0
  0
LINE
  5
1C3
  8
0
 62
     0
 10
1.234512195121948
 20
4.951345808048796
 30
0.0
 11
4.21736219512195
 21
4.951345808048796
 31
0.0
  0
LINE
  5
1C4
  8
0
 62
     0
 10
8.124512195121952
 20
4.951345808048796
 30
0.0
 11
5.141662195121949
 21
4.951345808048796
 31
0.0
  0
SOLID
  5
1C5
  8
0
 62
     0
 10
1.234512195121948
 20
4.981345808048796
 30
0.0
 11
1.234512195121948
 21
4.921345808048796
 31
0.0
 12
1.054512195121948
 22
4.951345808048796
 32
0.0
 13
1.054512195121948
 23
4.951345808048796
 33
0.0
  0
SOLID
  5
1C6
  8
0
 62
     0
 10
8.124512195121952
 20
4.921345808048796
 30
0.0
 11
8.124512195121952
 21
4.981345808048796
 31
0.0
 12
8.304512195121951
 22
4.951345808048796
 32
0.0
 13
8.304512195121951
 23
4.951345808048796
 33
0.0
  0
TEXT
  5
1C7
  8
0
  6
CONTINUOUS
 62
     0
 10
4.29548219512195
 20
4.862875808048796
 30
0.0
 40
0.18
  1
7.2500
  0
POINT
  5
1C8
  8
DEFPOINTS
 62
     0
 10
1.054512195121947
 20
5.410932055749129
 30
0.0
  0
POINT
  5
1C9
  8
DEFPOINTS
 62
     0
 10
8.304512195121951
 20
5.410932055749127
 30
0.0
  0
POINT
  5
1CA
  8
DEFPOINTS
 62
     0
 10
8.304512195121951
 20
4.951345808048796
 30
0.0
  0
ENDBLK
  5
1C0
  8
0
  0
BLOCK
  8
0
  2
*D1
 70
     1
 10
0.0
 20
0.0
 30
0.0
  3
*D1
  1

  0
LINE
  5
1DF
  8
0
 62
     0
 10
6.74201219512195
 20
5.478432055749128
 30
0.0
 11
9.686972930034834
 21
5.478432055749128
 31
0.0
  0
LINE
  5
1E0
  8
0
 62
     0
 10
6.74201219512195
 20
4.35343205574913
 30
0.0
 11
9.686972930034834
 21
4.35343205574913
 31
0.0
  0
LINE
  5
1E1
  8
0
 62
     0
 10
9.506972930034834
 20
5.298432055749128
 30
0.0
 11
9.506972930034834
 21
5.097822055749129
 31
0.0
  0
LINE
  5
1E2
  8
0
 62
     0
 10
9.506972930034834
 20
4.533432055749129
 30
0.0
 11
9.506972930034834
 21
4.734042055749129
 31
0.0
  0
SOLID
  5
1E3
  8
0
 62
     0
 10
9.536972930034834
 20
5.298432055749128
 30
0.0
 11
9.476972930034835
 21
5.298432055749128
 31
0.0
 12
9.506972930034834
 22
5.478432055749128
 32
0.0
 13
9.506972930034834
 23
5.478432055749128
 33
0.0
  0
SOLID
  5
1E4
  8
0
 62
     0
 10
9.476972930034835
 20
4.533432055749129
 30
0.0
 11
9.536972930034834
 21
4.533432055749129
 31
0.0
 12
9.506972930034834
 22
4.35343205574913
 32
0.0
 13
9.506972930034834
 23
4.35343205574913
 33
0.0
  0
TEXT
  5
1E5
  8
0
  6
CONTINUOUS
 62
     0
 10
9.115202930034835
 20
4.827462055749129
 30
0.0
 40
0.18
  1
1.1250
  0
POINT
  5
1E6
  8
DEFPOINTS
 62
     0
 10
6.67951219512195
 20
5.478432055749128
 30
0.0
  0
POINT
  5
1E7
  8
DEFPOINTS
 62
     0
 10
6.67951219512195
 20
4.35343205574913
 30
0.0
  0
POINT
  5
1E8
  8
DEFPOINTS
 62
     0
 10
9.506972930034834
 20
4.35343205574913
 30
0.0
  0
ENDBLK
  5
1DE
  8
0
  0
BLOCK
  8
0
  2
*D2
 70
     1
 10
0.0
 20
0.0
 30
0.0
  3
*D2
  1

  0
LINE
  5
235
  8
0
 62
     0
 10
8.24701219512195
 20
5.290932055749127
 30
0.0
 11
9.012381560026752
 21
5.290932055749127
 31
0.0
  0
LINE
  5
236
  8
0
 62
     0
 10
8.247012195121947
 20
6.700932055749127
 30
0.0
 11
9.012381560026752
 21
6.700932055749127
 31
0.0
  0
LINE
  5
237
  8
0
 62
     0
 10
8.832381560026752
 20
5.470932055749127
 30
0.0
 11
8.832381560026752
 21
5.814042055749127
 31
0.0
  0
LINE
  5
238
  8
0
 62
     0
 10
8.832381560026752
 20
6.520932055749127
 30
0.0
 11
8.832381560026752
 21
6.177822055749127
 31
0.0
  0
SOLID
  5
239
  8
0
 62
     0
 10
8.802381560026753
 20
5.470932055749127
 30
0.0
 11
8.862381560026751
 21
5.470932055749127
 31
0.0
 12
8.832381560026752
 22
5.290932055749127
 32
0.0
 13
8.832381560026752
 23
5.290932055749127
 33
0.0
  0
SOLID
  5
23A
  8
0
 62
     0
 10
8.862381560026751
 20
6.520932055749127
 30
0.0
 11
8.802381560026753
 21
6.520932055749127
 31
0.0
 12
8.832381560026752
 22
6.700932055749127
 32
0.0
 13
8.832381560026752
 23
6.700932055749127
 33
0.0
  0
TEXT
  5
23B
  8
0
  6
CONTINUOUS
 62
     0
 10
8.440611560026753
 20
5.907462055749127
 30
0.0
 40
0.18
  1
1.4100
  0
POINT
  5
23C
  8
DEFPOINTS
 62
     0
 10
8.18451219512195
 20
5.290932055749127
 30
0.0
  0
POINT
  5
23D
  8
DEFPOINTS
 62
     0
 10
8.184512195121947
 20
6.700932055749127
 30
0.0
  0
POINT
  5
23E
  8
DEFPOINTS
 62
     0
 10
8.832381560026752
 20
6.700932055749127
 30
0.0
  0
ENDBLK
  5
234
  8
0
  0
BLOCK
  8
0
  2
*D3
 70
     1
 10
0.0
 20
0.0
 30
0.0
  3
*D3
  1

  0
LINE
  5
245
  8
0
 62
     0
 10
1.112012195121946
 20
5.290932055749129
 30
0.0
 11
0.2308247366121133
 21
5.290932055749129
 31
0.0
  0
LINE
  5
246
  8
0
 62
     0
 10
1.112012195121951
 20
6.700932055749129
 30
0.0
 11
0.2308247366121134
 21
6.700932055749129
 31
0.0
  0
LINE
  5
247
  8
0
 62
     0
 10
0.4108247366121133
 20
5.470932055749128
 30
0.0
 11
0.4108247366121133
 21
5.814042055749129
 31
0.0
  0
LINE
  5
248
  8
0
 62
     0
 10
0.4108247366121134
 20
6.520932055749129
 30
0.0
 11
0.4108247366121133
 21
6.177822055749129
 31
0.0
  0
SOLID
  5
249
  8
0
 62
     0
 10
0.3808247366121132
 20
5.470932055749128
 30
0.0
 11
0.4408247366121133
 21
5.470932055749128
 31
0.0
 12
0.4108247366121133
 22
5.290932055749129
 32
0.0
 13
0.4108247366121133
 23
5.290932055749129
 33
0.0
  0
SOLID
  5
24A
  8
0
 62
     0
 10
0.4408247366121134
 20
6.520932055749129
 30
0.0
 11
0.3808247366121134
 21
6.520932055749129
 31
0.0
 12
0.4108247366121134
 22
6.700932055749129
 32
0.0
 13
0.4108247366121134
 23
6.700932055749129
 33
0.0
  0
TEXT
  5
24B
  8
0
  6
CONTINUOUS
 62
     0
 10
0.0190547366121134
 20
5.907462055749129
 30
0.0
 40
0.18
  1
1.4100
  0
POINT
  5
24C
  8
DEFPOINTS
 62
     0
 10
1.174512195121946
 20
5.290932055749129
 30
0.0
  0
POINT
  5
24D
  8
DEFPOINTS
 62
     0
 10
1.174512195121951
 20
6.700932055749129
 30
0.0
  0
POINT
  5
24E
  8
DEFPOINTS
 62
     0
 10
0.4108247366121134
 20
6.700932055749129
 30
0.0
  0
ENDBLK
  5
244
  8
0
  0
BLOCK
  8
0
  2
*D4
 70
     1
 10
0.0
 20
0.0
 30
0.0
  3
*D4
  1

  0
LINE
  5
2D3
  8
0
 62
     0
 10
1.054512195121944
 20
2.412698176086708
 30
0.0
 11
1.054512195121944
 21
1.798312963543153
 31
0.0
  0
LINE
  5
2D4
  8
0
 62
     0
 10
2.429512195121948
 20
2.600198176086709
 30
0.0
 11
2.429512195121948
 21
1.798312963543153
 31
0.0
  0
LINE
  5
2D5
  8
0
 62
     0
 10
0.8745121951219443
 20
1.978312963543153
 30
0.0
 11
0.6945121951219444
 21
1.978312963543153
 31
0.0
  0
LINE
  5
2D6
  8
0
 62
     0
 10
2.609512195121948
 20
1.978312963543153
 30
0.0
 11
2.789512195121949
 21
1.978312963543153
 31
0.0
  0
SOLID
  5
2D7
  8
0
 62
     0
 10
0.8745121951219443
 20
1.948312963543153
 30
0.0
 11
0.8745121951219443
 21
2.008312963543153
 31
0.0
 12
1.054512195121944
 22
1.978312963543153
 32
0.0
 13
1.054512195121944
 23
1.978312963543153
 33
0.0
  0
SOLID
  5
2D8
  8
0
 62
     0
 10
2.609512195121948
 20
2.008312963543153
 30
0.0
 11
2.609512195121948
 21
1.948312963543153
 31
0.0
 12
2.429512195121948
 22
1.978312963543153
 32
0.0
 13
2.429512195121948
 23
1.978312963543153
 33
0.0
  0
TEXT
  5
2D9
  8
0
  6
CONTINUOUS
 62
     0
 10
1.350242195121946
 20
1.889842963543153
 30
0.0
 40
0.18
  1
1.3750
  0
POINT
  5
2DA
  8
DEFPOINTS
 62
     0
 10
1.054512195121944
 20
2.475198176086708
 30
0.0
  0
POINT
  5
2DB
  8
DEFPOINTS
 62
     0
 10
2.429512195121948
 20
2.662698176086709
 30
0.0
  0
POINT
  5
2DC
  8
DEFPOINTS
 62
     0
 10
2.429512195121948
 20
1.978312963543153
 30
0.0
  0
ENDBLK
  5
2D2
  8
0
  0
ENDSEC
  0
SECTION
  2
ENTITIES
  0
POLYLINE
  5
14F
  8
0
 66
     1
 10
0.0
 20
0.0
 30
0.0
 70
     1
  0
VERTEX
  5
385
  8
0
 10
7.554512195121948
 20
6.580932055749126
 30
0.0
  0
VERTEX
  5
386
  8
0
 10
7.554512195121948
 20
6.390932055749126
 30
0.0
  0
VERTEX
  5
387
  8
0
 10
7.929512195121948
 20
6.390932055749127
 30
0.0
  0
VERTEX
  5
388
  8
0
 10
7.92951219512195
 20
5.910932055749127
 30
0.0
  0
VERTEX
  5
389
  8
0
 10
6.779512195121949
 20
5.790932055749127
 30
0.0
  0
VERTEX
  5
38A
  8
0
 10
2.579512195121949
 20
5.790932055749129
 30
0.0
  0
VERTEX
  5
38B
  8
0
 10
1.429512195121949
 20
5.910932055749129
 30
0.0
  0
VERTEX
  5
38C
  8
0
 10
1.429512195121951
 20
6.390932055749129
 30
0.0
  0
VERTEX
  5
38D
  8
0
 10
1.804512195121951
 20
6.390932055749128
 30
0.0
  0
VERTEX
  5
38E
  8
0
 10
1.80451219512195
 20
6.580932055749128
 30
0.0
  0
VERTEX
  5
38F
  8
0
 10
1.684512195121951
 20
6.700932055749128
 30
0.0
  0
VERTEX
  5
390
  8
0
 10
1.174512195121951
 20
6.700932055749129
 30
0.0
  0
VERTEX
  5
391
  8
0
 10
1.05451219512195
 20
6.580932055749129
 30
0.0
  0
VERTEX
  5
392
  8
0
 10
1.054512195121946
 20
5.285932055749129
 30
0.0
  0
VERTEX
  5
393
  8
0
 10
1.174512195121946
 20
5.165932055749129
 30
0.0
  0
VERTEX
  5
394
  8
0
 10
8.18451219512195
 20
5.165932055749127
 30
0.0
  0
VERTEX
  5
395
  8
0
 10
8.304512195121951
 20
5.285932055749127
 30
0.0
  0
VERTEX
  5
396
  8
0
 10
8.304512195121948
 20
6.580932055749127
 30
0.0
  0
VERTEX
  5
397
  8
0
 10
8.184512195121947
 20
6.700932055749127
 30
0.0
  0
VERTEX
  5
398
  8
0
 10
7.674512195121947
 20
6.700932055749126
 30
0.0
  0
SEQEND
  5
399
  8
0
  0
CIRCLE
  5
1D1
  8
0
 10
2.67951219512195
 20
5.478432055749128
 30
0.0
 40
0.0625
  0
CIRCLE
  5
1D2
  8
0
 10
6.67951219512195
 20
5.478432055749128
 30
0.0
 40
0.0625
  0
ENDSEC
  0
EOF
