  0
SECTION
  2
HEADER
  9
$ACADVER
  1
AC1009
  9
$DWGCODEPAGE
  3
ansi_1252
  9
$INSBASE
 10
0.0
 20
0.0
 30
0.0
  9
$EXTMIN
 10
9.549550950214478
 20
3.11999285064344
 30
0.0
  9
$EXTMAX
 10
15.60332208276912
 20
5.869992850643441
 30
0.0
  9
$LIMMIN
 10
0.0
 20
0.0
  9
$LIMMAX
 10
12.0
 20
9.0
  9
$ORTHOMODE
 70
     1
  9
$REGENMODE
 70
     1
  9
$FILLMODE
 70
     1
  9
$QTEXTMODE
 70
     0
  9
$MIRRTEXT
 70
     0
  9
$DRAGMODE
 70
     2
  9
$LTSCALE
 40
1.0
  9
$OSMODE
 70
  2543
  9
$ATTMODE
 70
     1
  9
$TEXTSIZE
 40
0.2
  9
$TRACEWID
 40
0.05
  9
$TEXTSTYLE
  7
STANDARD
  9
$CLAYER
  8
0
  9
$CELTYPE
  6
BYLAYER
  9
$CECOLOR
 62
   256
  9
$DIMSCALE
 40
1.0
  9
$DIMASZ
 40
0.18
  9
$DIMEXO
 40
0.0625
  9
$DIMDLI
 40
0.38
  9
$DIMRND
 40
0.0
  9
$DIMDLE
 40
0.0
  9
$DIMEXE
 40
0.18
  9
$DIMTP
 40
0.0
  9
$DIMTM
 40
0.0
  9
$DIMTXT
 40
0.18
  9
$DIMCEN
 40
0.09
  9
$DIMTSZ
 40
0.0
  9
$DIMTOL
 70
     0
  9
$DIMLIM
 70
     0
  9
$DIMTIH
 70
     1
  9
$DIMTOH
 70
     1
  9
$DIMSE1
 70
     0
  9
$DIMSE2
 70
     0
  9
$DIMTAD
 70
     0
  9
$DIMZIN
 70
     0
  9
$DIMBLK
  1

  9
$DIMASO
 70
     1
  9
$DIMSHO
 70
     1
  9
$DIMPOST
  1

  9
$DIMAPOST
  1

  9
$DIMALT
 70
     0
  9
$DIMALTD
 70
     2
  9
$DIMALTF
 40
25.4
  9
$DIMLFAC
 40
1.0
  9
$DIMTOFL
 70
     0
  9
$DIMTVP
 40
0.0
  9
$DIMTIX
 70
     0
  9
$DIMSOXD
 70
     0
  9
$DIMSAH
 70
     0
  9
$DIMBLK1
  1

  9
$DIMBLK2
  1

  9
$DIMSTYLE
  2
STANDARD
  9
$DIMCLRD
 70
     0
  9
$DIMCLRE
 70
     0
  9
$DIMCLRT
 70
     0
  9
$DIMTFAC
 40
1.0
  9
$DIMGAP
 40
0.09
  9
$LUNITS
 70
     2
  9
$LUPREC
 70
     4
  9
$SKETCHINC
 40
0.1
  9
$FILLETRAD
 40
0.04
  9
$AUNITS
 70
     0
  9
$AUPREC
 70
     0
  9
$MENU
  1
.
  9
$ELEVATION
 40
0.0
  9
$PELEVATION
 40
0.0
  9
$THICKNESS
 40
0.0
  9
$LIMCHECK
 70
     0
  9
$CHAMFERA
 40
0.0
  9
$CHAMFERB
 40
0.0
  9
$SKPOLY
 70
     0
  9
$TDCREATE
 40
2452642.771717593
  9
$TDUPDATE
 40
2460311.384725891
  9
$TDINDWG
 40
0.0329986111
  9
$TDUSRTIMER
 40
0.0134346065
  9
$USRTIMER
 70
     1
  9
$ANGBASE
 50
0.0
  9
$ANGDIR
 70
     0
  9
$PDMODE
 70
     0
  9
$PDSIZE
 40
0.0
  9
$PLINEWID
 40
0.0
  9
$COORDS
 70
     1
  9
$SPLFRAME
 70
     0
  9
$SPLINETYPE
 70
     6
  9
$SPLINESEGS
 70
     8
  9
$ATTDIA
 70
     0
  9
$ATTREQ
 70
     1
  9
$HANDLING
 70
     1
  9
$HANDSEED
  5
326
  9
$SURFTAB1
 70
     6
  9
$SURFTAB2
 70
     6
  9
$SURFTYPE
 70
     6
  9
$SURFU
 70
     6
  9
$SURFV
 70
     6
  9
$UCSNAME
  2

  9
$UCSORG
 10
0.0
 20
0.0
 30
0.0
  9
$UCSXDIR
 10
1.0
 20
0.0
 30
0.0
  9
$UCSYDIR
 10
0.0
 20
1.0
 30
0.0
  9
$PUCSNAME
  2

  9
$PUCSORG
 10
0.0
 20
0.0
 30
0.0
  9
$PUCSXDIR
 10
1.0
 20
0.0
 30
0.0
  9
$PUCSYDIR
 10
0.0
 20
1.0
 30
0.0
  9
$USERI1
 70
     0
  9
$USERI2
 70
     0
  9
$USERI3
 70
     0
  9
$USERI4
 70
     0
  9
$USERI5
 70
     0
  9
$USERR1
 40
0.0
  9
$USERR2
 40
0.0
  9
$USERR3
 40
0.0
  9
$USERR4
 40
0.0
  9
$USERR5
 40
0.0
  9
$WORLDVIEW
 70
     1
  9
$SHADEDGE
 70
     3
  9
$SHADEDIF
 70
    70
  9
$TILEMODE
 70
     1
  9
$MAXACTVP
 70
    64
  9
$PLIMCHECK
 70
     0
  9
$PEXTMIN
 10
0.0
 20
0.0
 30
0.0
  9
$PEXTMAX
 10
0.0
 20
0.0
 30
0.0
  9
$PLIMMIN
 10
0.0
 20
0.0
  9
$PLIMMAX
 10
0.0
 20
0.0
  9
$UNITMODE
 70
     0
  9
$VISRETAIN
 70
     1
  9
$PLINEGEN
 70
     0
  9
$PSLTSCALE
 70
     1
  0
ENDSEC
  0
SECTION
  2
TABLES
  0
TABLE
  2
VPORT
 70
     1
  0
VPORT
  2
*ACTIVE
 70
     0
 10
0.0
 20
0.0
 11
1.0
 21
1.0
 12
39.93557082238546
 22
23.87164261117065
 13
0.0
 23
0.0
 14
0.5
 24
0.5
 15
0.5
 25
0.5
 16
0.0
 26
0.0
 36
1.0
 17
-27.66959356597978
 27
-19.53870295786202
 37
0.0
 40
4.744178579407598
 41
2.033666969972702
 42
50.0
 43
0.0
 44
0.0
 50
0.0
 51
0.0
 71
    16
 72
  1000
 73
     1
 74
     3
 75
     0
 76
     0
 77
     0
 78
     0
  0
ENDTAB
  0
TABLE
  2
LTYPE
 70
     1
  0
LTYPE
  2
CONTINUOUS
 70
     0
  3
Solid line
 72
    65
 73
     0
 40
0.0
  0
ENDTAB
  0
TABLE
  2
LAYER
 70
     2
  0
LAYER
  2
0
 70
     0
 62
     7
  6
CONTINUOUS
  0
LAYER
  2
DEFPOINTS
 70
     0
 62
     7
  6
CONTINUOUS
  0
ENDTAB
  0
TABLE
  2
STYLE
 70
     2
  0
STYLE
  2
STANDARD
 70
     0
 40
0.0
 41
1.0
 50
0.0
 71
     0
 42
0.2
  3
arial.ttf
  4

  0
STYLE
  2
ANNOTATIVE
 70
     0
 40
0.0
 41
1.0
 50
0.0
 71
     0
 42
0.2
  3
arial.ttf
  4

  0
ENDTAB
  0
TABLE
  2
VIEW
 70
     0
  0
ENDTAB
  0
TABLE
  2
UCS
 70
     0
  0
ENDTAB
  0
TABLE
  2
APPID
 70
     3
  0
APPID
  2
ACAD
 70
     0
  0
APPID
  2
ACADANNOTATIVE
 70
     0
  0
APPID
  2
ACAD_DSTYLE_DIMRADIAL_EXTE
 70
     0
  0
ENDTAB
  0
TABLE
  2
DIMSTYLE
 70
     2
  0
DIMSTYLE
  2
STANDARD
 70
     0
  3

  4

  5

  6

  7

 40
1.0
 41
0.18
 42
0.0625
 43
0.38
 44
0.18
 45
0.0
 46
0.0
 47
0.0
 48
0.0
140
0.18
141
0.09
142
0.0
143
25.4
144
1.0
145
0.0
146
1.0
147
0.09
 71
     0
 72
     0
 73
     1
 74
     1
 75
     0
 76
     0
 77
     0
 78
     0
170
     0
171
     2
172
     0
173
     0
174
     0
175
     0
176
     0
177
     0
178
     0
  0
DIMSTYLE
  2
ANNOTATIVE
 70
     0
  3

  4

  5

  6

  7

 40
0.0
 41
0.18
 42
0.0625
 43
0.38
 44
0.18
 45
0.0
 46
0.0
 47
0.0
 48
0.0
140
0.18
141
0.09
142
0.0
143
25.4
144
1.0
145
0.0
146
1.0
147
0.09
 71
     0
 72
     0
 73
     1
 74
     1
 75
     0
 76
     0
 77
     0
 78
     0
170
     0
171
     2
172
     0
173
     0
174
     0
175
     0
176
     0
177
     0
178
     0
  0
ENDTAB
  0
ENDSEC
  0
SECTION
  2
BLOCKS
  0
BLOCK
  8
0
  2
$MODEL_SPACE
 70
     0
 10
0.0
 20
0.0
 30
0.0
  3
$MODEL_SPACE
  1

  0
ENDBLK
  5
21
  8
0
  0
BLOCK
 67
     1
  8
0
  2
$PAPER_SPACE
 70
     0
 10
0.0
 20
0.0
 30
0.0
  3
$PAPER_SPACE
  1

  0
ENDBLK
  5
5B
 67
     1
  8
0
  0
BLOCK
  8
0
  2
*D0
 70
     1
 10
0.0
 20
0.0
 30
0.0
  3
*D0
  1

  0
LINE
  5
133
  8
0
 62
     0
 10
9.122226720655135
 20
5.697370040504355
 30
0.0
 11
8.941686720655138
 21
5.697370040504355
 31
0.0
  0
LINE
  5
134
  8
0
 62
     0
 10
8.941686720655138
 20
5.697370040504355
 30
0.0
 11
8.678731065510561
 21
5.463933001595359
 31
0.0
  0
TEXT
  5
135
  8
0
  6
CONTINUOUS
 62
     0
 10
9.202146720655135
 20
5.610970040504355
 30
0.0
 40
0.18
  1
Ø2.5590
  0
SOLID
  5
136
  8
0
 62
     0
 10
8.658814515645156
 20
5.486368042078025
 30
0.0
 11
8.698647615375966
 21
5.441497961112693
 31
0.0
 12
8.544120822614564
 22
5.344433702402934
 32
0.0
 13
8.544120822614564
 23
5.344433702402934
 33
0.0
  0
LINE
  5
137
  8
0
 62
     0
 10
7.542266346028857
 20
4.494992850643442
 30
0.0
 11
7.632266346028857
 21
4.494992850643442
 31
0.0
  0
LINE
  5
138
  8
0
 62
     0
 10
7.587266346028857
 20
4.449992850643442
 30
0.0
 11
7.587266346028857
 21
4.539992850643442
 31
0.0
  0
POINT
  5
139
  8
DEFPOINTS
 62
     0
 10
8.544120822614564
 20
5.344433702402934
 30
0.0
  0
POINT
  5
13A
  8
DEFPOINTS
 62
     0
 10
6.630411869443149
 20
3.64555199888395
 30
0.0
  0
ENDBLK
  5
132
  8
0
  0
BLOCK
  8
0
  2
*D1
 70
     1
 10
0.0
 20
0.0
 30
0.0
  3
*D1
  1

  0
LINE
  5
142
  8
0
 62
     0
 10
9.169268165865072
 20
3.353362797348239
 30
0.0
 11
8.989268165865072
 21
3.353362797348239
 31
0.0
  0
LINE
  5
143
  8
0
 62
     0
 10
8.989268165865072
 20
3.353362797348239
 30
0.0
 11
8.568192709032491
 21
3.69623852648334
 31
0.0
  0
TEXT
  5
144
  8
0
  6
CONTINUOUS
 62
     0
 10
9.249188165865073
 20
3.266962797348238
 30
0.0
 40
0.18
  1
Ø2.1700
  0
SOLID
  5
145
  8
0
 62
     0
 10
8.587135499328777
 20
3.719501602285797
 30
0.0
 11
8.549249918736205
 21
3.672975450680882
 31
0.0
 12
8.428614254217745
 22
3.809895268261062
 32
0.0
 13
8.428614254217745
 23
3.809895268261062
 33
0.0
  0
LINE
  5
146
  8
0
 62
     0
 10
7.542266346028857
 20
4.494992850643442
 30
0.0
 11
7.632266346028857
 21
4.494992850643442
 31
0.0
  0
LINE
  5
147
  8
0
 62
     0
 10
7.587266346028857
 20
4.449992850643442
 30
0.0
 11
7.587266346028857
 21
4.539992850643442
 31
0.0
  0
POINT
  5
148
  8
DEFPOINTS
 62
     0
 10
8.428614254217745
 20
3.809895268261062
 30
0.0
  0
POINT
  5
149
  8
DEFPOINTS
 62
     0
 10
6.745918437839968
 20
5.180090433025821
 30
0.0
  0
ENDBLK
  5
141
  8
0
  0
BLOCK
  8
0
  2
*D2
 70
     1
 10
0.0
 20
0.0
 30
0.0
  3
*D2
  1

  0
LINE
  5
151
  8
0
 62
     0
 10
9.099045900428957
 20
6.097301073911348
 30
0.0
 11
8.919045900428957
 21
6.097301073911348
 31
0.0
  0
LINE
  5
152
  8
0
 62
     0
 10
8.919045900428957
 20
6.097301073911348
 30
0.0
 11
8.581220657516713
 21
5.690852301697245
 31
0.0
  0
TEXT
  5
153
  8
0
  6
CONTINUOUS
 62
     0
 10
9.178965900428954
 20
6.010901073911349
 30
0.0
 40
0.18
  1
Ø2.7500
  0
SOLID
  5
154
  8
0
 62
     0
 10
8.558149414088023
 20
5.710028269121447
 30
0.0
 11
8.604291900945404
 21
5.671676334273042
 31
0.0
 12
8.466164852971495
 22
5.5524248411251
 32
0.0
 13
8.466164852971495
 23
5.5524248411251
 33
0.0
  0
LINE
  5
155
  8
0
 62
     0
 10
7.542266346028857
 20
4.494992850643442
 30
0.0
 11
7.632266346028857
 21
4.494992850643442
 31
0.0
  0
LINE
  5
156
  8
0
 62
     0
 10
7.587266346028857
 20
4.449992850643442
 30
0.0
 11
7.587266346028857
 21
4.539992850643442
 31
0.0
  0
POINT
  5
157
  8
DEFPOINTS
 62
     0
 10
8.466164852971495
 20
5.5524248411251
 30
0.0
  0
POINT
  5
158
  8
DEFPOINTS
 62
     0
 10
6.708367839086219
 20
3.437560860161783
 30
0.0
  0
ENDBLK
  5
150
  8
0
  0
BLOCK
  8
0
  2
*D3
 70
     1
 10
0.0
 20
0.0
 30
0.0
  3
*D3
  1

  0
LINE
  5
1D2
  8
0
 62
     0
 10
9.487050950214478
 20
4.998485402723413
 30
0.0
 11
7.81138627345734
 21
4.998485402723413
 31
0.0
  0
LINE
  5
1D3
  8
0
 62
     0
 10
9.487050950214478
 20
3.991500298563468
 30
0.0
 11
7.81138627345734
 21
3.991500298563468
 31
0.0
  0
LINE
  5
1D4
  8
0
 62
     0
 10
7.99138627345734
 20
4.818485402723414
 30
0.0
 11
7.99138627345734
 21
4.676882850643441
 31
0.0
  0
LINE
  5
1D5
  8
0
 62
     0
 10
7.99138627345734
 20
4.171500298563468
 30
0.0
 11
7.99138627345734
 21
4.313102850643441
 31
0.0
  0
SOLID
  5
1D6
  8
0
 62
     0
 10
8.02138627345734
 20
4.818485402723414
 30
0.0
 11
7.96138627345734
 21
4.818485402723414
 31
0.0
 12
7.99138627345734
 22
4.998485402723413
 32
0.0
 13
7.99138627345734
 23
4.998485402723413
 33
0.0
  0
SOLID
  5
1D7
  8
0
 62
     0
 10
7.96138627345734
 20
4.171500298563468
 30
0.0
 11
8.02138627345734
 21
4.171500298563468
 31
0.0
 12
7.99138627345734
 22
3.991500298563468
 32
0.0
 13
7.99138627345734
 23
3.991500298563468
 33
0.0
  0
TEXT
  5
1D8
  8
0
  6
CONTINUOUS
 62
     0
 10
7.59961627345734
 20
4.406522850643441
 30
0.0
 40
0.18
  1
1.0070
  0
POINT
  5
1D9
  8
DEFPOINTS
 62
     0
 10
9.549550950214478
 20
4.998485402723413
 30
0.0
  0
POINT
  5
1DA
  8
DEFPOINTS
 62
     0
 10
9.549550950214478
 20
3.991500298563468
 30
0.0
  0
POINT
  5
1DB
  8
DEFPOINTS
 62
     0
 10
7.99138627345734
 20
3.991500298563468
 30
0.0
  0
ENDBLK
  5
1D1
  8
0
  0
BLOCK
  8
0
  2
*D4
 70
     1
 10
0.0
 20
0.0
 30
0.0
  3
*D4
  1

  0
LINE
  5
1E2
  8
0
 62
     0
 10
12.17105095021448
 20
3.991500298563474
 30
0.0
 11
13.14525895771575
 21
3.991500298563474
 31
0.0
  0
LINE
  5
1E3
  8
0
 62
     0
 10
12.17105095021448
 20
4.998485402723408
 30
0.0
 11
13.14525895771575
 21
4.998485402723408
 31
0.0
  0
LINE
  5
1E4
  8
0
 62
     0
 10
12.96525895771575
 20
4.171500298563473
 30
0.0
 11
12.96525895771575
 21
4.313102850643441
 31
0.0
  0
LINE
  5
1E5
  8
0
 62
     0
 10
12.96525895771575
 20
4.818485402723408
 30
0.0
 11
12.96525895771575
 21
4.676882850643441
 31
0.0
  0
SOLID
  5
1E6
  8
0
 62
     0
 10
12.93525895771575
 20
4.171500298563473
 30
0.0
 11
12.99525895771575
 21
4.171500298563473
 31
0.0
 12
12.96525895771575
 22
3.991500298563474
 32
0.0
 13
12.96525895771575
 23
3.991500298563474
 33
0.0
  0
SOLID
  5
1E7
  8
0
 62
     0
 10
12.99525895771575
 20
4.818485402723408
 30
0.0
 11
12.93525895771575
 21
4.818485402723408
 31
0.0
 12
12.96525895771575
 22
4.998485402723408
 32
0.0
 13
12.96525895771575
 23
4.998485402723408
 33
0.0
  0
TEXT
  5
1E8
  8
0
  6
CONTINUOUS
 62
     0
 10
12.57348895771575
 20
4.406522850643441
 30
0.0
 40
0.18
  1
1.0070
  0
POINT
  5
1E9
  8
DEFPOINTS
 62
     0
 10
12.10855095021448
 20
3.991500298563474
 30
0.0
  0
POINT
  5
1EA
  8
DEFPOINTS
 62
     0
 10
12.10855095021448
 20
4.998485402723408
 30
0.0
  0
POINT
  5
1EB
  8
DEFPOINTS
 62
     0
 10
12.96525895771575
 20
4.998485402723408
 30
0.0
  0
ENDBLK
  5
1E1
  8
0
  0
ENDSEC
  0
SECTION
  2
ENTITIES
  0
ARC
  5
19D
  8
0
 10
10.82905095021448
 20
4.494992850643441
 30
0.0
 40
1.375
 50
141.4799984058904
 51
158.5200015941094
  0
LINE
  5
19E
  8
0
 10
10.20047807228666
 20
5.423713011474214
 30
0.0
 11
10.19001891791172
 21
5.441828798255807
 31
0.0
  0
LINE
  5
19F
  8
0
 10
10.33904213689217
 20
5.503713011474215
 30
0.0
 11
10.32858298251723
 21
5.521828798255809
 31
0.0
  0
LINE
  5
1A0
  8
0
 10
10.20047807228665
 20
3.566272689812668
 30
0.0
 11
10.19001891791172
 21
3.548156903031075
 31
0.0
  0
LINE
  5
1A1
  8
0
 10
10.33904213689217
 20
3.486272689812667
 30
0.0
 11
10.32858298251723
 21
3.468156903031075
 31
0.0
  0
ARC
  5
1A2
  8
0
 10
10.82905095021448
 20
4.494992850643441
 30
0.0
 40
1.085
 50
126.1231988662695
 51
173.8768011337306
  0
ARC
  5
1A3
  8
0
 10
10.82905095021448
 20
4.494992850643441
 30
0.0
 40
1.375
 50
21.47999840589042
 51
38.52000159410962
  0
ARC
  5
1A4
  8
0
 10
10.82905095021448
 20
4.494992850643441
 30
0.0
 40
1.375
 50
261.4799984058903
 51
278.5200015941097
  0
ARC
  5
1A5
  8
0
 10
10.82905095021448
 20
4.494992850643441
 30
0.0
 40
1.085
 50
6.123198866269539
 51
53.87680113373048
  0
ARC
  5
1A6
  8
0
 10
10.82905095021448
 20
4.494992850643441
 30
0.0
 40
1.085
 50
246.1231988662694
 51
293.8768011337307
  0
LINE
  5
1A7
  8
0
 10
12.10855095021448
 20
3.991500298563473
 30
0.0
 11
12.10855095021448
 21
4.37499285064344
 31
0.0
  0
LINE
  5
1A8
  8
0
 10
11.94763264146461
 20
4.41499285064344
 30
0.0
 11
12.06855095021448
 21
4.41499285064344
 31
0.0
  0
LINE
  5
1A9
  8
0
 10
12.10855095021448
 20
4.99848540272341
 30
0.0
 11
12.10855095021448
 21
4.614992850643443
 31
0.0
  0
LINE
  5
1AA
  8
0
 10
11.9476326414646
 20
4.574992850643442
 30
0.0
 11
12.06855095021448
 21
4.574992850643443
 31
0.0
  0
ARC
  5
1AB
  8
0
 10
10.25930095021448
 20
5.481828798255808
 30
0.0
 40
0.0799999999999995
 50
30.00000000000054
 51
210.0000000000005
  0
ARC
  5
1AC
  8
0
 10
10.25930095021448
 20
3.508156903031075
 30
0.0
 40
0.0799999999999995
 50
150.0000000000001
 51
330.0000000000002
  0
ARC
  5
1AD
  8
0
 10
10.37368315304355
 20
5.523713011474214
 30
0.0
 40
0.04
 50
209.9999999999992
 51
293.876801133729
  0
ARC
  5
1AE
  8
0
 10
10.16583705613528
 20
5.403713011474214
 30
0.0
 40
0.04
 50
306.1231988662694
 51
30.00000000000046
  0
ARC
  5
1AF
  8
0
 10
10.16583705613528
 20
3.586272689812668
 30
0.0
 40
0.04
 50
330.0000000000002
 51
53.87680113373064
  0
ARC
  5
1B0
  8
0
 10
10.37368315304354
 20
3.466272689812667
 30
0.0
 40
0.04
 50
66.12319886626844
 51
149.9999999999988
  0
ARC
  5
1B1
  8
0
 10
11.9476326414646
 20
4.614992850643442
 30
0.0
 40
0.04
 50
186.1231988662699
 51
270.0
  0
ARC
  5
1B2
  8
0
 10
11.94763264146461
 20
4.37499285064344
 30
0.0
 40
0.04
 50
90.0
 51
173.8768011337301
  0
ARC
  5
1B3
  8
0
 10
10.82905095021448
 20
4.49499285064344
 30
0.0
 40
1.2795
 50
4.588467016017839
 51
355.4115329839823
  0
LINE
  5
1B4
  8
0
 10
9.753263609496965
 20
5.351326078745648
 30
0.0
 11
10.62533829093199
 21
5.854818630825615
 31
0.0
  0
LINE
  5
1B5
  8
0
 10
9.753263609496962
 20
3.638659622541237
 30
0.0
 11
10.62533829093199
 21
3.135167070461268
 31
0.0
  0
LINE
  5
1B7
  8
0
 10
9.710469258964345
 20
4.414992850643437
 30
0.0
 11
9.689550950214475
 21
4.414992850643439
 31
0.0
  0
LINE
  5
1B8
  8
0
 10
9.710469258964345
 20
4.574992850643441
 30
0.0
 11
9.689550950214475
 21
4.574992850643441
 31
0.0
  0
ARC
  5
1B9
  8
0
 10
9.689550950214475
 20
4.494992850643439
 30
0.0
 40
0.0799999999999995
 50
90.0
 51
270.0
  0
ARC
  5
1BA
  8
0
 10
9.710469258964347
 20
4.614992850643442
 30
0.0
 40
0.04
 50
270.0
 51
353.8768011337288
  0
ARC
  5
1BB
  8
0
 10
9.710469258964345
 20
4.374992850643438
 30
0.0
 40
0.04
 50
6.123198866271174
 51
90.0
  0
ARC
  5
1BD
  8
0
 10
10.82905095021448
 20
4.494992850643441
 30
0.0
 40
1.085
 50
186.1231988662695
 51
233.8768011337305
  0
LINE
  5
1BE
  8
0
 10
9.549550950214478
 20
3.991500298563468
 30
0.0
 11
9.549550950214478
 21
4.998485402723413
 31
0.0
  0
ARC
  5
1BF
  8
0
 10
10.82905095021448
 20
4.494992850643441
 30
0.0
 40
1.375
 50
201.4799984058906
 51
218.5200015941094
  0
LINE
  5
1C0
  8
0
 10
11.4576238281423
 20
5.423713011474214
 30
0.0
 11
11.46808298251723
 21
5.441828798255807
 31
0.0
  0
LINE
  5
1C1
  8
0
 10
11.31905976353679
 20
5.503713011474215
 30
0.0
 11
11.32951891791172
 21
5.521828798255809
 31
0.0
  0
LINE
  5
1C2
  8
0
 10
11.4576238281423
 20
3.566272689812668
 30
0.0
 11
11.46808298251723
 21
3.548156903031075
 31
0.0
  0
LINE
  5
1C3
  8
0
 10
11.31905976353679
 20
3.486272689812667
 30
0.0
 11
11.32951891791172
 21
3.468156903031075
 31
0.0
  0
ARC
  5
1C4
  8
0
 10
11.39880095021448
 20
5.481828798255808
 30
0.0
 40
0.0799999999999995
 50
329.9999999999995
 51
149.9999999999995
  0
ARC
  5
1C5
  8
0
 10
11.39880095021448
 20
3.508156903031075
 30
0.0
 40
0.0799999999999995
 50
209.9999999999996
 51
29.99999999999963
  0
ARC
  5
1C6
  8
0
 10
11.28441874738541
 20
5.523713011474214
 30
0.0
 40
0.04
 50
246.123198866271
 51
330.0000000000006
  0
ARC
  5
1C7
  8
0
 10
11.49226484429368
 20
5.403713011474214
 30
0.0
 40
0.04
 50
149.9999999999995
 51
233.8768011337306
  0
ARC
  5
1C8
  8
0
 10
11.49226484429368
 20
3.586272689812668
 30
0.0
 40
0.04
 50
126.1231988662694
 51
209.9999999999999
  0
ARC
  5
1C9
  8
0
 10
11.28441874738541
 20
3.466272689812667
 30
0.0
 40
0.04
 50
30.000000000001
 51
113.8768011337316
  0
LINE
  5
1CA
  8
0
 10
11.90483829093199
 20
5.351326078745648
 30
0.0
 11
11.03276360949696
 21
5.854818630825615
 31
0.0
  0
LINE
  5
1CB
  8
0
 10
11.90483829093199
 20
3.638659622541237
 30
0.0
 11
11.03276360949697
 21
3.135167070461268
 31
0.0
  0
ARC
  5
1CC
  8
0
 10
10.82905095021448
 20
4.494992850643441
 30
0.0
 40
1.375
 50
81.4799984058905
 51
98.52000159410953
  0
ARC
  5
1CD
  8
0
 10
10.82905095021448
 20
4.494992850643441
 30
0.0
 40
1.375
 50
321.4799984058905
 51
338.5200015941095
  0
ARC
  5
1EC
  8
0
 10
10.82905095021448
 20
4.494992850643441
 30
0.0
 40
1.085
 50
66.12319886626953
 51
113.8768011337305
  0
ARC
  5
1ED
  8
0
 10
10.82905095021448
 20
4.494992850643441
 30
0.0
 40
1.085
 50
306.1231988662695
 51
353.8768011337305
  0
ARC
  5
1EE
  8
0
 10
12.06855095021448
 20
4.614992850643443
 30
0.0
 40
0.04
 50
270.0000000000002
 51
0.0
  0
ARC
  5
1EF
  8
0
 10
12.06855095021448
 20
4.37499285064344
 30
0.0
 40
0.04
 50
0.0
 51
90.00000000000006
  0
LINE
  5
2ED
  8
0
 10
15.35733653223886
 20
4.41499285064344
 30
0.0
 11
15.56332208276912
 21
4.414992850643439
 31
0.0
  0
LINE
  5
2EF
  8
0
 10
15.35733653223886
 20
4.574992850643442
 30
0.0
 11
15.56332208276912
 21
4.574992850643443
 31
0.0
  0
ARC
  5
2F8
  8
0
 10
14.23372627952664
 20
4.49499285064344
 30
0.0
 40
1.278
 50
5.562444103911412
 51
354.4375558960888
  0
ARC
  5
315
  8
0
 10
14.23372627952664
 20
4.49499285064344
 30
0.0
 40
1.09
 50
6.096002136158026
 51
353.9039978638421
  0
ARC
  5
316
  8
0
 10
15.35733653223886
 20
4.614992850643442
 30
0.0
 40
0.04
 50
186.096002136158
 51
270.0000000000002
  0
ARC
  5
317
  8
0
 10
15.35733653223886
 20
4.37499285064344
 30
0.0
 40
0.04
 50
90.0
 51
173.9039978638421
  0
ARC
  5
318
  8
0
 10
15.46589672228203
 20
4.37499285064344
 30
0.0
 40
0.04
 50
354.4375558960887
 51
90.0
  0
ARC
  5
319
  8
0
 10
15.46589672228203
 20
4.614992850643443
 30
0.0
 40
0.04
 50
270.0000000000006
 51
5.562444103911373
  0
ARC
  5
31A
  8
0
 10
14.23372627952664
 20
4.49499285064344
 30
0.0
 40
1.375
 50
5.157143163479529
 51
354.8428568365205
  0
ARC
  5
322
  8
0
 10
15.56332208276912
 20
4.614992850643443
 30
0.0
 40
0.04
 50
270.0000000000004
 51
5.157143163479554
  0
ARC
  5
323
  8
0
 10
15.56332208276912
 20
4.374992850643439
 30
0.0
 40
0.04
 50
354.8428568365206
 51
90.0
  0
TEXT
  5
324
  8
0
 10
10.09985095021448
 20
4.394992850643441
 30
0.0
 40
0.2
  1
Old Version
 72
     4
 11
10.82905095021448
 21
4.494992850643441
 31
0.0
  0
TEXT
  5
325
  8
0
 10
13.44252627952664
 20
4.39659285064344
 30
0.0
 40
0.2
  1
New Version
 72
     4
 11
14.23372627952664
 21
4.49499285064344
 31
0.0
  0
ENDSEC
  0
EOF
