  0
SECTION
  2
HEADER
  9
$ACADVER
  1
AC1024
  9
$ACADMAINTVER
 70
     6
  9
$DWGCODEPAGE
  3
MAC-ROMAN
  9
$INSBASE
 10
0.0
 20
0.0
 30
0.0
  9
$EXTMIN
 10
1.000000000000000E+20
 20
1.000000000000000E+20
 30
1.000000000000000E+20
  9
$EXTMAX
 10
-1.000000000000000E+20
 20
-1.000000000000000E+20
 30
-1.000000000000000E+20
  9
$LIMMIN
 10
0.0
 20
0.0
  9
$LIMMAX
 10
420.0
 20
297.0
  9
$ORTHOMODE
 70
     0
  9
$REGENMODE
 70
     1
  9
$FILLMODE
 70
     1
  9
$QTEXTMODE
 70
     0
  9
$MIRRTEXT
 70
     1
  9
$LTSCALE
 40
1.0
  9
$ATTMODE
 70
     1
  9
$TEXTSIZE
 40
2.5
  9
$TRACEWID
 40
1.0
  9
$TEXTSTYLE
  7
Standard
  9
$CLAYER
  8
0
  9
$CELTYPE
  6
ByLayer
  9
$CECOLOR
 62
   256
  9
$CELTSCALE
 40
1.0
  9
$DISPSILH
 70
     0
  9
$DIMSCALE
 40
1.0
  9
$DIMASZ
 40
2.5
  9
$DIMEXO
 40
0.625
  9
$DIMDLI
 40
3.75
  9
$DIMRND
 40
0.0
  9
$DIMDLE
 40
0.0
  9
$DIMEXE
 40
1.25
  9
$DIMTP
 40
0.0
  9
$DIMTM
 40
0.0
  9
$DIMTXT
 40
2.5
  9
$DIMCEN
 40
2.5
  9
$DIMTSZ
 40
0.0
  9
$DIMTOL
 70
     0
  9
$DIMLIM
 70
     0
  9
$DIMTIH
 70
     0
  9
$DIMTOH
 70
     0
  9
$DIMSE1
 70
     0
  9
$DIMSE2
 70
     0
  9
$DIMTAD
 70
     1
  9
$DIMZIN
 70
     8
  9
$DIMBLK
  1

  9
$DIMASO
 70
     1
  9
$DIMSHO
 70
     1
  9
$DIMPOST
  1

  9
$DIMAPOST
  1

  9
$DIMALT
 70
     0
  9
$DIMALTD
 70
     3
  9
$DIMALTF
 40
0.03937007874016
  9
$DIMLFAC
 40
1.0
  9
$DIMTOFL
 70
     1
  9
$DIMTVP
 40
0.0
  9
$DIMTIX
 70
     0
  9
$DIMSOXD
 70
     0
  9
$DIMSAH
 70
     0
  9
$DIMBLK1
  1

  9
$DIMBLK2
  1

  9
$DIMSTYLE
  2
ISO-25
  9
$DIMCLRD
 70
     0
  9
$DIMCLRE
 70
     0
  9
$DIMCLRT
 70
     0
  9
$DIMTFAC
 40
1.0
  9
$DIMGAP
 40
0.625
  9
$DIMJUST
 70
     0
  9
$DIMSD1
 70
     0
  9
$DIMSD2
 70
     0
  9
$DIMTOLJ
 70
     0
  9
$DIMTZIN
 70
     8
  9
$DIMALTZ
 70
     0
  9
$DIMALTTZ
 70
     0
  9
$DIMUPT
 70
     0
  9
$DIMDEC
 70
     2
  9
$DIMTDEC
 70
     2
  9
$DIMALTU
 70
     2
  9
$DIMALTTD
 70
     3
  9
$DIMTXSTY
  7
Standard
  9
$DIMAUNIT
 70
     0
  9
$DIMADEC
 70
     0
  9
$DIMALTRND
 40
0.0
  9
$DIMAZIN
 70
     0
  9
$DIMDSEP
 70
    44
  9
$DIMATFIT
 70
     3
  9
$DIMFRAC
 70
     0
  9
$DIMLDRBLK
  1

  9
$DIMLUNIT
 70
     2
  9
$DIMLWD
 70
    -2
  9
$DIMLWE
 70
    -2
  9
$DIMTMOVE
 70
     0
  9
$DIMFXL
 40
1.0
  9
$DIMFXLON
 70
     0
  9
$DIMJOGANG
 40
0.7853981633974483
  9
$DIMTFILL
 70
     0
  9
$DIMTFILLCLR
 70
     0
  9
$DIMARCSYM
 70
     0
  9
$DIMLTYPE
  6

  9
$DIMLTEX1
  6

  9
$DIMLTEX2
  6

  9
$DIMTXTDIRECTION
 70
     0
  9
$LUNITS
 70
     2
  9
$LUPREC
 70
     4
  9
$SKETCHINC
 40
1.0
  9
$FILLETRAD
 40
0.0
  9
$AUNITS
 70
     0
  9
$AUPREC
 70
     0
  9
$MENU
  1
.
  9
$ELEVATION
 40
0.0
  9
$PELEVATION
 40
0.0
  9
$THICKNESS
 40
0.0
  9
$LIMCHECK
 70
     0
  9
$CHAMFERA
 40
0.0
  9
$CHAMFERB
 40
0.0
  9
$CHAMFERC
 40
0.0
  9
$CHAMFERD
 40
0.0
  9
$SKPOLY
 70
     0
  9
$TDCREATE
 40
2460119.307453148
  9
$TDUCREATE
 40
2460119.515786482
  9
$TDUPDATE
 40
2460119.307453218
  9
$TDUUPDATE
 40
2460119.515786551
  9
$TDINDWG
 40
0.0000000116
  9
$TDUSRTIMER
 40
0.0000000116
  9
$USRTIMER
 70
     1
  9
$ANGBASE
 50
0.0
  9
$ANGDIR
 70
     0
  9
$PDMODE
 70
     0
  9
$PDSIZE
 40
0.0
  9
$PLINEWID
 40
0.0
  9
$SPLFRAME
 70
     0
  9
$SPLINETYPE
 70
     6
  9
$SPLINESEGS
 70
     8
  9
$HANDSEED
  5
142
  9
$SURFTAB1
 70
     6
  9
$SURFTAB2
 70
     6
  9
$SURFTYPE
 70
     6
  9
$SURFU
 70
     6
  9
$SURFV
 70
     6
  9
$UCSBASE
  2

  9
$UCSNAME
  2

  9
$UCSORG
 10
0.0
 20
0.0
 30
0.0
  9
$UCSXDIR
 10
1.0
 20
0.0
 30
0.0
  9
$UCSYDIR
 10
0.0
 20
1.0
 30
0.0
  9
$UCSORTHOREF
  2

  9
$UCSORTHOVIEW
 70
     0
  9
$UCSORGTOP
 10
0.0
 20
0.0
 30
0.0
  9
$UCSORGBOTTOM
 10
0.0
 20
0.0
 30
0.0
  9
$UCSORGLEFT
 10
0.0
 20
0.0
 30
0.0
  9
$UCSORGRIGHT
 10
0.0
 20
0.0
 30
0.0
  9
$UCSORGFRONT
 10
0.0
 20
0.0
 30
0.0
  9
$UCSORGBACK
 10
0.0
 20
0.0
 30
0.0
  9
$PUCSBASE
  2

  9
$PUCSNAME
  2

  9
$PUCSORG
 10
0.0
 20
0.0
 30
0.0
  9
$PUCSXDIR
 10
1.0
 20
0.0
 30
0.0
  9
$PUCSYDIR
 10
0.0
 20
1.0
 30
0.0
  9
$PUCSORTHOREF
  2

  9
$PUCSORTHOVIEW
 70
     0
  9
$PUCSORGTOP
 10
0.0
 20
0.0
 30
0.0
  9
$PUCSORGBOTTOM
 10
0.0
 20
0.0
 30
0.0
  9
$PUCSORGLEFT
 10
0.0
 20
0.0
 30
0.0
  9
$PUCSORGRIGHT
 10
0.0
 20
0.0
 30
0.0
  9
$PUCSORGFRONT
 10
0.0
 20
0.0
 30
0.0
  9
$PUCSORGBACK
 10
0.0
 20
0.0
 30
0.0
  9
$USERI1
 70
     0
  9
$USERI2
 70
     0
  9
$USERI3
 70
     0
  9
$USERI4
 70
     0
  9
$USERI5
 70
     0
  9
$USERR1
 40
0.0
  9
$USERR2
 40
0.0
  9
$USERR3
 40
0.0
  9
$USERR4
 40
0.0
  9
$USERR5
 40
0.0
  9
$WORLDVIEW
 70
     1
  9
$SHADEDGE
 70
     3
  9
$SHADEDIF
 70
    70
  9
$TILEMODE
 70
     1
  9
$MAXACTVP
 70
    64
  9
$PINSBASE
 10
0.0
 20
0.0
 30
0.0
  9
$PLIMCHECK
 70
     0
  9
$PEXTMIN
 10
1.000000000000000E+20
 20
1.000000000000000E+20
 30
1.000000000000000E+20
  9
$PEXTMAX
 10
-1.000000000000000E+20
 20
-1.000000000000000E+20
 30
-1.000000000000000E+20
  9
$PLIMMIN
 10
0.0
 20
0.0
  9
$PLIMMAX
 10
420.0
 20
297.0
  9
$UNITMODE
 70
     0
  9
$VISRETAIN
 70
     1
  9
$PLINEGEN
 70
     0
  9
$PSLTSCALE
 70
     1
  9
$TREEDEPTH
 70
  3020
  9
$CMLSTYLE
  2
Standard
  9
$CMLJUST
 70
     0
  9
$CMLSCALE
 40
20.0
  9
$PROXYGRAPHICS
 70
     1
  9
$MEASUREMENT
 70
     1
  9
$CELWEIGHT
370
    -1
  9
$ENDCAPS
280
     0
  9
$JOINSTYLE
280
     0
  9
$LWDISPLAY
290
     0
  9
$INSUNITS
 70
     1
  9
$HYPERLINKBASE
  1

  9
$STYLESHEET
  1

  9
$XEDIT
290
     1
  9
$CEPSNTYPE
380
     0
  9
$PSTYLEMODE
290
     1
  9
$FINGERPRINTGUID
  2
{1b656abb-445b-d84a-a8c5-b0276b5a3496}
  9
$VERSIONGUID
  2
{FAEB1C32-E019-11D5-929B-00C0DF256EC4}
  9
$EXTNAMES
290
     1
  9
$PSVPSCALE
 40
0.0
  9
$OLESTARTUP
290
     0
  9
$SORTENTS
280
   127
  9
$INDEXCTL
280
     0
  9
$HIDETEXT
280
     1
  9
$XCLIPFRAME
280
     2
  9
$HALOGAP
280
     0
  9
$OBSCOLOR
 70
   257
  9
$OBSLTYPE
280
     0
  9
$INTERSECTIONDISPLAY
280
     0
  9
$INTERSECTIONCOLOR
 70
   257
  9
$DIMASSOC
280
     2
  9
$PROJECTNAME
  1

  9
$CAMERADISPLAY
290
     0
  9
$LENSLENGTH
 40
50.0
  9
$CAMERAHEIGHT
 40
0.0
  9
$STEPSPERSEC
 40
2.0
  9
$STEPSIZE
 40
6.0
  9
$3DDWFPREC
 40
2.0
  9
$PSOLWIDTH
 40
5.0
  9
$PSOLHEIGHT
 40
80.0
  9
$LOFTANG1
 40
1.570796326794897
  9
$LOFTANG2
 40
1.570796326794897
  9
$LOFTMAG1
 40
0.0
  9
$LOFTMAG2
 40
0.0
  9
$LOFTPARAM
 70
     7
  9
$LOFTNORMALS
280
     1
  9
$LATITUDE
 40
37.795
  9
$LONGITUDE
 40
-122.394
  9
$NORTHDIRECTION
 40
0.0
  9
$TIMEZONE
 70
 -8000
  9
$LIGHTGLYPHDISPLAY
280
     1
  9
$TILEMODELIGHTSYNCH
280
     1
  9
$CMATERIAL
347
44
  9
$SOLIDHIST
280
     0
  9
$SHOWHIST
280
     1
  9
$DWFFRAME
280
     2
  9
$DGNFRAME
280
     2
  9
$REALWORLDSCALE
290
     1
  9
$INTERFERECOLOR
 62
   256
  9
$CSHADOW
280
     0
  9
$SHADOWPLANELOCATION
 40
0.0
  0
ENDSEC
  0
SECTION
  2
CLASSES
  0
CLASS
  1
ACDBDICTIONARYWDFLT
  2
AcDbDictionaryWithDefault
  3
ObjectDBX Classes
 90
        0
 91
        3
280
     0
281
     0
  0
CLASS
  1
VISUALSTYLE
  2
AcDbVisualStyle
  3
ObjectDBX Classes
 90
     4095
 91
        3
280
     0
281
     0
  0
CLASS
  1
MATERIAL
  2
AcDbMaterial
  3
ObjectDBX Classes
 90
     1153
 91
        3
280
     0
281
     0
  0
CLASS
  1
SCALE
  2
AcDbScale
  3
ObjectDBX Classes
 90
     1153
 91
        3
280
     0
281
     0
  0
CLASS
  1
TABLESTYLE
  2
AcDbTableStyle
  3
ObjectDBX Classes
 90
     4095
 91
        3
280
     0
281
     0
  0
CLASS
  1
MLEADERSTYLE
  2
AcDbMLeaderStyle
  3
ACDB_MLEADERSTYLE_CLASS
 90
     4095
 91
        3
280
     0
281
     0
  0
CLASS
  1
SUN
  2
AcDbSun
  3
SCENEOE
 90
     1153
 91
        3
280
     0
281
     0
  0
CLASS
  1
DICTIONARYVAR
  2
AcDbDictionaryVar
  3
ObjectDBX Classes
 90
        0
 91
        3
280
     0
281
     0
  0
CLASS
  1
CELLSTYLEMAP
  2
AcDbCellStyleMap
  3
ObjectDBX Classes
 90
     1152
 91
        3
280
     0
281
     0
  0
ENDSEC
  0
SECTION
  2
TABLES
  0
TABLE
  2
VPORT
  5
8
330
0
100
AcDbSymbolTable
 70
     1
  0
VPORT
  5
29
330
8
100
AcDbSymbolTableRecord
100
AcDbViewportTableRecord
  2
*Active
 70
     0
 10
0.0
 20
0.0
 11
1.0
 21
1.0
 12
344.1869158878504
 22
148.5
 13
0.0
 23
0.0
 14
10.0
 24
10.0
 15
10.0
 25
10.0
 16
0.0
 26
0.0
 36
1.0
 17
0.0
 27
0.0
 37
0.0
 40
297.0
 41
1.972972972850329
 42
50.0
 43
0.0
 44
0.0
 50
0.0
 51
0.0
 71
     0
 72
   100
 73
     1
 74
     3
 75
     0
 76
     0
 77
     0
 78
     0
281
     0
 65
     1
110
0.0
120
0.0
130
0.0
111
1.0
121
0.0
131
0.0
112
0.0
122
1.0
132
0.0
 79
     0
146
0.0
348
2F
 60
     3
 61
     5
292
     1
282
     1
141
0.0
142
0.0
 63
   250
361
5D
  0
ENDTAB
  0
TABLE
  2
LTYPE
  5
5
330
0
100
AcDbSymbolTable
 70
     1
  0
LTYPE
  5
14
330
5
100
AcDbSymbolTableRecord
100
AcDbLinetypeTableRecord
  2
ByBlock
 70
     0
  3

 72
    65
 73
     0
 40
0.0
  0
LTYPE
  5
15
330
5
100
AcDbSymbolTableRecord
100
AcDbLinetypeTableRecord
  2
ByLayer
 70
     0
  3

 72
    65
 73
     0
 40
0.0
  0
LTYPE
  5
16
330
5
100
AcDbSymbolTableRecord
100
AcDbLinetypeTableRecord
  2
Continuous
 70
     0
  3
Solid line
 72
    65
 73
     0
 40
0.0
  0
ENDTAB
  0
TABLE
  2
LAYER
  5
2
330
0
100
AcDbSymbolTable
 70
     2
  0
LAYER
  5
10
330
2
100
AcDbSymbolTableRecord
100
AcDbLayerTableRecord
  2
0
 70
     0
 62
     7
  6
Continuous
370
    -3
390
F
347
46
  0
LAYER
  5
5E
330
2
100
AcDbSymbolTableRecord
100
AcDbLayerTableRecord
  2
Sketch plane 04
 70
     0
 62
     7
  6
Continuous
370
    -3
390
F
347
46
  0
ENDTAB
  0
TABLE
  2
STYLE
  5
3
330
0
100
AcDbSymbolTable
 70
     1
  0
STYLE
  5
11
330
3
100
AcDbSymbolTableRecord
100
AcDbTextStyleTableRecord
  2
Standard
 70
     0
 40
0.0
 41
1.0
 50
0.0
 71
     0
 42
2.5
  3
txt
  4

  0
ENDTAB
  0
TABLE
  2
VIEW
  5
6
330
0
100
AcDbSymbolTable
 70
     0
  0
ENDTAB
  0
TABLE
  2
UCS
  5
7
330
0
100
AcDbSymbolTable
 70
     0
  0
ENDTAB
  0
TABLE
  2
APPID
  5
9
330
0
100
AcDbSymbolTable
 70
     1
  0
APPID
  5
12
330
9
100
AcDbSymbolTableRecord
100
AcDbRegAppTableRecord
  2
ACAD
 70
     0
  0
ENDTAB
  0
TABLE
  2
DIMSTYLE
  5
A
330
0
100
AcDbSymbolTable
 70
     1
100
AcDbDimStyleTable
  0
DIMSTYLE
105
27
330
A
100
AcDbSymbolTableRecord
100
AcDbDimStyleTableRecord
  2
ISO-25
 70
     0
 41
2.5
 42
0.625
 43
3.75
 44
1.25
 73
     0
 74
     0
 77
     1
 78
     8
140
2.5
141
2.5
143
0.03937007874016
147
0.625
171
     3
172
     1
178
     0
271
     2
272
     2
274
     3
278
    44
283
     0
284
     8
340
11
  0
ENDTAB
  0
TABLE
  2
BLOCK_RECORD
  5
1
330
0
100
AcDbSymbolTable
 70
     1
  0
BLOCK_RECORD
  5
1F
330
1
100
AcDbSymbolTableRecord
100
AcDbBlockTableRecord
  2
*Model_Space
340
22
 70
     0
280
     1
281
     0
  0
BLOCK_RECORD
  5
1B
330
1
100
AcDbSymbolTableRecord
100
AcDbBlockTableRecord
  2
*Paper_Space
340
1E
 70
     0
280
     1
281
     0
  0
BLOCK_RECORD
  5
23
330
1
100
AcDbSymbolTableRecord
100
AcDbBlockTableRecord
  2
*Paper_Space0
340
26
 70
     0
280
     1
281
     0
  0
ENDTAB
  0
ENDSEC
  0
SECTION
  2
BLOCKS
  0
BLOCK
  5
20
330
1F
100
AcDbEntity
  8
0
100
AcDbBlockBegin
  2
*Model_Space
 70
     0
 10
0.0
 20
0.0
 30
0.0
  3
*Model_Space
  1

  0
ENDBLK
  5
21
330
1F
100
AcDbEntity
  8
0
100
AcDbBlockEnd
  0
BLOCK
  5
1C
330
1B
100
AcDbEntity
 67
     1
  8
0
100
AcDbBlockBegin
  2
*Paper_Space
 70
     0
 10
0.0
 20
0.0
 30
0.0
  3
*Paper_Space
  1

  0
ENDBLK
  5
1D
330
1B
100
AcDbEntity
 67
     1
  8
0
100
AcDbBlockEnd
  0
BLOCK
  5
24
330
23
100
AcDbEntity
  8
0
100
AcDbBlockBegin
  2
*Paper_Space0
 70
     0
 10
0.0
 20
0.0
 30
0.0
  3
*Paper_Space0
  1

  0
ENDBLK
  5
25
330
23
100
AcDbEntity
  8
0
100
AcDbBlockEnd
  0
ENDSEC
  0
SECTION
  2
ENTITIES
  0
LINE
  5
5F
330
1F
100
AcDbEntity
  8
Sketch plane 04
100
AcDbLine
 10
112.999999999464
 20
3.999999999983999
 30
4.0
 11
112.999999999464
 21
17.999999999928
 31
4.0
  0
LINE
  5
60
330
1F
100
AcDbEntity
  8
Sketch plane 04
100
AcDbLine
 10
114.8174016139221
 20
15.2768754309917
 30
4.0
 11
114.7301787708077
 21
15.2768754309917
 31
4.0
  0
LINE
  5
61
330
1F
100
AcDbEntity
  8
Sketch plane 04
100
AcDbLine
 10
102.8916861393605
 20
6.58688029927129
 30
4.0
 11
102.8916861393605
 21
6.322727538536151
 31
4.0
  0
LINE
  5
62
330
1F
100
AcDbEntity
  8
Sketch plane 04
100
AcDbLine
 10
107.7574750430737
 20
9.744258487785439
 30
4.0
 11
107.7062105577297
 21
9.750931971084665
 31
4.0
  0
LINE
  5
63
330
1F
100
AcDbEntity
  8
Sketch plane 04
100
AcDbLine
 10
115.6073112730388
 20
15.62941521654858
 30
4.0
 11
115.1495126799646
 21
15.62941521654858
 31
4.0
  0
LINE
  5
64
330
1F
100
AcDbEntity
  8
Sketch plane 04
100
AcDbLine
 10
101.7760339921258
 20
6.622223244056426
 30
4.0
 11
101.8890088387511
 21
6.622223244056426
 31
4.0
  0
LINE
  5
65
330
1F
100
AcDbEntity
  8
Sketch plane 04
100
AcDbLine
 10
101.8156671209599
 20
6.58688029927129
 30
4.0
 11
101.8156671209599
 21
6.479829992523252
 31
4.0
  0
LINE
  5
66
330
1F
100
AcDbEntity
  8
Sketch plane 04
100
AcDbLine
 10
107.7492848590247
 20
9.979347104008085
 30
4.0
 11
107.970419828349
 21
9.979347104008085
 31
4.0
  0
LINE
  5
67
330
1F
100
AcDbEntity
  8
Sketch plane 04
100
AcDbLine
 10
117.999999999528
 20
17.999999999928
 30
4.0
 11
117.999999999528
 21
3.999999999984002
 31
4.0
  0
LINE
  5
68
330
1F
100
AcDbEntity
  8
Sketch plane 04
100
AcDbLine
 10
102.101475096419
 20
6.322727538536151
 30
4.0
 11
102.0618419675847
 21
6.322727538536151
 31
4.0
  0
LINE
  5
69
330
1F
100
AcDbEntity
  8
Sketch plane 04
100
AcDbLine
 10
101.892481844886
 20
6.444487047738116
 30
4.0
 11
101.8156671209599
 21
6.444487047738116
 31
4.0
  0
LINE
  5
6A
330
1F
100
AcDbEntity
  8
Sketch plane 04
100
AcDbLine
 10
107.9912090491405
 20
15.1980286163137
 30
4.0
 11
107.9366078221469
 21
15.20773550111257
 31
4.0
  0
LINE
  5
6B
330
1F
100
AcDbEntity
  8
Sketch plane 04
100
AcDbLine
 10
107.6406890853373
 20
9.647189639796736
 30
4.0
 11
107.5806277356443
 21
9.647189639796736
 31
4.0
  0
LINE
  5
6C
330
1F
100
AcDbEntity
  8
Sketch plane 04
100
AcDbLine
 10
102.101475096419
 20
6.622223244056426
 30
4.0
 11
102.101475096419
 21
6.322727538536151
 31
4.0
  0
LINE
  5
6D
330
1F
100
AcDbEntity
  8
Sketch plane 04
100
AcDbLine
 10
106.497803354186
 20
14.42188480249136
 30
4.0
 11
106.497803354186
 21
14.36598841530685
 31
4.0
  0
LINE
  5
6E
330
1F
100
AcDbEntity
  8
Sketch plane 04
100
AcDbLine
 10
107.5260265086506
 20
9.697240764540911
 30
4.0
 11
107.5260265086506
 21
9.897748603667582
 31
4.0
  0
LINE
  5
6F
330
1F
100
AcDbEntity
  8
Sketch plane 04
100
AcDbLine
 10
107.5806277356443
 20
9.540717247159124
 30
4.0
 11
107.5260265086506
 21
9.540717247159124
 31
4.0
  0
LINE
  5
70
330
1F
100
AcDbEntity
  8
Sketch plane 04
100
AcDbLine
 10
107.5260265086506
 20
9.647189639796736
 30
4.0
 11
107.3331021732731
 21
9.647189639796736
 31
4.0
  0
LINE
  5
71
330
1F
100
AcDbEntity
  8
Sketch plane 04
100
AcDbLine
 10
108.99999999948
 20
3.999999999983999
 30
4.0
 11
108.99999999948
 21
17.999999999928
 31
4.0
  0
LINE
  5
72
330
1F
100
AcDbEntity
  8
Sketch plane 04
100
AcDbLine
 10
114.8504873189473
 20
15.62941521654858
 30
4.0
 11
114.3767655777338
 21
15.62941521654858
 31
4.0
  0
LINE
  5
73
330
1F
100
AcDbEntity
  8
Sketch plane 04
100
AcDbLine
 10
103.0956708575934
 20
6.230969883064415
 30
4.0
 11
106.2134201427083
 21
13.75788249136901
 31
4.0
  0
LINE
  5
74
330
1F
100
AcDbEntity
  8
Sketch plane 04
100
AcDbLine
 10
114.3794374298338
 20
14.40004964984281
 30
4.0
 11
114.3767655777338
 21
15.62941521654858
 31
4.0
  0
LINE
  5
75
330
1F
100
AcDbEntity
  8
Sketch plane 04
100
AcDbLine
 10
107.970419828349
 20
9.979347104008085
 30
4.0
 11
107.970419828349
 21
9.927172598214156
 31
4.0
  0
LINE
  5
76
330
1F
100
AcDbEntity
  8
Sketch plane 04
100
AcDbLine
 10
106.1475896799266
 20
11.45178524780943
 30
4.0
 11
107.7809314178084
 21
14.28081612394361
 31
4.0
  0
LINE
  5
77
330
1F
100
AcDbEntity
  8
Sketch plane 04
100
AcDbLine
 10
107.5806277356443
 20
9.98541390700738
 30
4.0
 11
107.5806277356443
 21
9.697240764540911
 31
4.0
  0
LINE
  5
78
330
1F
100
AcDbEntity
  8
Sketch plane 04
100
AcDbLine
 10
116.999999999448
 20
5.000000000028003
 30
4.0
 11
100.999999999512
 21
4.99999999998
 31
4.0
  0
LINE
  5
79
330
1F
100
AcDbEntity
  8
Sketch plane 04
100
AcDbLine
 10
117.999999999528
 20
3.999999999984001
 30
4.0
 11
99.99999999959999
 21
3.999999999984001
 31
4.0
  0
LINE
  5
7A
330
1F
100
AcDbEntity
  8
Sketch plane 04
100
AcDbLine
 10
101.8922775504075
 20
6.58688029927129
 30
4.0
 11
101.8156671209599
 21
6.58688029927129
 31
4.0
  0
LINE
  5
7B
330
1F
100
AcDbEntity
  8
Sketch plane 04
100
AcDbLine
 10
111.24999999947
 20
6.000000000016385
 30
4.0
 11
114.749999999458
 21
6.000000000049644
 31
4.0
  0
LINE
  5
7C
330
1F
100
AcDbEntity
  8
Sketch plane 04
100
AcDbLine
 10
106.497803354186
 20
14.36598841530685
 30
4.0
 11
106.4419069670015
 21
14.36598841530685
 31
4.0
  0
LINE
  5
7D
330
1F
100
AcDbEntity
  8
Sketch plane 04
100
AcDbLine
 10
110.753814228311
 20
9.760119055222495
 30
4.0
 11
110.6995163414673
 21
9.755872293122987
 31
4.0
  0
LINE
  5
7E
330
1F
100
AcDbEntity
  8
Sketch plane 04
100
AcDbLine
 10
107.6406890853373
 20
9.697240764540911
 30
4.0
 11
107.6406890853373
 21
9.647189639796736
 31
4.0
  0
LINE
  5
7F
330
1F
100
AcDbEntity
  8
Sketch plane 04
100
AcDbLine
 10
114.8178719445309
 20
14.40100252522062
 30
4.0
 11
114.8178719445309
 21
14.80932672619928
 31
4.0
  0
LINE
  5
80
330
1F
100
AcDbEntity
  8
Sketch plane 04
100
AcDbLine
 10
99.99999999959999
 20
17.999999999928
 30
4.0
 11
117.999999999528
 21
17.999999999928
 31
4.0
  0
LINE
  5
81
330
1F
100
AcDbEntity
  8
Sketch plane 04
100
AcDbLine
 10
99.99999999959999
 20
17.999999999928
 30
4.0
 11
99.99999999959999
 21
3.999999999984002
 31
4.0
  0
LINE
  5
82
330
1F
100
AcDbEntity
  8
Sketch plane 04
100
AcDbLine
 10
115.255612361633
 20
14.40203584677325
 30
4.0
 11
115.6073112730388
 21
14.40252957964929
 31
4.0
  0
LINE
  5
83
330
1F
100
AcDbEntity
  8
Sketch plane 04
100
AcDbLine
 10
114.7301787708077
 20
14.40081193651639
 30
4.0
 11
114.7301787708077
 21
15.2768754309917
 31
4.0
  0
LINE
  5
84
330
1F
100
AcDbEntity
  8
Sketch plane 04
100
AcDbLine
 10
108.038833452685
 20
15.08700612142662
 30
4.0
 11
108.0449002556843
 21
15.13493386512104
 31
4.0
  0
LINE
  5
85
330
1F
100
AcDbEntity
  8
Sketch plane 04
100
AcDbLine
 10
107.3867933798169
 20
9.697240764540911
 30
4.0
 11
107.5260265086506
 21
9.697240764540911
 31
4.0
  0
LINE
  5
86
330
1F
100
AcDbEntity
  8
Sketch plane 04
100
AcDbLine
 10
107.7929658406196
 20
9.927172598214156
 30
4.0
 11
107.7690019687724
 21
9.807656579128063
 31
4.0
  0
LINE
  5
87
330
1F
100
AcDbEntity
  8
Sketch plane 04
100
AcDbLine
 10
106.1656970147191
 20
14.41315951278451
 30
4.0
 11
106.3617433678198
 21
14.41315951278451
 31
4.0
  0
LINE
  5
88
330
1F
100
AcDbEntity
  8
Sketch plane 04
100
AcDbLine
 10
107.7062105577297
 20
9.750931971084665
 30
4.0
 11
107.7492848590247
 21
9.979347104008085
 31
4.0
  0
LINE
  5
89
330
1F
100
AcDbEntity
  8
Sketch plane 04
100
AcDbLine
 10
114.8174016139221
 20
14.86849393436278
 30
4.0
 11
114.8174016139221
 21
15.2768754309917
 31
4.0
  0
LINE
  5
8A
330
1F
100
AcDbEntity
  8
Sketch plane 04
100
AcDbLine
 10
106.0511775873167
 20
14.36598841530685
 30
4.0
 11
105.7869649083811
 21
14.36598841530685
 31
4.0
  0
LINE
  5
8B
330
1F
100
AcDbEntity
  8
Sketch plane 04
100
AcDbLine
 10
107.9311476994475
 20
14.99388069538746
 30
4.0
 11
107.9857489264411
 21
15.00116085898661
 31
4.0
  0
LINE
  5
8C
330
1F
100
AcDbEntity
  8
Sketch plane 04
100
AcDbLine
 10
102.7533787773979
 20
6.622223244056426
 30
4.0
 11
102.990768961446
 21
6.622223244056426
 31
4.0
  0
LINE
  5
8D
330
1F
100
AcDbEntity
  8
Sketch plane 04
100
AcDbLine
 10
103.1767766947984
 20
6.17677669523405
 30
4.0
 11
106.8232233041936
 21
9.823223304663939
 31
4.0
  0
LINE
  5
8E
330
1F
100
AcDbEntity
  8
Sketch plane 04
100
AcDbLine
 10
106.5782396186711
 20
14.55494547052082
 30
4.0
 11
106.6169580917452
 21
14.76026244393513
 31
4.0
  0
LINE
  5
8F
330
1F
100
AcDbEntity
  8
Sketch plane 04
100
AcDbLine
 10
106.4419069670015
 20
14.42188480249136
 30
4.0
 11
106.497803354186
 21
14.42188480249136
 31
4.0
  0
LINE
  5
90
330
1F
100
AcDbEntity
  8
Sketch plane 04
100
AcDbLine
 10
107.5260265086506
 20
9.897748603667582
 30
4.0
 11
107.3867933798169
 21
9.697240764540911
 31
4.0
  0
LINE
  5
91
330
1F
100
AcDbEntity
  8
Sketch plane 04
100
AcDbLine
 10
107.5806277356443
 20
9.647189639796736
 30
4.0
 11
107.5806277356443
 21
9.540717247159124
 31
4.0
  0
LINE
  5
92
330
1F
100
AcDbEntity
  8
Sketch plane 04
100
AcDbLine
 10
107.970419828349
 20
9.927172598214156
 30
4.0
 11
107.7929658406196
 21
9.927172598214156
 31
4.0
  0
LINE
  5
93
330
1F
100
AcDbEntity
  8
Sketch plane 04
100
AcDbLine
 10
116.999999999448
 20
16.999999999932
 30
4.0
 11
116.999999999448
 21
5.000000000028002
 31
4.0
  0
LINE
  5
94
330
1F
100
AcDbEntity
  8
Sketch plane 04
100
AcDbLine
 10
107.249999999486
 20
5.999999999978376
 30
4.0
 11
110.749999999474
 21
6.000000000011634
 31
4.0
  0
LINE
  5
95
330
1F
100
AcDbEntity
  8
Sketch plane 04
100
AcDbLine
 10
100.999999999512
 20
16.999999999884
 30
4.0
 11
116.999999999448
 21
16.999999999932
 31
4.0
  0
LINE
  5
96
330
1F
100
AcDbEntity
  8
Sketch plane 04
100
AcDbLine
 10
102.990768961446
 20
6.622223244056426
 30
4.0
 11
102.990768961446
 21
6.58688029927129
 31
4.0
  0
LINE
  5
97
330
1F
100
AcDbEntity
  8
Sketch plane 04
100
AcDbLine
 10
114.8178719445309
 20
14.40100252522062
 30
4.0
 11
115.1684370232189
 21
14.40108171920839
 31
4.0
  0
LINE
  5
98
330
1F
100
AcDbEntity
  8
Sketch plane 04
100
AcDbLine
 10
105.8551312342159
 20
14.41315951278451
 30
4.0
 11
106.0511775873167
 21
14.41315951278451
 31
4.0
  0
LINE
  5
99
330
1F
100
AcDbEntity
  8
Sketch plane 04
100
AcDbLine
 10
107.5806277356443
 20
9.697240764540911
 30
4.0
 11
107.6406890853373
 21
9.697240764540911
 31
4.0
  0
LINE
  5
9A
330
1F
100
AcDbEntity
  8
Sketch plane 04
100
AcDbLine
 10
101.7760339921258
 20
6.322727538536151
 30
4.0
 11
101.7760339921258
 21
6.622223244056426
 31
4.0
  0
LINE
  5
9B
330
1F
100
AcDbEntity
  8
Sketch plane 04
100
AcDbLine
 10
106.1572443903156
 20
14.64656101244274
 30
4.0
 11
106.1068013091978
 21
14.65174165320619
 31
4.0
  0
LINE
  5
9C
330
1F
100
AcDbEntity
  8
Sketch plane 04
100
AcDbLine
 10
102.2935119062341
 20
6.404649624425395
 30
4.0
 11
102.3744125197307
 21
6.622223244056426
 31
4.0
  0
LINE
  5
9D
330
1F
100
AcDbEntity
  8
Sketch plane 04
100
AcDbLine
 10
102.2975977958046
 20
6.322727538536151
 30
4.0
 11
102.2569431945778
 21
6.322727538536151
 31
4.0
  0
LINE
  5
9E
330
1F
100
AcDbEntity
  8
Sketch plane 04
100
AcDbLine
 10
115.1689087536213
 20
15.27651725818335
 30
4.0
 11
115.255612361633
 21
15.27683533264164
 31
4.0
  0
LINE
  5
9F
330
1F
100
AcDbEntity
  8
Sketch plane 04
100
AcDbLine
 10
106.8157310978794
 20
14.71336401176081
 30
4.0
 11
106.656221895426
 21
14.71336401176081
 31
4.0
  0
LINE
  5
A0
330
1F
100
AcDbEntity
  8
Sketch plane 04
100
AcDbLine
 10
115.7100840541518
 20
5.877887092559379
 30
4.0
 11
115.7590240677848
 21
5.882413336594806
 31
4.0
  0
LINE
  5
A1
330
1F
100
AcDbEntity
  8
Sketch plane 04
100
AcDbLine
 10
115.255612361633
 20
14.40203584677325
 30
4.0
 11
115.255612361633
 21
15.27683533264164
 31
4.0
  0
LINE
  5
A2
330
1F
100
AcDbEntity
  8
Sketch plane 04
100
AcDbLine
 10
106.3617433678198
 20
14.41315951278451
 30
4.0
 11
106.3617433678198
 21
14.36598841530685
 31
4.0
  0
LINE
  5
A3
330
1F
100
AcDbEntity
  8
Sketch plane 04
100
AcDbLine
 10
107.6965036729308
 20
9.65719986474557
 30
4.0
 11
107.7538349612742
 21
9.662053307145007
 31
4.0
  0
LINE
  5
A4
330
1F
100
AcDbEntity
  8
Sketch plane 04
100
AcDbLine
 10
106.0511775873167
 20
14.41315951278451
 30
4.0
 11
106.0511775873167
 21
14.36598841530685
 31
4.0
  0
LINE
  5
A5
330
1F
100
AcDbEntity
  8
Sketch plane 04
100
AcDbLine
 10
102.1409039307746
 20
6.622223244056426
 30
4.0
 11
102.1838057712652
 21
6.622223244056426
 31
4.0
  0
LINE
  5
A6
330
1F
100
AcDbEntity
  8
Sketch plane 04
100
AcDbLine
 10
99.999999999516
 20
12.999999999948
 30
4.0
 11
117.999999999444
 21
12.999999999948
 31
4.0
  0
LINE
  5
A7
330
1F
100
AcDbEntity
  8
Sketch plane 04
100
AcDbLine
 10
99.99999999951598
 20
8.999999999964002
 30
4.0
 11
117.999999999444
 21
8.999999999964002
 31
4.0
  0
LINE
  5
A8
330
1F
100
AcDbEntity
  8
Sketch plane 04
100
AcDbLine
 10
102.0618419675847
 20
6.322727538536151
 30
4.0
 11
102.0618419675847
 21
6.622223244056426
 31
4.0
  0
LINE
  5
A9
330
1F
100
AcDbEntity
  8
Sketch plane 04
100
AcDbLine
 10
106.4419069670015
 20
14.36598841530685
 30
4.0
 11
106.4419069670015
 21
14.42188480249136
 31
4.0
  0
LINE
  5
AA
330
1F
100
AcDbEntity
  8
Sketch plane 04
100
AcDbLine
 10
101.8156671209599
 20
6.322727538536151
 30
4.0
 11
101.7760339921258
 21
6.322727538536151
 31
4.0
  0
LINE
  5
AB
330
1F
100
AcDbEntity
  8
Sketch plane 04
100
AcDbLine
 10
107.5360367335995
 20
9.98541390700738
 30
4.0
 11
107.5806277356443
 21
9.98541390700738
 31
4.0
  0
LINE
  5
AC
330
1F
100
AcDbEntity
  8
Sketch plane 04
100
AcDbLine
 10
114.8174016139221
 20
14.86849393436278
 30
4.0
 11
115.1689087536213
 21
14.86942136395449
 31
4.0
  0
LINE
  5
AD
330
1F
100
AcDbEntity
  8
Sketch plane 04
100
AcDbLine
 10
114.8174016139221
 20
14.86849393436278
 30
4.0
 11
114.8174016139221
 21
15.2768754309917
 31
4.0
  0
LINE
  5
AE
330
1F
100
AcDbEntity
  8
Sketch plane 04
100
AcDbLine
 10
102.8520530105264
 20
6.58688029927129
 30
4.0
 11
102.7533787773979
 21
6.58688029927129
 31
4.0
  0
LINE
  5
AF
330
1F
100
AcDbEntity
  8
Sketch plane 04
100
AcDbLine
 10
102.0618419675847
 20
6.622223244056426
 30
4.0
 11
102.101475096419
 21
6.622223244056426
 31
4.0
  0
LINE
  5
B0
330
1F
100
AcDbEntity
  8
Sketch plane 04
100
AcDbLine
 10
102.414862826479
 20
6.622223244056426
 30
4.0
 11
102.2975977958046
 21
6.322727538536151
 31
4.0
  0
LINE
  5
B1
330
1F
100
AcDbEntity
  8
Sketch plane 04
100
AcDbLine
 10
106.656221895426
 20
14.71336401176081
 30
4.0
 11
106.6346813364622
 21
14.60593388224522
 31
4.0
  0
LINE
  5
B2
330
1F
100
AcDbEntity
  8
Sketch plane 04
100
AcDbLine
 10
103.249999999502
 20
5.999999999940366
 30
4.0
 11
106.74999999949
 21
5.999999999973624
 31
4.0
  0
LINE
  5
B3
330
1F
100
AcDbEntity
  8
Sketch plane 04
100
AcDbLine
 10
106.6169580917452
 20
14.76026244393513
 30
4.0
 11
106.8157310978794
 21
14.76026244393513
 31
4.0
  0
LINE
  5
B4
330
1F
100
AcDbEntity
  8
Sketch plane 04
100
AcDbLine
 10
106.3617433678198
 20
14.36598841530685
 30
4.0
 11
106.0975306888843
 21
14.36598841530685
 31
4.0
  0
LINE
  5
B5
330
1F
100
AcDbEntity
  8
Sketch plane 04
100
AcDbLine
 10
102.3744125197307
 20
6.622223244056426
 30
4.0
 11
102.414862826479
 21
6.622223244056426
 31
4.0
  0
LINE
  5
B6
330
1F
100
AcDbEntity
  8
Sketch plane 04
100
AcDbLine
 10
114.999999999456
 20
15.4499999999382
 30
4.0
 11
115.1495126799646
 21
15.62941521654858
 31
4.0
  0
LINE
  5
B7
330
1F
100
AcDbEntity
  8
Sketch plane 04
100
AcDbLine
 10
100.999999999512
 20
4.99999999998
 30
4.0
 11
100.999999999512
 21
16.999999999884
 31
4.0
  0
LINE
  5
B8
330
1F
100
AcDbEntity
  8
Sketch plane 04
100
AcDbLine
 10
102.1838057712652
 20
6.622223244056426
 30
4.0
 11
102.2616419675839
 21
6.404649624425395
 31
4.0
  0
LINE
  5
B9
330
1F
100
AcDbEntity
  8
Sketch plane 04
100
AcDbLine
 10
102.2569431945778
 20
6.322727538536151
 30
4.0
 11
102.1409039307746
 21
6.622223244056426
 31
4.0
  0
LINE
  5
BA
330
1F
100
AcDbEntity
  8
Sketch plane 04
100
AcDbLine
 10
114.8178719445309
 20
14.80932672619928
 30
4.0
 11
115.1684370232189
 21
14.80932672619928
 31
4.0
  0
LINE
  5
BB
330
1F
100
AcDbEntity
  8
Sketch plane 04
100
AcDbLine
 10
105.8466786098124
 20
14.64656101244274
 30
4.0
 11
105.7962355286947
 21
14.65174165320619
 31
4.0
  0
LINE
  5
BC
330
1F
100
AcDbEntity
  8
Sketch plane 04
100
AcDbLine
 10
102.8916861393605
 20
6.322727538536151
 30
4.0
 11
102.8520530105264
 21
6.322727538536151
 31
4.0
  0
LINE
  5
BD
330
1F
100
AcDbEntity
  8
Sketch plane 04
100
AcDbLine
 10
102.8520530105264
 20
6.322727538536151
 30
4.0
 11
102.8520530105264
 21
6.58688029927129
 31
4.0
  0
LINE
  5
BE
330
1F
100
AcDbEntity
  8
Sketch plane 04
100
AcDbLine
 10
102.7533787773979
 20
6.58688029927129
 30
4.0
 11
102.7533787773979
 21
6.622223244056426
 31
4.0
  0
LINE
  5
BF
330
1F
100
AcDbEntity
  8
Sketch plane 04
100
AcDbLine
 10
106.6243200549354
 20
14.54894683384736
 30
4.0
 11
106.5782396186711
 21
14.55494547052082
 31
4.0
  0
LINE
  5
C0
330
1F
100
AcDbEntity
  8
Sketch plane 04
100
AcDbLine
 10
106.5695143289642
 20
14.47069189178905
 30
4.0
 11
106.6210480712953
 21
14.47505453664247
 31
4.0
  0
LINE
  5
C1
330
1F
100
AcDbEntity
  8
Sketch plane 04
100
AcDbLine
 10
115.1684370232189
 20
14.80932672619928
 30
4.0
 11
115.1684370232189
 21
14.40108171920839
 31
4.0
  0
LINE
  5
C2
330
1F
100
AcDbEntity
  8
Sketch plane 04
100
AcDbLine
 10
104.999999999496
 20
3.999999999983999
 30
4.0
 11
104.999999999496
 21
17.999999999928
 31
4.0
  0
LINE
  5
C3
330
1F
100
AcDbEntity
  8
Sketch plane 04
100
AcDbLine
 10
107.3331021732731
 20
9.697240764540911
 30
4.0
 11
107.5360367335995
 21
9.98541390700738
 31
4.0
  0
LINE
  5
C4
330
1F
100
AcDbEntity
  8
Sketch plane 04
100
AcDbLine
 10
109.7846829721444
 20
9.917138540644153
 30
4.0
 11
103.2165063504472
 21
6.124999999939049
 31
4.0
  0
LINE
  5
C5
330
1F
100
AcDbEntity
  8
Sketch plane 04
100
AcDbLine
 10
107.5260265086506
 20
9.540717247159124
 30
4.0
 11
107.5260265086506
 21
9.647189639796736
 31
4.0
  0
LINE
  5
C6
330
1F
100
AcDbEntity
  8
Sketch plane 04
100
AcDbLine
 10
107.3331021732731
 20
9.647189639796736
 30
4.0
 11
107.3331021732731
 21
9.697240764540911
 31
4.0
  0
LINE
  5
C7
330
1F
100
AcDbEntity
  8
Sketch plane 04
100
AcDbLine
 10
114.3794374298338
 20
14.40004964984281
 30
4.0
 11
114.7301787708077
 21
14.40081193651639
 31
4.0
  0
LINE
  5
C8
330
1F
100
AcDbEntity
  8
Sketch plane 04
100
AcDbLine
 10
115.1689087536213
 20
14.86942136395449
 30
4.0
 11
115.1689087536213
 21
15.27651725818335
 31
4.0
  0
LINE
  5
C9
330
1F
100
AcDbEntity
  8
Sketch plane 04
100
AcDbLine
 10
106.8157310978794
 20
14.76026244393513
 30
4.0
 11
106.8157310978794
 21
14.71336401176081
 31
4.0
  0
LINE
  5
CA
330
1F
100
AcDbEntity
  8
Sketch plane 04
100
AcDbLine
 10
101.8156671209599
 20
6.479829992523252
 30
4.0
 11
101.8930947283216
 21
6.479829992523252
 31
4.0
  0
LINE
  5
CB
330
1F
100
AcDbEntity
  8
Sketch plane 04
100
AcDbLine
 10
102.990768961446
 20
6.58688029927129
 30
4.0
 11
102.8916861393605
 21
6.58688029927129
 31
4.0
  0
LINE
  5
CC
330
1F
100
AcDbEntity
  8
Sketch plane 04
100
AcDbLine
 10
114.999999999456
 20
15.4499999999382
 30
4.0
 11
114.8504873189473
 21
15.62941521654858
 31
4.0
  0
LINE
  5
CD
330
1F
100
AcDbEntity
  8
Sketch plane 04
100
AcDbLine
 10
115.6073112730388
 20
14.40252957964929
 30
4.0
 11
115.6073112730388
 21
15.62941521654858
 31
4.0
  0
LINE
  5
CE
330
1F
100
AcDbEntity
  8
Sketch plane 04
100
AcDbLine
 10
101.8156671209599
 20
6.444487047738116
 30
4.0
 11
101.8156671209599
 21
6.322727538536151
 31
4.0
  0
LINE
  5
CF
330
1F
100
AcDbEntity
  8
Sketch plane 04
100
AcDbLine
 10
103.124999999503
 20
6.216506350882371
 30
4.0
 11
105.8990436890114
 21
11.02129096352681
 31
4.0
  0
ARC
  5
D0
330
1F
100
AcDbEntity
  8
Sketch plane 04
100
AcDbCircle
 10
117.999999999444
 20
8.999999999964007
 30
4.0
 40
0.2499999999979977
100
AcDbArc
 50
89.99999998075438
 51
270.0000000192456
  0
ARC
  5
D1
330
1F
100
AcDbEntity
  8
Sketch plane 04
100
AcDbCircle
 10
117.999999999444
 20
12.99999999994801
 30
4.0
 40
0.2499999999979977
100
AcDbArc
 50
89.99999998075438
 51
270.0000000192456
  0
ARC
  5
D2
330
1F
100
AcDbEntity
  8
Sketch plane 04
100
AcDbCircle
 10
112.999999999464
 20
17.999999999928
 30
4.0
 40
0.2499999999979977
100
AcDbArc
 50
180.0000000000005
 51
359.9999999999995
  0
ARC
  5
D3
330
1F
100
AcDbEntity
  8
Sketch plane 04
100
AcDbCircle
 10
108.999999999396
 20
17.999999999928
 30
4.0
 40
0.2499999999979977
100
AcDbArc
 50
180.0000000000005
 51
359.9999999999995
  0
ARC
  5
D4
330
1F
100
AcDbEntity
  8
Sketch plane 04
100
AcDbCircle
 10
104.999999999412
 20
17.999999999928
 30
4.0
 40
0.2499999999979977
100
AcDbArc
 50
180.0000000000005
 51
359.9999999999995
  0
ARC
  5
D5
330
1F
100
AcDbEntity
  8
Sketch plane 04
100
AcDbCircle
 10
99.99999999959999
 20
12.999999999948
 30
4.0
 40
0.2499999999979977
100
AcDbArc
 50
270.0
 51
90.0
  0
ARC
  5
D6
330
1F
100
AcDbEntity
  8
Sketch plane 04
100
AcDbCircle
 10
99.99999999951602
 20
8.999999999964004
 30
4.0
 40
0.2499999999979977
100
AcDbArc
 50
270.0000000192456
 51
89.99999998075438
  0
ARC
  5
D7
330
1F
100
AcDbEntity
  8
Sketch plane 04
100
AcDbCircle
 10
104.999999999496
 20
3.999999999984001
 30
4.0
 40
0.2499999999979977
100
AcDbArc
 50
0.0
 51
180.0
  0
ARC
  5
D8
330
1F
100
AcDbEntity
  8
Sketch plane 04
100
AcDbCircle
 10
108.99999999948
 20
3.999999999983999
 30
4.0
 40
0.2499999999979977
100
AcDbArc
 50
0.0000000000003757
 51
179.9999999999996
  0
ARC
  5
D9
330
1F
100
AcDbEntity
  8
Sketch plane 04
100
AcDbCircle
 10
112.999999999464
 20
3.999999999983999
 30
4.0
 40
0.2499999999979977
100
AcDbArc
 50
0.0000000000003757
 51
179.9999999999996
  0
CIRCLE
  5
DA
330
1F
100
AcDbEntity
  8
Sketch plane 04
100
AcDbCircle
 10
102.999999999504
 20
5.99999999993799
 30
4.0
 40
0.2499999999979999
  0
CIRCLE
  5
DB
330
1F
100
AcDbEntity
  8
Sketch plane 04
100
AcDbCircle
 10
114.9931551837717
 20
15.03223889915798
 30
4.0
 40
1.004395507266047
  0
CIRCLE
  5
DC
330
1F
100
AcDbEntity
  8
Sketch plane 04
100
AcDbCircle
 10
106.999999999488
 20
5.999999999976
 30
4.0
 40
0.2499999999979999
  0
CIRCLE
  5
DD
330
1F
100
AcDbEntity
  8
Sketch plane 04
100
AcDbCircle
 10
105.999999999472
 20
11.25000000002776
 30
4.0
 40
0.2499999999979999
  0
CIRCLE
  5
DE
330
1F
100
AcDbEntity
  8
Sketch plane 04
100
AcDbCircle
 10
114.999999999456
 20
6.00000000005202
 30
4.0
 40
0.2499999999979999
  0
CIRCLE
  5
DF
330
1F
100
AcDbEntity
  8
Sketch plane 04
100
AcDbCircle
 10
114.9931551837717
 20
15.03223889915798
 30
4.0
 40
1.069708007265786
  0
CIRCLE
  5
E0
330
1F
100
AcDbEntity
  8
Sketch plane 04
100
AcDbCircle
 10
107.9059314178074
 20
14.49732247488799
 30
4.0
 40
0.2499999999979999
  0
CIRCLE
  5
E1
330
1F
100
AcDbEntity
  8
Sketch plane 04
100
AcDbCircle
 10
105.999999999472
 20
7.250000000042512
 30
4.0
 40
0.2499999999979999
  0
CIRCLE
  5
E2
330
1F
100
AcDbEntity
  8
Sketch plane 04
100
AcDbCircle
 10
105.999999999472
 20
11.25000000002776
 30
4.0
 40
0.13124999999895
  0
CIRCLE
  5
E3
330
1F
100
AcDbEntity
  8
Sketch plane 04
100
AcDbCircle
 10
105.999999999472
 20
15.24999999997851
 30
4.0
 40
0.2499999999979999
  0
CIRCLE
  5
E4
330
1F
100
AcDbEntity
  8
Sketch plane 04
100
AcDbCircle
 10
105.999999999472
 20
15.24999999997851
 30
4.0
 40
0.13124999999895
  0
CIRCLE
  5
E5
330
1F
100
AcDbEntity
  8
Sketch plane 04
100
AcDbCircle
 10
110.0011893230876
 20
10.0421385406452
 30
4.0
 40
0.2499999999979999
  0
CIRCLE
  5
E6
330
1F
100
AcDbEntity
  8
Sketch plane 04
100
AcDbCircle
 10
106.999999999488
 20
9.99999999996
 30
4.0
 40
0.2499999999979999
  0
CIRCLE
  5
E7
330
1F
100
AcDbEntity
  8
Sketch plane 04
100
AcDbCircle
 10
110.999999999472
 20
6.000000000014011
 30
4.0
 40
0.2499999999979999
  0
CIRCLE
  5
E8
330
1F
100
AcDbEntity
  8
Sketch plane 04
100
AcDbCircle
 10
106.3090910007977
 20
13.98885237449544
 30
4.0
 40
0.2499999999979999
  0
CIRCLE
  5
E9
330
1F
100
AcDbEntity
  8
Sketch plane 04
100
AcDbCircle
 10
105.999999999472
 20
7.250000000042512
 30
4.0
 40
0.13124999999895
  0
SPLINE
  5
EA
330
1F
100
AcDbEntity
  8
Sketch plane 04
100
AcDbSpline
210
0.0
220
0.0
230
1.0
 70
     8
 71
     2
 72
    16
 73
    13
 74
     0
 42
0.00000001
 43
0.00000001
 40
0.0
 40
0.0
 40
0.0
 40
0.100027082100785
 40
0.100027082100785
 40
0.2399658097056092
 40
0.2399658097056092
 40
0.3799045373104886
 40
0.3799045373104886
 40
0.5198432649153519
 40
0.5198432649153519
 40
0.7599216324576523
 40
0.7599216324576523
 40
1.0
 40
1.0
 40
1.0
 10
101.8890088387511
 20
6.622223244056426
 30
4.0
 10
101.918835832616
 20
6.622223244056426
 30
4.0
 10
101.9345665074625
 20
6.619363121357051
 30
4.0
 10
101.9566303111434
 20
6.615685820743568
 30
4.0
 10
101.9715438080759
 20
6.605368949577965
 30
4.0
 10
101.9864573050083
 20
6.595052078412362
 30
4.0
 10
101.9955484093028
 20
6.576461280866423
 30
4.0
 10
102.0046395135972
 20
6.557870483320485
 30
4.0
 10
102.0046395135972
 20
6.535602385161066
 30
4.0
 10
102.0046395135972
 20
6.497399317676557
 30
4.0
 10
101.9803284706526
 20
6.470943182707336
 30
4.0
 10
101.9560174277078
 20
6.444487047738116
 30
4.0
 10
101.892481844886
 20
6.444487047738116
 30
4.0
  0
SPLINE
  5
EB
330
1F
100
AcDbEntity
  8
Sketch plane 04
100
AcDbSpline
210
0.0
220
0.0
230
1.0
 70
     8
 71
     2
 72
    14
 73
    11
 74
     0
 42
0.00000001
 43
0.00000001
 40
0.0
 40
0.0
 40
0.0
 40
0.2554554554646151
 40
0.2554554554646151
 40
0.5109109109292509
 40
0.5109109109292509
 40
0.695965256620161
 40
0.695965256620161
 40
0.881019602311047
 40
0.881019602311047
 40
1.0
 40
1.0
 40
1.0
 10
101.8930947283216
 20
6.479829992523252
 30
4.0
 10
101.9315020902847
 20
6.479829992523252
 30
4.0
 10
101.9476413540883
 20
6.494130606020127
 30
4.0
 10
101.9637806178919
 20
6.508431219517002
 30
4.0
 10
101.9637806178919
 20
6.534376618289905
 30
4.0
 10
101.9637806178919
 20
6.55317171031437
 30
4.0
 10
101.9542809246404
 20
6.566552998657876
 30
4.0
 10
101.9447812313889
 20
6.579934287001379
 30
4.0
 10
101.9292548510208
 20
6.584224471050444
 30
4.0
 10
101.919244421573
 20
6.58688029927129
 30
4.0
 10
101.8922775504075
 20
6.58688029927129
 30
4.0
  0
SPLINE
  5
EC
330
1F
100
AcDbEntity
  8
Sketch plane 04
100
AcDbSpline
210
0.0
220
0.0
230
1.0
 70
     8
 71
     2
 72
     6
 73
     3
 74
     0
 42
0.00000001
 43
0.00000001
 40
0.0
 40
0.0
 40
0.0
 40
1.0
 40
1.0
 40
1.0
 10
110.6995163414673
 20
9.755872293122987
 30
4.0
 10
110.6922361778682
 20
9.788026349019248
 30
4.0
 10
110.6788892112697
 20
9.802586676217551
 30
4.0
  0
SPLINE
  5
ED
330
1F
100
AcDbEntity
  8
Sketch plane 04
100
AcDbSpline
210
0.0
220
0.0
230
1.0
 70
     8
 71
     2
 72
    22
 73
    19
 74
     0
 42
0.00000001
 43
0.00000001
 40
0.0
 40
0.0
 40
0.0
 40
0.0489586321416049
 40
0.0489586321416049
 40
0.1294841303836061
 40
0.1294841303836061
 40
0.2100096286256104
 40
0.2100096286256104
 40
0.3350975858063774
 40
0.3350975858063774
 40
0.4601855429871443
 40
0.4601855429871443
 40
0.5914052627748202
 40
0.5914052627748202
 40
0.7226249825625134
 40
0.7226249825625134
 40
0.8613124912812424
 40
0.8613124912812424
 40
1.0
 40
1.0
 40
1.0
 10
105.7869649083811
 20
14.36598841530685
 30
4.0
 10
105.7864195777744
 20
14.38371166002389
 30
4.0
 10
105.7926908797512
 20
14.40007157822423
 30
4.0
 10
105.8027794959748
 20
14.4270654432548
 30
4.0
 10
105.8250017181969
 20
14.45324131237535
 30
4.0
 10
105.8472239404191
 20
14.4794171814959
 30
4.0
 10
105.8892143971333
 20
14.51377300971662
 30
4.0
 10
105.9543814046313
 20
14.56721540917108
 30
4.0
 10
105.9772852901118
 20
14.5984355864034
 30
4.0
 10
106.0001891755923
 20
14.62965576363572
 30
4.0
 10
106.0001891755923
 20
14.6574676245763
 30
4.0
 10
106.0001891755923
 20
14.68664281203358
 30
4.0
 10
105.9793302798868
 20
14.706683711829
 30
4.0
 10
105.9584713841814
 20
14.72672461162442
 30
4.0
 10
105.9249335518707
 20
14.72672461162442
 30
4.0
 10
105.8894870624366
 20
14.72672461162442
 30
4.0
 10
105.8682191687762
 20
14.70545671796398
 30
4.0
 10
105.8469512751157
 20
14.68418882430353
 30
4.0
 10
105.8466786098124
 20
14.64656101244274
 30
4.0
  0
SPLINE
  5
EE
330
1F
100
AcDbEntity
  8
Sketch plane 04
100
AcDbSpline
210
0.0
220
0.0
230
1.0
 70
    11
 71
     2
 72
    28
 73
    25
 74
     0
 42
0.00000001
 43
0.00000001
 40
0.0
 40
0.0
 40
0.0
 40
0.0922676860183594
 40
0.0922676860183594
 40
0.1603151044568699
 40
0.1603151044568699
 40
0.2283625228953499
 40
0.2283625228953499
 40
0.2964099413338298
 40
0.2964099413338298
 40
0.3644573597723164
 40
0.3644573597723164
 40
0.4449905430619027
 40
0.4449905430619027
 40
0.5255237263514784
 40
0.5255237263514784
 40
0.6060569096410306
 40
0.6060569096410306
 40
0.7121006044074145
 40
0.7121006044074145
 40
0.8395416015989835
 40
0.8395416015989835
 40
0.9197708007994864
 40
0.9197708007994864
 40
1.0
 40
1.0
 40
1.0
 10
116.0847721932096
 20
6.174073186627724
 30
4.0
 10
116.1146171148182
 20
6.19840174831815
 30
4.0
 10
116.1598795551725
 20
6.19840174831815
 30
4.0
 10
116.1932606049337
 20
6.19840174831815
 30
4.0
 10
116.2184378373808
 20
6.184964461337974
 30
4.0
 10
116.2436150698279
 20
6.171527174357795
 30
4.0
 10
116.2600227044563
 20
6.146208496784618
 30
4.0
 10
116.2764303390847
 20
6.120889819211439
 30
4.0
 10
116.2857657174078
 20
6.084538421801906
 30
4.0
 10
116.2951010957309
 20
6.048187024392371
 30
4.0
 10
116.2951010957309
 20
5.986516949409661
 30
4.0
 10
116.2951010957309
 20
5.913531264338379
 30
4.0
 10
116.2801079123635
 20
5.868693159362414
 30
4.0
 10
116.2651147289962
 20
5.823855054386454
 30
4.0
 10
116.2352698073876
 20
5.799385047569919
 30
4.0
 10
116.205424885779
 20
5.774915040753382
 30
4.0
 10
116.1598795551725
 20
5.774915040753382
 30
4.0
 10
116.099906821703
 20
5.774915040753382
 30
4.0
 10
116.0656771011851
 20
5.817914359089952
 30
4.0
 10
116.0246580146141
 20
5.869683275245165
 30
4.0
 10
116.0246580146141
 20
5.986516949409661
 30
4.0
 10
116.0246580146141
 20
6.060068414985372
 30
4.0
 10
116.0397926431075
 20
6.104906519961335
 30
4.0
 10
116.054927271601
 20
6.149744624937297
 30
4.0
 10
116.0847721932096
 20
6.174073186627724
 30
4.0
  0
SPLINE
  5
EF
330
1F
100
AcDbEntity
  8
Sketch plane 04
100
AcDbSpline
210
0.0
220
0.0
230
1.0
 70
     8
 71
     2
 72
    22
 73
    19
 74
     0
 42
0.00000001
 43
0.00000001
 40
0.0
 40
0.0
 40
0.0
 40
0.155885997042959
 40
0.155885997042959
 40
0.3117719940859323
 40
0.3117719940859323
 40
0.4691497231580251
 40
0.4691497231580251
 40
0.6265274522301352
 40
0.6265274522301352
 40
0.7065808635500468
 40
0.7065808635500468
 40
0.7866342748699582
 40
0.7866342748699582
 40
0.8666876861898728
 40
0.8666876861898728
 40
0.9333438430949452
 40
0.9333438430949452
 40
1.0
 40
1.0
 40
1.0
 10
105.7962355286947
 20
14.65174165320619
 30
4.0
 10
105.8014161694581
 20
14.70818337099737
 30
4.0
 10
105.8352266670721
 20
14.73776755640966
 30
4.0
 10
105.8690371646862
 20
14.76735174182195
 30
4.0
 10
105.926024213084
 20
14.76735174182195
 30
4.0
 10
105.9835565920886
 20
14.76735174182195
 30
4.0
 10
106.0170944243993
 20
14.73544990133128
 30
4.0
 10
106.05063225671
 20
14.70354806084061
 30
4.0
 10
106.05063225671
 20
14.65637696336295
 30
4.0
 10
106.05063225671
 20
14.63238241666911
 30
4.0
 10
106.0408163057898
 20
14.60920586588529
 30
4.0
 10
106.0310003548695
 20
14.58602931510147
 30
4.0
 10
106.0082328020407
 20
14.5603987765876
 30
4.0
 10
105.9854652492119
 20
14.53476823807373
 30
4.0
 10
105.9325681803642
 20
14.49005112832612
 30
4.0
 10
105.8883964012232
 20
14.45296864707201
 30
4.0
 10
105.8758537972696
 20
14.43974437986007
 30
4.0
 10
105.8633111933161
 20
14.42652011264812
 30
4.0
 10
105.8551312342159
 20
14.41315951278451
 30
4.0
  0
SPLINE
  5
F0
330
1F
100
AcDbEntity
  8
Sketch plane 04
100
AcDbSpline
210
0.0
220
0.0
230
1.0
 70
     8
 71
     2
 72
     6
 73
     3
 74
     0
 42
0.00000001
 43
0.00000001
 40
0.0
 40
0.0
 40
0.0
 40
1.0
 40
1.0
 40
1.0
 10
115.7590240677848
 20
5.882413336594806
 30
4.0
 10
115.7652476533336
 20
5.847900725824665
 30
4.0
 10
115.7827868489709
 20
5.832341761952881
 30
4.0
  0
SPLINE
  5
F1
330
1F
100
AcDbEntity
  8
Sketch plane 04
100
AcDbSpline
210
0.0
220
0.0
230
1.0
 70
    11
 71
     2
 72
    20
 73
    17
 74
     0
 42
0.00000001
 43
0.00000001
 40
0.0
 40
0.0
 40
0.0
 40
0.1140200199965084
 40
0.1140200199965084
 40
0.2280400399930052
 40
0.2280400399930052
 40
0.3426935045450363
 40
0.3426935045450363
 40
0.457346969097079
 40
0.457346969097079
 40
0.5701805373864137
 40
0.5701805373864137
 40
0.7134536915909409
 40
0.7134536915909409
 40
0.8567268457954704
 40
0.8567268457954704
 40
1.0
 40
1.0
 40
1.0
 10
108.4213453817905
 20
14.91379889579677
 30
4.0
 10
108.4589595603861
 20
14.91379889579677
 30
4.0
 10
108.4845918030581
 20
14.95019971379254
 30
4.0
 10
108.5102240457301
 20
14.9866005317883
 30
4.0
 10
108.5102240457301
 20
15.0958029857756
 30
4.0
 10
108.5102240457301
 20
15.20561212006282
 30
4.0
 10
108.4845918030581
 20
15.24170959790862
 30
4.0
 10
108.4589595603861
 20
15.27780707575442
 30
4.0
 10
108.4207387014905
 20
15.27780707575442
 30
4.0
 10
108.3831245228949
 20
15.27780707575442
 30
4.0
 10
108.3606773517975
 20
15.24595636000812
 30
4.0
 10
108.3324667178508
 20
15.20530877991285
 30
4.0
 10
108.3324667178508
 20
15.0958029857756
 30
4.0
 10
108.3324667178508
 20
14.98629719163834
 30
4.0
 10
108.3580989605228
 20
14.95004804371756
 30
4.0
 10
108.3837312031948
 20
14.91379889579677
 30
4.0
 10
108.4213453817905
 20
14.91379889579677
 30
4.0
  0
SPLINE
  5
F2
330
1F
100
AcDbEntity
  8
Sketch plane 04
100
AcDbSpline
210
0.0
220
0.0
230
1.0
 70
     8
 71
     2
 72
    20
 73
    17
 74
     0
 42
0.00000001
 43
0.00000001
 40
0.0
 40
0.0
 40
0.0
 40
0.1231817733782278
 40
0.1231817733782278
 40
0.2463635467564556
 40
0.2463635467564556
 40
0.3946379036005893
 40
0.3946379036005893
 40
0.542912260444723
 40
0.542912260444723
 40
0.6838644268274174
 40
0.6838644268274174
 40
0.8248165932100942
 40
0.8248165932100942
 40
0.9124082966050592
 40
0.9124082966050592
 40
1.0
 40
1.0
 40
1.0
 10
107.7538349612742
 20
9.662053307145005
 30
4.0
 10
107.7602051044234
 20
9.620192366449876
 30
4.0
 10
107.7834106258957
 20
9.59911022602733
 30
4.0
 10
107.806616147368
 20
9.578028085604782
 30
4.0
 10
107.8393768835642
 20
9.578028085604782
 30
4.0
 10
107.8788111030596
 20
9.578028085604782
 30
4.0
 10
107.9061117165564
 20
9.607755420301324
 30
4.0
 10
107.9334123300533
 20
9.637482754997865
 30
4.0
 10
107.9334123300533
 20
9.686623859292146
 30
4.0
 10
107.9334123300533
 20
9.73333824238671
 30
4.0
 10
107.9071734070813
 20
9.76033551573357
 30
4.0
 10
107.8809344841093
 20
9.787332789080429
 30
4.0
 10
107.8384668631143
 20
9.787332789080429
 30
4.0
 10
107.8120762700674
 20
9.787332789080429
 30
4.0
 10
107.7908424595698
 20
9.775350853156823
 30
4.0
 10
107.7696086490723
 20
9.763368917233215
 30
4.0
 10
107.7574750430737
 20
9.744258487785439
 30
4.0
  0
SPLINE
  5
F3
330
1F
100
AcDbEntity
  8
Sketch plane 04
100
AcDbSpline
210
0.0
220
0.0
230
1.0
 70
     8
 71
     2
 72
    38
 73
    35
 74
     0
 42
0.00000001
 43
0.00000001
 40
0.0
 40
0.0
 40
0.0
 40
0.0664479033616167
 40
0.0664479033616167
 40
0.1198546294279757
 40
0.1198546294279757
 40
0.1893933690861794
 40
0.1893933690861794
 40
0.2589321087443937
 40
0.2589321087443937
 40
0.2963649770442816
 40
0.2963649770442816
 40
0.3337978453441854
 40
0.3337978453441854
 40
0.3992145083925258
 40
0.3992145083925258
 40
0.464631171440867
 40
0.464631171440867
 40
0.5076192643012056
 40
0.5076192643012056
 40
0.5506073571615514
 40
0.5506073571615514
 40
0.5935954500218974
 40
0.5935954500218974
 40
0.666870608306598
 40
0.666870608306598
 40
0.7401457665912978
 40
0.7401457665912978
 40
0.8220982462518163
 40
0.8220982462518163
 40
0.8935051785521222
 40
0.8935051785521222
 40
0.9467525892760612
 40
0.9467525892760612
 40
1.0
 40
1.0
 40
1.0
 10
110.6788892112697
 20
9.802586676217551
 30
4.0
 10
110.6567453803223
 20
9.825943867764837
 30
4.0
 10
110.6242879842761
 20
9.825943867764837
 30
4.0
 10
110.5982007313791
 20
9.825943867764837
 30
4.0
 10
110.5784836216314
 20
9.81138354056653
 30
4.0
 10
110.5526997088844
 20
9.792576451268717
 30
4.0
 10
110.5378360415362
 20
9.756478973422917
 30
4.0
 10
110.5229723741879
 20
9.720381495577117
 30
4.0
 10
110.5223656938879
 20
9.653646662584883
 30
4.0
 10
110.5420828036357
 20
9.683677337431389
 30
4.0
 10
110.5705967777324
 20
9.698237664629694
 30
4.0
 10
110.599110751829
 20
9.712797991827998
 30
4.0
 10
110.6303547872754
 20
9.712797991827998
 30
4.0
 10
110.684956014269
 20
9.712797991827998
 30
4.0
 10
110.7233285432396
 20
9.672605421957677
 30
4.0
 10
110.7617010722101
 20
9.632412852087354
 30
4.0
 10
110.7617010722101
 20
9.568711420594767
 30
4.0
 10
110.7617010722101
 20
9.526850479899636
 30
4.0
 10
110.7436523332872
 20
9.490904672128819
 30
4.0
 10
110.7256035943643
 20
9.454958864358002
 30
4.0
 10
110.694056218768
 20
9.435848434910225
 30
4.0
 10
110.6625088431717
 20
9.416738005462449
 30
4.0
 10
110.6224679433763
 20
9.416738005462449
 30
4.0
 10
110.5542164096343
 20
9.416738005462449
 30
4.0
 10
110.5111421083393
 20
9.466940800281607
 30
4.0
 10
110.4680678070443
 20
9.517143595100766
 30
4.0
 10
110.4680678070443
 20
9.632412852087354
 30
4.0
 10
110.4680678070443
 20
9.761332415822352
 30
4.0
 10
110.5156922105887
 20
9.819877064765539
 30
4.0
 10
110.5572498111339
 20
9.870838209959611
 30
4.0
 10
110.6276247259257
 20
9.870838209959611
 30
4.0
 10
110.6801025718696
 20
9.870838209959611
 30
4.0
 10
110.7136216584407
 20
9.841414215413034
 30
4.0
 10
110.7471407450118
 20
9.811990220866457
 30
4.0
 10
110.753814228311
 20
9.760119055222495
 30
4.0
  0
SPLINE
  5
F4
330
1F
100
AcDbEntity
  8
Sketch plane 04
100
AcDbSpline
210
0.0
220
0.0
230
1.0
 70
     8
 71
     2
 72
    22
 73
    19
 74
     0
 42
0.00000001
 43
0.00000001
 40
0.0
 40
0.0
 40
0.0
 40
0.0489586321416049
 40
0.0489586321416049
 40
0.1294841303836061
 40
0.1294841303836061
 40
0.2100096286256104
 40
0.2100096286256104
 40
0.3350975858063774
 40
0.3350975858063774
 40
0.4601855429871443
 40
0.4601855429871443
 40
0.5914052627748202
 40
0.5914052627748202
 40
0.7226249825625134
 40
0.7226249825625134
 40
0.8613124912812424
 40
0.8613124912812424
 40
1.0
 40
1.0
 40
1.0
 10
106.0975306888843
 20
14.36598841530685
 30
4.0
 10
106.0969853582776
 20
14.38371166002389
 30
4.0
 10
106.1032566602544
 20
14.40007157822423
 30
4.0
 10
106.113345276478
 20
14.4270654432548
 30
4.0
 10
106.1355674987001
 20
14.45324131237535
 30
4.0
 10
106.1577897209222
 20
14.4794171814959
 30
4.0
 10
106.1997801776364
 20
14.51377300971662
 30
4.0
 10
106.2649471851345
 20
14.56721540917108
 30
4.0
 10
106.287851070615
 20
14.5984355864034
 30
4.0
 10
106.3107549560954
 20
14.62965576363572
 30
4.0
 10
106.3107549560954
 20
14.6574676245763
 30
4.0
 10
106.3107549560954
 20
14.68664281203358
 30
4.0
 10
106.28989606039
 20
14.706683711829
 30
4.0
 10
106.2690371646846
 20
14.72672461162442
 30
4.0
 10
106.2354993323739
 20
14.72672461162442
 30
4.0
 10
106.2000528429398
 20
14.72672461162442
 30
4.0
 10
106.1787849492793
 20
14.70545671796398
 30
4.0
 10
106.1575170556189
 20
14.68418882430353
 30
4.0
 10
106.1572443903156
 20
14.64656101244274
 30
4.0
  0
SPLINE
  5
F5
330
1F
100
AcDbEntity
  8
Sketch plane 04
100
AcDbSpline
210
0.0
220
0.0
230
1.0
 70
    11
 71
     2
 72
    26
 73
    23
 74
     0
 42
0.00000001
 43
0.00000001
 40
0.0
 40
0.0
 40
0.0
 40
0.0741197266834228
 40
0.0741197266834228
 40
0.1482394533668456
 40
0.1482394533668456
 40
0.222359180050264
 40
0.222359180050264
 40
0.297489630279361
 40
0.297489630279361
 40
0.3726200805084538
 40
0.3726200805084538
 40
0.447750530737544
 40
0.447750530737544
 40
0.5291746312475841
 40
0.5291746312475841
 40
0.6105987317576271
 40
0.6105987317576271
 40
0.692022832267675
 40
0.692022832267675
 40
0.8460114161338375
 40
0.8460114161338375
 40
1.0
 40
1.0
 40
1.0
 10
102.5817714154354
 20
6.62753490049812
 30
4.0
 10
102.6232431945763
 20
6.62753490049812
 30
4.0
 10
102.6565431945762
 20
6.607718336081023
 30
4.0
 10
102.6898431945761
 20
6.587901771663923
 30
4.0
 10
102.7073103724901
 20
6.552456679639526
 30
4.0
 10
102.7247775504042
 20
6.51701158761513
 30
4.0
 10
102.7247775504042
 20
6.472066802339234
 30
4.0
 10
102.7247775504042
 20
6.426509133627762
 30
4.0
 10
102.7063910473368
 20
6.390553305407044
 30
4.0
 10
102.6880045442694
 20
6.35459747718633
 30
4.0
 10
102.6542959553124
 20
6.336108826879655
 30
4.0
 10
102.6205873663555
 20
6.317620176572981
 30
4.0
 10
102.5815671209569
 20
6.317620176572981
 30
4.0
 10
102.5392781639018
 20
6.317620176572981
 30
4.0
 10
102.505978163902
 20
6.338049624425659
 30
4.0
 10
102.4726781639021
 20
6.358479072278341
 30
4.0
 10
102.4555174277059
 20
6.393822017063473
 30
4.0
 10
102.4383566915096
 20
6.42916496184861
 30
4.0
 10
102.4383566915096
 20
6.468593796204278
 30
4.0
 10
102.4383566915096
 20
6.54316128086656
 30
4.0
 10
102.4783984093009
 20
6.585348090682339
 30
4.0
 10
102.5184401270921
 20
6.62753490049812
 30
4.0
 10
102.5817714154354
 20
6.62753490049812
 30
4.0
  0
SPLINE
  5
F6
330
1F
100
AcDbEntity
  8
Sketch plane 04
100
AcDbSpline
210
0.0
220
0.0
230
1.0
 70
     8
 71
     2
 72
     8
 73
     5
 74
     0
 42
0.00000001
 43
0.00000001
 40
0.0
 40
0.0
 40
0.0
 40
0.482334052932037
 40
0.482334052932037
 40
1.0
 40
1.0
 40
1.0
 10
102.261641967584
 20
6.404649624425401
 30
4.0
 10
102.2710395135962
 20
6.378499931173964
 30
4.0
 10
102.2773726424305
 20
6.355618949578965
 30
4.0
 10
102.2843186547004
 20
6.380134287002181
 30
4.0
 10
102.2935119062341
 20
6.404649624425389
 30
4.0
  0
SPLINE
  5
F7
330
1F
100
AcDbEntity
  8
Sketch plane 04
100
AcDbSpline
210
0.0
220
0.0
230
1.0
 70
     8
 71
     2
 72
    44
 73
    41
 74
     0
 42
0.00000001
 43
0.00000001
 40
0.0
 40
0.0
 40
0.0
 40
0.0837485932153325
 40
0.0837485932153325
 40
0.1554097606057306
 40
0.1554097606057306
 40
0.2270709279961319
 40
0.2270709279961319
 40
0.2987320953865332
 40
0.2987320953865332
 40
0.3703932627769305
 40
0.3703932627769305
 40
0.3780712449973312
 40
0.3780712449973312
 40
0.4105299095519157
 40
0.4105299095519157
 40
0.4429885741064858
 40
0.4429885741064858
 40
0.4971856103351894
 40
0.4971856103351894
 40
0.551382646563893
 40
0.551382646563893
 40
0.6073360682259329
 40
0.6073360682259329
 40
0.6632894898879622
 40
0.6632894898879622
 40
0.7037002944216427
 40
0.7037002944216427
 40
0.7441110989553222
 40
0.7441110989553222
 40
0.7845219034889965
 40
0.7845219034889965
 40
0.826579074133302
 40
0.826579074133302
 40
0.8686362447776116
 40
0.8686362447776116
 40
0.9106934154219212
 40
0.9106934154219212
 40
0.9553467077109552
 40
0.9553467077109552
 40
1.0
 40
1.0
 40
1.0
 10
115.7827868489709
 20
5.832341761952881
 30
4.0
 10
115.8003260446081
 20
5.816782798081096
 30
4.0
 10
115.8277663990729
 20
5.816782798081096
 30
4.0
 10
115.8512462900067
 20
5.816782798081096
 30
4.0
 10
115.8689269307701
 20
5.827532627665237
 30
4.0
 10
115.8866075715335
 20
5.838282457249381
 30
4.0
 10
115.8979231816221
 20
5.856245988264988
 30
4.0
 10
115.9092387917106
 20
5.874209519280593
 30
4.0
 10
115.9168768285204
 20
5.904761666519735
 30
4.0
 10
115.9245148653302
 20
5.935313813758877
 30
4.0
 10
115.9245148653302
 20
5.966997522006875
 30
4.0
 10
115.9245148653302
 20
5.970392205033447
 30
4.0
 10
115.924231975078
 20
5.977181571086589
 30
4.0
 10
115.9089559014584
 20
5.952853009396162
 30
4.0
 10
115.8825056628764
 20
5.937718380902697
 30
4.0
 10
115.8560554242943
 20
5.922583752409233
 30
4.0
 10
115.825220386803
 20
5.922583752409233
 30
4.0
 10
115.7737343609
 20
5.922583752409233
 30
4.0
 10
115.738090189121
 20
5.959925265701518
 30
4.0
 10
115.702446017342
 20
5.997266778993802
 30
4.0
 10
115.702446017342
 20
6.058371073472085
 30
4.0
 10
115.702446017342
 20
6.121455599715867
 30
4.0
 10
115.7396460855082
 20
6.159928674017009
 30
4.0
 10
115.7768461536743
 20
6.19840174831815
 30
4.0
 10
115.8328584236128
 20
6.19840174831815
 30
4.0
 10
115.8733117296794
 20
6.19840174831815
 30
4.0
 10
115.9068342245668
 20
6.176619198897652
 30
4.0
 10
115.9403567194542
 20
6.154836649477154
 30
4.0
 10
115.9577544699654
 20
6.114524788536619
 30
4.0
 10
115.9751522204765
 20
6.074212927596085
 30
4.0
 10
115.9751522204765
 20
5.997832559498232
 30
4.0
 10
115.9751522204765
 20
5.91834039862602
 30
4.0
 10
115.9578959150915
 20
5.871239171632343
 30
4.0
 10
115.9406396097064
 20
5.824137944638666
 30
4.0
 10
115.9065513343146
 20
5.799526492696025
 30
4.0
 10
115.8724630589228
 20
5.774915040753382
 30
4.0
 10
115.8266348380641
 20
5.774915040753382
 30
4.0
 10
115.7779777146832
 20
5.774915040753382
 30
4.0
 10
115.7471426771919
 20
5.801931059839847
 30
4.0
 10
115.7163076397005
 20
5.828947078926308
 30
4.0
 10
115.7100840541518
 20
5.877887092559379
 30
4.0
  0
SPLINE
  5
F8
330
1F
100
AcDbEntity
  8
Sketch plane 04
100
AcDbSpline
210
0.0
220
0.0
230
1.0
 70
    11
 71
     2
 72
    20
 73
    17
 74
     0
 42
0.00000001
 43
0.00000001
 40
0.0
 40
0.0
 40
0.0
 40
0.1140200199965083
 40
0.1140200199965083
 40
0.2280400399929937
 40
0.2280400399929937
 40
0.3426935045450132
 40
0.3426935045450132
 40
0.4573469690970559
 40
0.4573469690970559
 40
0.5701805373864138
 40
0.5701805373864138
 40
0.7134536915909409
 40
0.7134536915909409
 40
0.8567268457954704
 40
0.8567268457954704
 40
1.0
 40
1.0
 40
1.0
 10
116.1598795551725
 20
5.816782798081096
 30
4.0
 10
116.194957946447
 20
5.816782798081096
 30
4.0
 10
116.2188621727592
 20
5.850729628346808
 30
4.0
 10
116.2427663990713
 20
5.884676458612521
 30
4.0
 10
116.2427663990713
 20
5.986516949409661
 30
4.0
 10
116.2427663990713
 20
6.088923220711227
 30
4.0
 10
116.2188621727592
 20
6.122587160724725
 30
4.0
 10
116.194957946447
 20
6.156251100738224
 30
4.0
 10
116.159313774668
 20
6.156251100738224
 30
4.0
 10
116.1242353833935
 20
6.156251100738224
 30
4.0
 10
116.1033015047296
 20
6.126547624255726
 30
4.0
 10
116.0769927112737
 20
6.088640330459014
 30
4.0
 10
116.0769927112737
 20
5.986516949409661
 30
4.0
 10
116.0769927112737
 20
5.884393568360306
 30
4.0
 10
116.1008969375858
 20
5.850588183220701
 30
4.0
 10
116.1248011638979
 20
5.816782798081096
 30
4.0
 10
116.1598795551725
 20
5.816782798081096
 30
4.0
  0
SPLINE
  5
F9
330
1F
100
AcDbEntity
  8
Sketch plane 04
100
AcDbSpline
210
0.0
220
0.0
230
1.0
 70
    11
 71
     2
 72
    28
 73
    25
 74
     0
 42
0.00000001
 43
0.00000001
 40
0.0
 40
0.0
 40
0.0
 40
0.0922676860183582
 40
0.0922676860183582
 40
0.1603151044568678
 40
0.1603151044568678
 40
0.2283625228953479
 40
0.2283625228953479
 40
0.296409941333828
 40
0.296409941333828
 40
0.3644573597723145
 40
0.3644573597723145
 40
0.4449905430619
 40
0.4449905430619
 40
0.525523726351476
 40
0.525523726351476
 40
0.6060569096410288
 40
0.6060569096410288
 40
0.712100604407413
 40
0.712100604407413
 40
0.8395416015989839
 40
0.8395416015989839
 40
0.9197708007994873
 40
0.9197708007994873
 40
1.0
 40
1.0
 40
1.0
 10
110.8804587409213
 20
9.844750957062647
 30
4.0
 10
110.9124611267426
 20
9.870838209959611
 30
4.0
 10
110.960995550737
 20
9.870838209959611
 30
4.0
 10
110.9967896884328
 20
9.870838209959611
 30
4.0
 10
111.0237869617796
 20
9.856429552836287
 30
4.0
 10
111.0507842351265
 20
9.842020895712963
 30
4.0
 10
111.0683779638244
 20
9.814871952291123
 30
4.0
 10
111.0859716925224
 20
9.787723008869282
 30
4.0
 10
111.0959819174712
 20
9.748743799598817
 30
4.0
 10
111.1059921424201
 20
9.709764590328353
 30
4.0
 10
111.1059921424201
 20
9.643636437636047
 30
4.0
 10
111.1059921424201
 20
9.565374678945155
 30
4.0
 10
111.0899151144719
 20
9.517295265175747
 30
4.0
 10
111.0738380865238
 20
9.469215851406343
 30
4.0
 10
111.0418357007025
 20
9.442976928434396
 30
4.0
 10
111.0098333148812
 20
9.416738005462449
 30
4.0
 10
110.960995550737
 20
9.416738005462449
 30
4.0
 10
110.8966874389444
 20
9.416738005462449
 30
4.0
 10
110.8599832807987
 20
9.462845708257083
 30
4.0
 10
110.8159989590538
 20
9.518356955700625
 30
4.0
 10
110.8159989590538
 20
9.643636437636047
 30
4.0
 10
110.8159989590538
 20
9.72250487662687
 30
4.0
 10
110.8322276570769
 20
9.770584290396275
 30
4.0
 10
110.8484563551
 20
9.818663704165681
 30
4.0
 10
110.8804587409213
 20
9.844750957062647
 30
4.0
  0
SPLINE
  5
FA
330
1F
100
AcDbEntity
  8
Sketch plane 04
100
AcDbSpline
210
0.0
220
0.0
230
1.0
 70
     8
 71
     2
 72
    20
 73
    17
 74
     0
 42
0.00000001
 43
0.00000001
 40
0.0
 40
0.0
 40
0.0
 40
0.1231817733782349
 40
0.1231817733782349
 40
0.2463635467564697
 40
0.2463635467564697
 40
0.394637903600612
 40
0.394637903600612
 40
0.542912260444749
 40
0.542912260444749
 40
0.6838644268274409
 40
0.6838644268274409
 40
0.824816593210107
 40
0.824816593210107
 40
0.9124082966050656
 40
0.9124082966050656
 40
1.0
 40
1.0
 40
1.0
 10
106.6210480712953
 20
14.47505453664247
 30
4.0
 10
106.6267740426654
 20
14.43742672478169
 30
4.0
 10
106.6476329383709
 20
14.41847648619962
 30
4.0
 10
106.6684918340763
 20
14.39952624761755
 30
4.0
 10
106.6979396868369
 20
14.39952624761755
 30
4.0
 10
106.733386176271
 20
14.39952624761755
 30
4.0
 10
106.7579260535715
 20
14.42624744734478
 30
4.0
 10
106.782465930872
 20
14.45296864707201
 30
4.0
 10
106.782465930872
 20
14.49714042621294
 30
4.0
 10
106.782465930872
 20
14.53913088292715
 30
4.0
 10
106.7588803821332
 20
14.56339809492433
 30
4.0
 10
106.7352948333944
 20
14.5876653069215
 30
4.0
 10
106.6971216909269
 20
14.5876653069215
 30
4.0
 10
106.6733998095364
 20
14.5876653069215
 30
4.0
 10
106.6543132383026
 20
14.57689502743961
 30
4.0
 10
106.6352266670689
 20
14.56612474795772
 30
4.0
 10
106.6243200549354
 20
14.54894683384736
 30
4.0
  0
SPLINE
  5
FB
330
1F
100
AcDbEntity
  8
Sketch plane 04
100
AcDbSpline
210
0.0
220
0.0
230
1.0
 70
     8
 71
     2
 72
    18
 73
    15
 74
     0
 42
0.00000001
 43
0.00000001
 40
0.0
 40
0.0
 40
0.0
 40
0.1113784841459982
 40
0.1113784841459982
 40
0.2588589597048174
 40
0.2588589597048174
 40
0.4063394352636509
 40
0.4063394352636509
 40
0.5467634287383291
 40
0.5467634287383291
 40
0.7184866017008293
 40
0.7184866017008293
 40
0.8592433008504164
 40
0.8592433008504164
 40
1.0
 40
1.0
 40
1.0
 10
106.6346813364622
 20
14.60593388224522
 30
4.0
 10
106.670673156503
 20
14.63101909015242
 30
4.0
 10
106.7102096254872
 20
14.63101909015242
 30
4.0
 10
106.7625613637283
 20
14.63101909015242
 30
4.0
 10
106.798553183769
 20
14.59475460480832
 30
4.0
 10
106.8345450038098
 20
14.55849011946423
 30
4.0
 10
106.8345450038098
 20
14.50150307106636
 30
4.0
 10
106.8345450038098
 20
14.44724267570189
 30
4.0
 10
106.8029158286224
 20
14.40770620671773
 30
4.0
 10
106.7644700208516
 20
14.35917178272337
 30
4.0
 10
106.6979396868369
 20
14.35917178272337
 30
4.0
 10
106.6434066261691
 20
14.35917178272337
 30
4.0
 10
106.6089144652967
 20
14.38971029669735
 30
4.0
 10
106.5744223044243
 20
14.42024881067132
 30
4.0
 10
106.5695143289642
 20
14.47069189178905
 30
4.0
  0
SPLINE
  5
FC
330
1F
100
AcDbEntity
  8
Sketch plane 04
100
AcDbSpline
210
0.0
220
0.0
230
1.0
 70
    11
 71
     2
 72
    22
 73
    19
 74
     0
 42
0.00000001
 43
0.00000001
 40
0.0
 40
0.0
 40
0.0
 40
0.0880971909994656
 40
0.0880971909994656
 40
0.2168546239986845
 40
0.2168546239986845
 40
0.3456120569979034
 40
0.3456120569979034
 40
0.4694799672249971
 40
0.4694799672249971
 40
0.5933478774520546
 40
0.5933478774520546
 40
0.7162087314984299
 40
0.7162087314984299
 40
0.8390695855448413
 40
0.8390695855448413
 40
0.9195347927724196
 40
0.9195347927724196
 40
1.0
 40
1.0
 40
1.0
 10
110.5763602405817
 20
9.475130984330654
 30
4.0
 10
110.5978973912292
 20
9.461632347657227
 30
4.0
 10
110.6215579229264
 20
9.461632347657227
 30
4.0
 10
110.6561387000224
 20
9.461632347657227
 30
4.0
 10
110.6810125923195
 20
9.489539641453979
 30
4.0
 10
110.7058864846166
 20
9.517446935250733
 30
4.0
 10
110.7058864846166
 20
9.565374678945155
 30
4.0
 10
110.7058864846166
 20
9.611482381739789
 30
4.0
 10
110.6813159324694
 20
9.6380246448617
 30
4.0
 10
110.6567453803223
 20
9.66456690798361
 30
4.0
 10
110.6194345418767
 20
9.66456690798361
 30
4.0
 10
110.582427043581
 20
9.66456690798361
 30
4.0
 10
110.556643130834
 20
9.6380246448617
 30
4.0
 10
110.530859218087
 20
9.611482381739789
 30
4.0
 10
110.530859218087
 20
9.5684080804448
 30
4.0
 10
110.530859218087
 20
9.540197446498084
 30
4.0
 10
110.5428411540106
 20
9.514413533751084
 30
4.0
 10
110.5548230899342
 20
9.488629621004081
 30
4.0
 10
110.5763602405817
 20
9.475130984330654
 30
4.0
  0
SPLINE
  5
FD
330
1F
100
AcDbEntity
  8
Sketch plane 04
100
AcDbSpline
210
0.0
220
0.0
230
1.0
 70
    11
 71
     2
 72
    20
 73
    17
 74
     0
 42
0.00000001
 43
0.00000001
 40
0.0
 40
0.0
 40
0.0
 40
0.1348878723641526
 40
0.1348878723641526
 40
0.2697757447283451
 40
0.2697757447283451
 40
0.3908289635167268
 40
0.3908289635167268
 40
0.511882182305104
 40
0.511882182305104
 40
0.6339116367288461
 40
0.6339116367288461
 40
0.7559410911525575
 40
0.7559410911525575
 40
0.877970545576264
 40
0.877970545576264
 40
1.0
 40
1.0
 40
1.0
 10
115.8390820091615
 20
6.156251100738224
 30
4.0
 10
115.8051351788958
 20
6.156251100738224
 30
4.0
 10
115.7799579464487
 20
6.128527856021226
 30
4.0
 10
115.7547807140016
 20
6.100804611304227
 30
4.0
 10
115.7547807140016
 20
6.0566737319588
 30
4.0
 10
115.7547807140016
 20
6.017069096648801
 30
4.0
 10
115.7786849403137
 20
5.992316199580052
 30
4.0
 10
115.8025891666259
 20
5.967563302511304
 30
4.0
 10
115.8376675579004
 20
5.967563302511304
 30
4.0
 10
115.8730288394272
 20
5.967563302511304
 30
4.0
 10
115.8958015047304
 20
5.992316199580052
 30
4.0
 10
115.9185741700337
 20
6.017069096648801
 30
4.0
 10
115.9185741700337
 20
6.060917085742014
 30
4.0
 10
115.9185741700337
 20
6.104765074835226
 30
4.0
 10
115.895235724226
 20
6.130508087786725
 30
4.0
 10
115.8718972784183
 20
6.156251100738224
 30
4.0
 10
115.8390820091615
 20
6.156251100738224
 30
4.0
  0
SPLINE
  5
FE
330
1F
100
AcDbEntity
  8
Sketch plane 04
100
AcDbSpline
210
0.0
220
0.0
230
1.0
 70
     8
 71
     2
 72
     6
 73
     3
 74
     0
 42
0.00000001
 43
0.00000001
 40
0.0
 40
0.0
 40
0.0
 40
1.0
 40
1.0
 40
1.0
 10
107.9857489264411
 20
15.00116085898661
 30
4.0
 10
107.9951524710901
 20
14.95474981604201
 30
4.0
 10
108.0177513122624
 20
14.93427435591939
 30
4.0
  0
SPLINE
  5
FF
330
1F
100
AcDbEntity
  8
Sketch plane 04
100
AcDbSpline
210
0.0
220
0.0
230
1.0
 70
     8
 71
     2
 72
    18
 73
    15
 74
     0
 42
0.00000001
 43
0.00000001
 40
0.0
 40
0.0
 40
0.0
 40
0.1113784841459991
 40
0.1113784841459991
 40
0.2588589597048195
 40
0.2588589597048195
 40
0.4063394352636542
 40
0.4063394352636542
 40
0.5467634287383356
 40
0.5467634287383356
 40
0.7184866017008313
 40
0.7184866017008313
 40
0.8592433008504148
 40
0.8592433008504148
 40
1.0
 40
1.0
 40
1.0
 10
107.7690019687724
 20
9.807656579128063
 30
4.0
 10
107.8090428685677
 20
9.835563872924816
 30
4.0
 10
107.8530271903126
 20
9.835563872924816
 30
4.0
 10
107.9112684991058
 20
9.835563872924816
 30
4.0
 10
107.9513093989012
 20
9.795219632979512
 30
4.0
 10
107.9913502986965
 20
9.754875393034204
 30
4.0
 10
107.9913502986965
 20
9.691477301691581
 30
4.0
 10
107.9913502986965
 20
9.631112611848607
 30
4.0
 10
107.9561628413006
 20
9.587128290103724
 30
4.0
 10
107.9133918801556
 20
9.533133743410007
 30
4.0
 10
107.8393768835642
 20
9.533133743410007
 30
4.0
 10
107.7787088535712
 20
9.533133743410007
 30
4.0
 10
107.7403363246007
 20
9.567107840206052
 30
4.0
 10
107.7019637956302
 20
9.601081937002101
 30
4.0
 10
107.6965036729308
 20
9.65719986474557
 30
4.0
  0
SPLINE
  5
100
330
1F
100
AcDbEntity
  8
Sketch plane 04
100
AcDbSpline
210
0.0
220
0.0
230
1.0
 70
    11
 71
     2
 72
    22
 73
    19
 74
     0
 42
0.00000001
 43
0.00000001
 40
0.0
 40
0.0
 40
0.0
 40
0.1401823053150355
 40
0.1401823053150355
 40
0.2803646106300943
 40
0.2803646106300943
 40
0.3690311571014622
 40
0.3690311571014622
 40
0.4576977035728302
 40
0.4576977035728302
 40
0.5463642500442026
 40
0.5463642500442026
 40
0.6723318953758919
 40
0.6723318953758919
 40
0.7982995407075809
 40
0.7982995407075809
 40
0.8991497703537905
 40
0.8991497703537905
 40
1.0
 40
1.0
 40
1.0
 10
102.5813628264784
 20
6.351533060008428
 30
4.0
 10
102.6261033172757
 20
6.351533060008428
 30
4.0
 10
102.6550109859873
 20
6.382994409701555
 30
4.0
 10
102.6839186546988
 20
6.414455759394681
 30
4.0
 10
102.6839186546988
 20
6.472271096817761
 30
4.0
 10
102.6839186546988
 20
6.508839808474058
 30
4.0
 10
102.6715588387479
 20
6.536113121357384
 30
4.0
 10
102.6591990227971
 20
6.56338643424071
 30
4.0
 10
102.6353987160487
 20
6.578402078412428
 30
4.0
 10
102.6115984093003
 20
6.59341772258415
 30
4.0
 10
102.5819757099139
 20
6.59341772258415
 30
4.0
 10
102.5398910473374
 20
6.59341772258415
 30
4.0
 10
102.5095533172762
 20
6.564510053872608
 30
4.0
 10
102.479215587215
 20
6.535602385161066
 30
4.0
 10
102.479215587215
 20
6.467980912768698
 30
4.0
 10
102.479215587215
 20
6.413842875959101
 30
4.0
 10
102.508327550405
 20
6.382687967983766
 30
4.0
 10
102.5374395135951
 20
6.351533060008428
 30
4.0
 10
102.5813628264784
 20
6.351533060008428
 30
4.0
  0
SPLINE
  5
101
330
1F
100
AcDbEntity
  8
Sketch plane 04
100
AcDbSpline
210
0.0
220
0.0
230
1.0
 70
     8
 71
     2
 72
    16
 73
    13
 74
     0
 42
0.00000001
 43
0.00000001
 40
0.0
 40
0.0
 40
0.0
 40
0.1639340707373486
 40
0.1639340707373486
 40
0.3585100238554708
 40
0.3585100238554708
 40
0.5530859769735577
 40
0.5530859769735577
 40
0.7386815014861933
 40
0.7386815014861933
 40
0.924277025998829
 40
0.924277025998829
 40
1.0
 40
1.0
 40
1.0
 10
108.0177513122624
 20
14.93427435591939
 30
4.0
 10
108.0403501534348
 20
14.91379889579677
 30
4.0
 10
108.072807549481
 20
14.91379889579677
 30
4.0
 10
108.1113317485266
 20
14.91379889579677
 30
4.0
 10
108.1378740116484
 20
14.94049282899367
 30
4.0
 10
108.1644162747704
 20
14.96718676219056
 30
4.0
 10
108.1644162747704
 20
15.00662098168597
 30
4.0
 10
108.1644162747704
 20
15.04423516028159
 30
4.0
 10
108.1398457226232
 20
15.06865404235375
 30
4.0
 10
108.1152751704761
 20
15.09307292442591
 30
4.0
 10
108.0773576517305
 20
15.09307292442591
 30
4.0
 10
108.0618873040823
 20
15.09307292442591
 30
4.0
 10
108.038833452685
 20
15.08700612142662
 30
4.0
  0
SPLINE
  5
102
330
1F
100
AcDbEntity
  8
Sketch plane 04
100
AcDbSpline
210
0.0
220
0.0
230
1.0
 70
     8
 71
     2
 72
    18
 73
    15
 74
     0
 42
0.00000001
 43
0.00000001
 40
0.0
 40
0.0
 40
0.0
 40
0.0182239438239855
 40
0.0182239438239855
 40
0.2087469928929245
 40
0.2087469928929245
 40
0.3992700419619007
 40
0.3992700419619007
 40
0.5501642968245258
 40
0.5501642968245258
 40
0.7010585516871509
 40
0.7010585516871509
 40
0.850529275843561
 40
0.850529275843561
 40
1.0
 40
1.0
 40
1.0
 10
108.0449002556843
 20
15.13493386512104
 30
4.0
 10
108.0503603783836
 20
15.13432718482111
 30
4.0
 10
108.0536971200332
 20
15.13432718482111
 30
4.0
 10
108.0885812372792
 20
15.13432718482111
 30
4.0
 10
108.1164885310759
 20
15.15252759381899
 30
4.0
 10
108.1443958248727
 20
15.17072800281688
 30
4.0
 10
108.1443958248727
 20
15.20864552156246
 30
4.0
 10
108.1443958248727
 20
15.23867619640897
 30
4.0
 10
108.124072034825
 20
15.25839330615667
 30
4.0
 10
108.1037482447774
 20
15.27811041590438
 30
4.0
 10
108.0715941888812
 20
15.27811041590438
 30
4.0
 10
108.0397434731349
 20
15.27811041590438
 30
4.0
 10
108.0185096626373
 20
15.25808996600671
 30
4.0
 10
107.9972758521398
 20
15.23806951610904
 30
4.0
 10
107.9912090491405
 20
15.1980286163137
 30
4.0
  0
SPLINE
  5
103
330
1F
100
AcDbEntity
  8
Sketch plane 04
100
AcDbSpline
210
0.0
220
0.0
230
1.0
 70
    11
 71
     2
 72
    28
 73
    25
 74
     0
 42
0.00000001
 43
0.00000001
 40
0.0
 40
0.0
 40
0.0
 40
0.092267686018293
 40
0.092267686018293
 40
0.1603151044567693
 40
0.1603151044567693
 40
0.2283625228952456
 40
0.2283625228952456
 40
0.2964099413337308
 40
0.2964099413337308
 40
0.364457359772216
 40
0.364457359772216
 40
0.4449905430618009
 40
0.4449905430618009
 40
0.5255237263513828
 40
0.5255237263513828
 40
0.6060569096409647
 40
0.6060569096409647
 40
0.7121006044073749
 40
0.7121006044073749
 40
0.8395416015989647
 40
0.8395416015989647
 40
0.9197708007994808
 40
0.9197708007994808
 40
1.0
 40
1.0
 40
1.0
 10
108.3408085719748
 20
15.29691750520219
 30
4.0
 10
108.3728109577961
 20
15.32300475809916
 30
4.0
 10
108.4213453817905
 20
15.32300475809916
 30
4.0
 10
108.4571395194863
 20
15.32300475809916
 30
4.0
 10
108.4841367928332
 20
15.30859610097584
 30
4.0
 10
108.51113406618
 20
15.29418744385251
 30
4.0
 10
108.528727794878
 20
15.26703850043067
 30
4.0
 10
108.5463215235759
 20
15.23988955700883
 30
4.0
 10
108.5563317485248
 20
15.20091034773836
 30
4.0
 10
108.5663419734736
 20
15.1619311384679
 30
4.0
 10
108.5663419734736
 20
15.0958029857756
 30
4.0
 10
108.5663419734736
 20
15.0175412270847
 30
4.0
 10
108.5502649455255
 20
14.9694618133153
 30
4.0
 10
108.5341879175774
 20
14.92138239954589
 30
4.0
 10
108.5021855317561
 20
14.89514347657395
 30
4.0
 10
108.4701831459348
 20
14.868904553602
 30
4.0
 10
108.4213453817905
 20
14.868904553602
 30
4.0
 10
108.357037269998
 20
14.868904553602
 30
4.0
 10
108.3203331118522
 20
14.91501225639663
 30
4.0
 10
108.2763487901073
 20
14.97052350384017
 30
4.0
 10
108.2763487901073
 20
15.0958029857756
 30
4.0
 10
108.2763487901073
 20
15.17467142476642
 30
4.0
 10
108.2925774881304
 20
15.22275083853582
 30
4.0
 10
108.3088061861536
 20
15.27083025230523
 30
4.0
 10
108.3408085719748
 20
15.29691750520219
 30
4.0
  0
SPLINE
  5
104
330
1F
100
AcDbEntity
  8
Sketch plane 04
100
AcDbSpline
210
0.0
220
0.0
230
1.0
 70
    11
 71
     2
 72
    20
 73
    17
 74
     0
 42
0.00000001
 43
0.00000001
 40
0.0
 40
0.0
 40
0.0
 40
0.1140200199964958
 40
0.1140200199964958
 40
0.2280400399930166
 40
0.2280400399930166
 40
0.3426935045450727
 40
0.3426935045450727
 40
0.4573469690971075
 40
0.4573469690971075
 40
0.5701805373864575
 40
0.5701805373864575
 40
0.7134536915909716
 40
0.7134536915909716
 40
0.8567268457954871
 40
0.8567268457954871
 40
1.0
 40
1.0
 40
1.0
 10
110.960995550737
 20
9.461632347657227
 30
4.0
 10
110.9986097293325
 20
9.461632347657227
 30
4.0
 10
111.0242419720046
 20
9.49803316565299
 30
4.0
 10
111.0498742146766
 20
9.534433983648755
 30
4.0
 10
111.0498742146766
 20
9.643636437636047
 30
4.0
 10
111.0498742146766
 20
9.753445571923269
 30
4.0
 10
111.0242419720046
 20
9.789543049769069
 30
4.0
 10
110.9986097293325
 20
9.825640527614869
 30
4.0
 10
110.960388870437
 20
9.825640527614869
 30
4.0
 10
110.9227746918414
 20
9.825640527614869
 30
4.0
 10
110.900327520744
 20
9.793789811868574
 30
4.0
 10
110.8721168867973
 20
9.753142231773305
 30
4.0
 10
110.8721168867973
 20
9.643636437636047
 30
4.0
 10
110.8721168867973
 20
9.53413064349879
 30
4.0
 10
110.8977491294693
 20
9.497881495578007
 30
4.0
 10
110.9233813721413
 20
9.461632347657227
 30
4.0
 10
110.960995550737
 20
9.461632347657227
 30
4.0
  0
SPLINE
  5
105
330
1F
100
AcDbEntity
  8
Sketch plane 04
100
AcDbSpline
210
0.0
220
0.0
230
1.0
 70
     8
 71
     2
 72
    30
 73
    27
 74
     0
 42
0.00000001
 43
0.00000001
 40
0.0
 40
0.0
 40
0.0
 40
0.0904832181668711
 40
0.0904832181668711
 40
0.1809664363337398
 40
0.1809664363337398
 40
0.2433686557591622
 40
0.2433686557591622
 40
0.3057708751845847
 40
0.3057708751845847
 40
0.3681730946100074
 40
0.3681730946100074
 40
0.4274552030641624
 40
0.4274552030641624
 40
0.4867373115183118
 40
0.4867373115183118
 40
0.5585918179200275
 40
0.5585918179200275
 40
0.6304463243217463
 40
0.6304463243217463
 40
0.7276017132592806
 40
0.7276017132592806
 40
0.8247571021968055
 40
0.8247571021968055
 40
0.9123785510984038
 40
0.9123785510984038
 40
1.0
 40
1.0
 40
1.0
 10
107.9366078221469
 20
15.20773550111257
 30
4.0
 10
107.9466180470957
 20
15.26264006825618
 30
4.0
 10
107.9821088446416
 20
15.29282241317767
 30
4.0
 10
108.0175996421874
 20
15.32300475809916
 30
4.0
 10
108.0703808282813
 20
15.32300475809916
 30
4.0
 10
108.1067816462771
 20
15.32300475809916
 30
4.0
 10
108.1374190014235
 20
15.30738274037597
 30
4.0
 10
108.1680563565699
 20
15.29176072265279
 30
4.0
 10
108.1842850545931
 20
15.26476344930593
 30
4.0
 10
108.2005137526162
 20
15.23776617595907
 30
4.0
 10
108.2005137526162
 20
15.20743216096261
 30
4.0
 10
108.2005137526162
 20
15.17861484671596
 30
4.0
 10
108.185043404968
 20
15.15495431501871
 30
4.0
 10
108.1695730573198
 20
15.13129378332146
 30
4.0
 10
108.1392390423233
 20
15.11734013642309
 30
4.0
 10
108.1786732618187
 20
15.10823993192415
 30
4.0
 10
108.2005137526162
 20
15.07957428775249
 30
4.0
 10
108.2223542434136
 20
15.05090864358082
 30
4.0
 10
108.2223542434136
 20
15.00783434228583
 30
4.0
 10
108.2223542434136
 20
14.94959303349261
 30
4.0
 10
108.1798866224186
 20
14.90909712347232
 30
4.0
 10
108.1374190014235
 20
14.86860121345203
 30
4.0
 10
108.072504209331
 20
14.86860121345203
 30
4.0
 10
108.0139595603879
 20
14.86860121345203
 30
4.0
 10
107.9752836912674
 20
14.90348533069798
 30
4.0
 10
107.9366078221469
 20
14.93836944794391
 30
4.0
 10
107.9311476994475
 20
14.99388069538746
 30
4.0
  0
SPLINE
  5
106
330
1F
100
AcDbEntity
  8
Sketch plane 04
100
AcDbSpline
210
0.0
220
0.0
230
1.0
 70
     8
 71
     2
 72
    22
 73
    19
 74
     0
 42
0.00000001
 43
0.00000001
 40
0.0
 40
0.0
 40
0.0
 40
0.155885997042959
 40
0.155885997042959
 40
0.3117719940859323
 40
0.3117719940859323
 40
0.4691497231580251
 40
0.4691497231580251
 40
0.6265274522301352
 40
0.6265274522301352
 40
0.7065808635500468
 40
0.7065808635500468
 40
0.7866342748699582
 40
0.7866342748699582
 40
0.8666876861898728
 40
0.8666876861898728
 40
0.9333438430949452
 40
0.9333438430949452
 40
1.0
 40
1.0
 40
1.0
 10
106.1068013091978
 20
14.65174165320619
 30
4.0
 10
106.1119819499613
 20
14.70818337099737
 30
4.0
 10
106.1457924475753
 20
14.73776755640966
 30
4.0
 10
106.1796029451894
 20
14.76735174182195
 30
4.0
 10
106.2365899935872
 20
14.76735174182195
 30
4.0
 10
106.2941223725918
 20
14.76735174182195
 30
4.0
 10
106.3276602049025
 20
14.73544990133128
 30
4.0
 10
106.3611980372132
 20
14.70354806084061
 30
4.0
 10
106.3611980372132
 20
14.65637696336295
 30
4.0
 10
106.3611980372132
 20
14.63238241666911
 30
4.0
 10
106.351382086293
 20
14.60920586588529
 30
4.0
 10
106.3415661353728
 20
14.58602931510147
 30
4.0
 10
106.3187985825439
 20
14.5603987765876
 30
4.0
 10
106.2960310297151
 20
14.53476823807373
 30
4.0
 10
106.2431339608674
 20
14.49005112832612
 30
4.0
 10
106.1989621817264
 20
14.45296864707201
 30
4.0
 10
106.1864195777728
 20
14.43974437986007
 30
4.0
 10
106.1738769738192
 20
14.42652011264812
 30
4.0
 10
106.1656970147191
 20
14.41315951278451
 30
4.0
  0
ENDSEC
  0
SECTION
  2
OBJECTS
  0
DICTIONARY
  5
C
330
0
100
AcDbDictionary
281
     1
  3
ACAD_DETAILVIEWSTYLE
350
13E
  3
ACAD_GROUP
350
D
  3
ACAD_LAYOUT
350
1A
  3
ACAD_MATERIAL
350
43
  3
ACAD_MLEADERSTYLE
350
5B
  3
ACAD_MLINESTYLE
350
17
  3
ACAD_PLOTSETTINGS
350
19
  3
ACAD_PLOTSTYLENAME
350
E
  3
ACAD_SCALELIST
350
47
  3
ACAD_SECTIONVIEWSTYLE
350
13F
  3
ACAD_TABLESTYLE
350
59
  3
ACAD_VISUALSTYLE
350
2A
  3
AcDbVariableDictionary
350
107
  3
ACDB_RECOMPOSE_DATA
350
13B
  0
SUN
  5
5D
330
29
100
AcDbSun
 90
        1
290
     0
 63
     7
421
 16777215
 40
1.0
291
     1
 91
  2455826
 92
 54000000
292
     0
 70
     2
 71
   256
280
     1
  0
DICTIONARY
  5
13E
102
{ACAD_REACTORS
330
C
102
}
330
C
100
AcDbDictionary
281
     1
  0
DICTIONARY
  5
D
102
{ACAD_REACTORS
330
C
102
}
330
C
100
AcDbDictionary
281
     1
  0
DICTIONARY
  5
1A
102
{ACAD_REACTORS
330
C
102
}
330
C
100
AcDbDictionary
281
     1
  3
Layout1
350
1E
  3
Layout2
350
26
  3
Model
350
22
  0
DICTIONARY
  5
43
102
{ACAD_REACTORS
330
C
102
}
330
C
100
AcDbDictionary
281
     1
  3
ByBlock
350
45
  3
ByLayer
350
44
  3
Global
350
46
  0
DICTIONARY
  5
5B
102
{ACAD_REACTORS
330
C
102
}
330
C
100
AcDbDictionary
281
     1
  3
Standard
350
5C
  0
DICTIONARY
  5
17
102
{ACAD_REACTORS
330
C
102
}
330
C
100
AcDbDictionary
281
     1
  3
Standard
350
18
  0
DICTIONARY
  5
19
102
{ACAD_REACTORS
330
C
102
}
330
C
100
AcDbDictionary
281
     1
  0
ACDBDICTIONARYWDFLT
  5
E
102
{ACAD_REACTORS
330
C
102
}
330
C
100
AcDbDictionary
281
     1
  3
Normal
350
F
100
AcDbDictionaryWithDefault
340
F
  0
DICTIONARY
  5
47
102
{ACAD_REACTORS
330
C
102
}
330
C
100
AcDbDictionary
281
     1
  3
A0
350
48
  3
A1
350
49
  3
A2
350
4A
  3
A3
350
4B
  3
A4
350
4C
  3
A5
350
4D
  3
A6
350
4E
  3
A7
350
4F
  3
A8
350
50
  3
A9
350
51
  3
B0
350
52
  3
B1
350
53
  3
B2
350
54
  3
B3
350
55
  3
B4
350
56
  3
B5
350
57
  3
B6
350
58
  0
DICTIONARY
  5
13F
102
{ACAD_REACTORS
330
C
102
}
330
C
100
AcDbDictionary
281
     1
  0
DICTIONARY
  5
59
102
{ACAD_REACTORS
330
C
102
}
330
C
100
AcDbDictionary
281
     1
  3
Standard
350
5A
  0
DICTIONARY
  5
2A
102
{ACAD_REACTORS
330
C
102
}
330
C
100
AcDbDictionary
281
     1
  3
2dWireframe
350
2F
  3
Basic
350
32
  3
Brighten
350
36
  3
ColorChange
350
3A
  3
Conceptual
350
34
  3
Dim
350
35
  3
EdgeColorOff
350
3D
  3
Facepattern
350
39
  3
Flat
350
2B
  3
FlatWithEdges
350
2C
  3
Gouraud
350
2D
  3
GouraudWithEdges
350
2E
  3
Hidden
350
31
  3
JitterOff
350
3B
  3
Linepattern
350
38
  3
OverhangOff
350
3C
  3
Realistic
350
33
  3
Shaded
350
42
  3
Shaded with edges
350
41
  3
Shades of Gray
350
3E
  3
Sketchy
350
3F
  3
Thicken
350
37
  3
Wireframe
350
30
  3
X-Ray
350
40
  0
DICTIONARY
  5
107
102
{ACAD_REACTORS
330
C
102
}
330
C
100
AcDbDictionary
281
     1
  3
CANNOSCALE
350
108
  3
CENTEREXE
350
140
  3
CENTERLTYPEFILE
350
141
  3
CMLEADERSTYLE
350
13D
  3
CTABLESTYLE
350
13C
  0
XRECORD
  5
13B
102
{ACAD_REACTORS
330
C
102
}
330
C
100
AcDbXrecord
280
     1
 90
        1
330
5A
  0
LAYOUT
  5
1E
102
{ACAD_REACTORS
330
1A
102
}
330
1A
100
AcDbPlotSettings
  1

  2
none_device
  4

  6

 40
0.0
 41
0.0
 42
0.0
 43
0.0
 44
0.0
 45
0.0
 46
0.0
 47
0.0
 48
0.0
 49
0.0
140
0.0
141
0.0
142
1.0
143
1.0
 70
   688
 72
     1
 73
     0
 74
     5
  7

 75
    16
 76
     0
 77
     2
 78
   300
147
1.0
148
0.0
149
0.0
100
AcDbLayout
  1
Layout1
 70
     1
 71
     1
 10
0.0
 20
0.0
 11
420.0
 21
297.0
 12
0.0
 22
0.0
 32
0.0
 14
1.000000000000000E+20
 24
1.000000000000000E+20
 34
1.000000000000000E+20
 15
-1.000000000000000E+20
 25
-1.000000000000000E+20
 35
-1.000000000000000E+20
146
0.0
 13
0.0
 23
0.0
 33
0.0
 16
1.0
 26
0.0
 36
0.0
 17
0.0
 27
1.0
 37
0.0
 76
     0
330
1B
  0
LAYOUT
  5
26
102
{ACAD_REACTORS
330
1A
102
}
330
1A
100
AcDbPlotSettings
  1

  2
none_device
  4

  6

 40
0.0
 41
0.0
 42
0.0
 43
0.0
 44
0.0
 45
0.0
 46
0.0
 47
0.0
 48
0.0
 49
0.0
140
0.0
141
0.0
142
1.0
143
1.0
 70
   688
 72
     1
 73
     0
 74
     5
  7

 75
    16
 76
     0
 77
     2
 78
   300
147
1.0
148
0.0
149
0.0
100
AcDbLayout
  1
Layout2
 70
     1
 71
     2
 10
0.0
 20
0.0
 11
0.0
 21
0.0
 12
0.0
 22
0.0
 32
0.0
 14
0.0
 24
0.0
 34
0.0
 15
0.0
 25
0.0
 35
0.0
146
0.0
 13
0.0
 23
0.0
 33
0.0
 16
1.0
 26
0.0
 36
0.0
 17
0.0
 27
1.0
 37
0.0
 76
     0
330
23
  0
LAYOUT
  5
22
102
{ACAD_REACTORS
330
1A
102
}
330
1A
100
AcDbPlotSettings
  1

  2
none_device
  4
Letter_(8.50_x_11.00_Inches)
  6

 40
6.35
 41
6.35
 42
6.35000508
 43
6.35000508
 44
215.9
 45
279.4
 46
0.0
 47
0.0
 48
0.0
 49
0.0
140
0.0
141
0.0
142
1.0
143
1.0
 70
  1712
 72
     1
 73
     0
 74
     0
  7

 75
     0
 76
     0
 77
     2
 78
   300
147
1.0
148
0.0
149
0.0
100
AcDbLayout
  1
Model
 70
     1
 71
     0
 10
0.0
 20
0.0
 11
420.0
 21
297.0
 12
0.0
 22
0.0
 32
0.0
 14
1.000000000000000E+20
 24
1.000000000000000E+20
 34
1.000000000000000E+20
 15
-1.000000000000000E+20
 25
-1.000000000000000E+20
 35
-1.000000000000000E+20
146
0.0
 13
0.0
 23
0.0
 33
0.0
 16
1.0
 26
0.0
 36
0.0
 17
0.0
 27
1.0
 37
0.0
 76
     0
330
1F
331
29
  0
MATERIAL
  5
45
102
{ACAD_REACTORS
330
43
102
}
330
43
100
AcDbMaterial
  1
ByBlock
 72
     1
 94
      127
  0
MATERIAL
  5
44
102
{ACAD_REACTORS
330
43
102
}
330
43
100
AcDbMaterial
  1
ByLayer
 72
     1
 94
      127
  0
MATERIAL
  5
46
102
{ACAD_REACTORS
330
43
102
}
330
43
100
AcDbMaterial
  1
Global
 72
     1
 94
      127
  0
MLEADERSTYLE
  5
5C
102
{ACAD_REACTORS
330
5B
102
}
330
5B
100
AcDbMLeaderStyle
179
     2
170
     2
171
     1
172
     0
 90
        2
 40
0.0
 41
0.0
173
     1
 91
-1056964608
340
14
 92
       -2
290
     1
 42
2.0
291
     1
 43
8.0
  3
Standard
341
0
 44
4.0
300

342
11
174
     1
178
     6
175
     1
176
     0
 93
-1056964608
 45
4.0
292
     0
297
     0
 46
4.0
343
0
 94
-1056964608
 47
1.0
 49
1.0
140
1.0
293
     1
141
0.0
294
     1
177
     0
142
1.0
295
     0
296
     0
143
3.75
271
     0
272
     9
273
     9
  0
MLINESTYLE
  5
18
102
{ACAD_REACTORS
330
17
102
}
330
17
100
AcDbMlineStyle
  2
Standard
 70
     0
  3

 62
   256
 51
90.0
 52
90.0
 71
     2
 49
0.5
 62
   256
  6
BYLAYER
 49
-0.5
 62
   256
  6
BYLAYER
  0
ACDBPLACEHOLDER
  5
F
102
{ACAD_REACTORS
330
E
102
}
330
E
  0
SCALE
  5
48
102
{ACAD_REACTORS
330
47
102
}
330
47
100
AcDbScale
 70
     0
300
1:1
140
1.0
141
1.0
290
     1
  0
SCALE
  5
49
102
{ACAD_REACTORS
330
47
102
}
330
47
100
AcDbScale
 70
     0
300
1:2
140
1.0
141
2.0
290
     0
  0
SCALE
  5
4A
102
{ACAD_REACTORS
330
47
102
}
330
47
100
AcDbScale
 70
     0
300
1:4
140
1.0
141
4.0
290
     0
  0
SCALE
  5
4B
102
{ACAD_REACTORS
330
47
102
}
330
47
100
AcDbScale
 70
     0
300
1:5
140
1.0
141
5.0
290
     0
  0
SCALE
  5
4C
102
{ACAD_REACTORS
330
47
102
}
330
47
100
AcDbScale
 70
     0
300
1:8
140
1.0
141
8.0
290
     0
  0
SCALE
  5
4D
102
{ACAD_REACTORS
330
47
102
}
330
47
100
AcDbScale
 70
     0
300
1:10
140
1.0
141
10.0
290
     0
  0
SCALE
  5
4E
102
{ACAD_REACTORS
330
47
102
}
330
47
100
AcDbScale
 70
     0
300
1:16
140
1.0
141
16.0
290
     0
  0
SCALE
  5
4F
102
{ACAD_REACTORS
330
47
102
}
330
47
100
AcDbScale
 70
     0
300
1:20
140
1.0
141
20.0
290
     0
  0
SCALE
  5
50
102
{ACAD_REACTORS
330
47
102
}
330
47
100
AcDbScale
 70
     0
300
1:30
140
1.0
141
30.0
290
     0
  0
SCALE
  5
51
102
{ACAD_REACTORS
330
47
102
}
330
47
100
AcDbScale
 70
     0
300
1:40
140
1.0
141
40.0
290
     0
  0
SCALE
  5
52
102
{ACAD_REACTORS
330
47
102
}
330
47
100
AcDbScale
 70
     0
300
1:50
140
1.0
141
50.0
290
     0
  0
SCALE
  5
53
102
{ACAD_REACTORS
330
47
102
}
330
47
100
AcDbScale
 70
     0
300
1:100
140
1.0
141
100.0
290
     0
  0
SCALE
  5
54
102
{ACAD_REACTORS
330
47
102
}
330
47
100
AcDbScale
 70
     0
300
2:1
140
2.0
141
1.0
290
     0
  0
SCALE
  5
55
102
{ACAD_REACTORS
330
47
102
}
330
47
100
AcDbScale
 70
     0
300
4:1
140
4.0
141
1.0
290
     0
  0
SCALE
  5
56
102
{ACAD_REACTORS
330
47
102
}
330
47
100
AcDbScale
 70
     0
300
8:1
140
8.0
141
1.0
290
     0
  0
SCALE
  5
57
102
{ACAD_REACTORS
330
47
102
}
330
47
100
AcDbScale
 70
     0
300
10:1
140
10.0
141
1.0
290
     0
  0
SCALE
  5
58
102
{ACAD_REACTORS
330
47
102
}
330
47
100
AcDbScale
 70
     0
300
100:1
140
100.0
141
1.0
290
     0
  0
TABLESTYLE
  5
5A
102
{ACAD_REACTORS
330
59
102
}
102
{ACAD_XDICTIONARY
360
139
102
}
330
59
100
AcDbTableStyle
  3
Standard
 70
     0
 71
     0
 40
0.06
 41
0.06
280
     0
281
     0
  7
Standard
140
4.5
170
     2
 62
     0
 63
   257
283
     0
 90
        4
 91
        0
  1

274
    -2
284
     1
 64
     0
275
    -2
285
     1
 65
     0
276
    -2
286
     1
 66
     0
277
    -2
287
     1
 67
     0
278
    -2
288
     1
 68
     0
279
    -2
289
     1
 69
     0
  7
Standard
140
6.0
170
     5
 62
     0
 63
   257
283
     0
 90
        4
 91
        0
  1

274
    -2
284
     1
 64
     0
275
    -2
285
     1
 65
     0
276
    -2
286
     1
 66
     0
277
    -2
287
     1
 67
     0
278
    -2
288
     1
 68
     0
279
    -2
289
     1
 69
     0
  7
Standard
140
4.5
170
     5
 62
     0
 63
   257
283
     0
 90
        4
 91
        0
  1

274
    -2
284
     1
 64
     0
275
    -2
285
     1
 65
     0
276
    -2
286
     1
 66
     0
277
    -2
287
     1
 67
     0
278
    -2
288
     1
 68
     0
279
    -2
289
     1
 69
     0
  0
VISUALSTYLE
  5
2F
102
{ACAD_REACTORS
330
2A
102
}
102
{ACAD_XDICTIONARY
360
111
102
}
330
2A
100
AcDbVisualStyle
  2
2dWireframe
 70
     4
177
     2
291
     0
 71
     0
176
     1
 72
     2
176
     1
 73
     0
176
     1
 90
        0
176
     1
 40
0.6
176
     1
 41
30.0
176
     1
 62
     5
 63
     7
421
 16777215
176
     1
 74
     1
176
     1
 91
        4
176
     1
 64
     7
176
     1
 65
   257
176
     1
 75
     1
176
     1
175
     1
176
     1
 42
1.0
176
     1
 92
        0
176
     1
 66
   257
176
     1
 43
1.0
176
     1
 76
     1
176
     1
 77
     6
176
     1
 78
     2
176
     1
 67
     7
176
     1
 79
     5
176
     1
170
     0
176
     1
171
     0
176
     1
290
     0
176
     1
 93
        1
176
     1
 44
0.0
176
     1
173
     0
176
     1
  0
VISUALSTYLE
  5
32
102
{ACAD_REACTORS
330
2A
102
}
102
{ACAD_XDICTIONARY
360
117
102
}
330
2A
100
AcDbVisualStyle
  2
Basic
 70
     7
177
     2
291
     1
 71
     1
176
     1
 72
     0
176
     1
 73
     1
176
     1
 90
        0
176
     1
 40
0.6
176
     1
 41
30.0
176
     1
 62
     5
 63
     7
421
 16777215
176
     1
 74
     0
176
     1
 91
        4
176
     1
 64
     7
176
     1
 65
   257
176
     1
 75
     1
176
     1
175
     1
176
     1
 42
1.0
176
     1
 92
        8
176
     1
 66
     7
176
     1
 43
1.0
176
     1
 76
     1
176
     1
 77
     6
176
     1
 78
     2
176
     1
 67
     7
176
     1
 79
     5
176
     1
170
     0
176
     1
171
     0
176
     1
290
     0
176
     1
 93
        1
176
     1
 44
0.0
176
     1
173
     0
176
     1
  0
VISUALSTYLE
  5
36
102
{ACAD_REACTORS
330
2A
102
}
102
{ACAD_XDICTIONARY
360
11F
102
}
330
2A
100
AcDbVisualStyle
  2
Brighten
 70
    12
177
     2
291
     1
 71
     2
176
     1
 72
     2
176
     1
 73
     0
176
     1
 90
        0
176
     1
 40
0.6
176
     1
 41
30.0
176
     1
 62
     5
 63
     7
421
 16777215
176
     1
 74
     1
176
     1
 91
        4
176
     1
 64
     7
176
     1
 65
   257
176
     1
 75
     1
176
     1
175
     1
176
     1
 42
1.0
176
     1
 92
        8
176
     1
 66
     7
176
     1
 43
1.0
176
     1
 76
     1
176
     1
 77
     6
176
     1
 78
     2
176
     1
 67
     7
176
     1
 79
     5
176
     1
170
     0
176
     1
171
     0
176
     1
290
     0
176
     1
 93
        1
176
     1
 44
50.0
176
     1
173
     0
176
     1
  0
VISUALSTYLE
  5
3A
102
{ACAD_REACTORS
330
2A
102
}
102
{ACAD_XDICTIONARY
360
127
102
}
330
2A
100
AcDbVisualStyle
  2
ColorChange
 70
    16
177
     2
291
     1
 71
     2
176
     1
 72
     2
176
     1
 73
     3
176
     1
 90
        0
176
     1
 40
0.6
176
     1
 41
30.0
176
     1
 62
     5
 63
     8
421
  8421504
176
     1
 74
     1
176
     1
 91
        4
176
     1
 64
     7
176
     1
 65
   257
176
     1
 75
     1
176
     1
175
     1
176
     1
 42
1.0
176
     1
 92
        8
176
     1
 66
     8
424
  8421504
176
     1
 43
1.0
176
     1
 76
     1
176
     1
 77
     6
176
     1
 78
     2
176
     1
 67
     7
176
     1
 79
     5
176
     1
170
     0
176
     1
171
     0
176
     1
290
     0
176
     1
 93
        1
176
     1
 44
0.0
176
     1
173
     0
176
     1
  0
VISUALSTYLE
  5
34
102
{ACAD_REACTORS
330
2A
102
}
102
{ACAD_XDICTIONARY
360
11B
102
}
330
2A
100
AcDbVisualStyle
  2
Conceptual
 70
     9
177
     2
291
     0
 71
     3
176
     1
 72
     2
176
     1
 73
     0
176
     1
 90
        0
176
     1
 40
0.6
176
     1
 41
30.0
176
     1
 62
     5
 63
     7
421
 16777215
176
     1
 74
     2
176
     1
 91
        2
176
     1
 64
     7
176
     1
 65
   257
176
     1
 75
     1
176
     1
175
     1
176
     1
 42
179.0
176
     1
 92
        8
176
     1
 66
     7
176
     1
 43
1.0
176
     1
 76
     1
176
     1
 77
     6
176
     1
 78
     2
176
     1
 67
     7
176
     1
 79
     3
176
     1
170
     0
176
     1
171
     0
176
     1
290
     0
176
     1
 93
        1
176
     1
 44
0.0
176
     1
173
     0
176
     1
  0
VISUALSTYLE
  5
35
102
{ACAD_REACTORS
330
2A
102
}
102
{ACAD_XDICTIONARY
360
11D
102
}
330
2A
100
AcDbVisualStyle
  2
Dim
 70
    11
177
     2
291
     1
 71
     2
176
     1
 72
     2
176
     1
 73
     0
176
     1
 90
        0
176
     1
 40
0.6
176
     1
 41
30.0
176
     1
 62
     5
 63
     7
421
 16777215
176
     1
 74
     1
176
     1
 91
        4
176
     1
 64
     7
176
     1
 65
   257
176
     1
 75
     1
176
     1
175
     1
176
     1
 42
1.0
176
     1
 92
        8
176
     1
 66
     7
176
     1
 43
1.0
176
     1
 76
     1
176
     1
 77
     6
176
     1
 78
     2
176
     1
 67
     7
176
     1
 79
     5
176
     1
170
     0
176
     1
171
     0
176
     1
290
     0
176
     1
 93
        1
176
     1
 44
-50.0
176
     1
173
     0
176
     1
  0
VISUALSTYLE
  5
3D
102
{ACAD_REACTORS
330
2A
102
}
102
{ACAD_XDICTIONARY
360
12D
102
}
330
2A
100
AcDbVisualStyle
  2
EdgeColorOff
 70
    22
177
     2
291
     1
 71
     2
176
     0
 72
     2
176
     0
 73
     0
176
     0
 90
        0
176
     0
 40
0.6
176
     0
 41
30.0
176
     0
 62
     5
 63
     7
421
 16777215
176
     0
 74
     1
176
     0
 91
        4
176
     0
 64
     7
176
     0
 65
   257
176
     0
 75
     1
176
     0
175
     1
176
     0
 42
1.0
176
     0
 92
        8
176
     2
 66
     7
176
     0
 43
1.0
176
     0
 76
     1
176
     0
 77
     6
176
     0
 78
     2
176
     0
 67
     7
176
     0
 79
     5
176
     0
170
     0
176
     0
171
     0
176
     0
290
     0
176
     0
 93
        1
176
     0
 44
0.0
176
     0
173
     0
176
     0
  0
VISUALSTYLE
  5
39
102
{ACAD_REACTORS
330
2A
102
}
102
{ACAD_XDICTIONARY
360
125
102
}
330
2A
100
AcDbVisualStyle
  2
Facepattern
 70
    15
177
     2
291
     1
 71
     2
176
     1
 72
     2
176
     1
 73
     0
176
     1
 90
        0
176
     1
 40
0.6
176
     1
 41
30.0
176
     1
 62
     5
 63
     7
421
 16777215
176
     1
 74
     1
176
     1
 91
        4
176
     1
 64
     7
176
     1
 65
   257
176
     1
 75
     1
176
     1
175
     1
176
     1
 42
1.0
176
     1
 92
        8
176
     1
 66
     7
176
     1
 43
1.0
176
     1
 76
     1
176
     1
 77
     6
176
     1
 78
     2
176
     1
 67
     7
176
     1
 79
     5
176
     1
170
     0
176
     1
171
     0
176
     1
290
     0
176
     1
 93
        1
176
     1
 44
0.0
176
     1
173
     0
176
     1
  0
VISUALSTYLE
  5
2B
102
{ACAD_REACTORS
330
2A
102
}
102
{ACAD_XDICTIONARY
360
109
102
}
330
2A
100
AcDbVisualStyle
  2
Flat
 70
     0
177
     2
291
     1
 71
     2
176
     1
 72
     1
176
     1
 73
     1
176
     1
 90
        2
176
     1
 40
0.6
176
     1
 41
30.0
176
     1
 62
     5
 63
     7
421
 16777215
176
     1
 74
     0
176
     1
 91
        0
176
     1
 64
     7
176
     1
 65
   257
176
     1
 75
     1
176
     1
175
     1
176
     1
 42
1.0
176
     1
 92
        8
176
     1
 66
     7
176
     1
 43
1.0
176
     1
 76
     1
176
     1
 77
     6
176
     1
 78
     2
176
     1
 67
     7
176
     1
 79
     5
176
     1
170
     0
176
     1
171
     0
176
     1
290
     0
176
     1
 93
       13
176
     1
 44
0.0
176
     1
173
     0
176
     1
  0
VISUALSTYLE
  5
2C
102
{ACAD_REACTORS
330
2A
102
}
102
{ACAD_XDICTIONARY
360
10B
102
}
330
2A
100
AcDbVisualStyle
  2
FlatWithEdges
 70
     1
177
     2
291
     1
 71
     2
176
     1
 72
     1
176
     1
 73
     1
176
     1
 90
        2
176
     1
 40
0.6
176
     1
 41
30.0
176
     1
 62
     5
 63
     7
421
 16777215
176
     1
 74
     1
176
     1
 91
        0
176
     1
 64
     7
176
     1
 65
   257
176
     1
 75
     1
176
     1
175
     1
176
     1
 42
1.0
176
     1
 92
        0
176
     1
 66
   257
176
     1
 43
1.0
176
     1
 76
     1
176
     1
 77
     6
176
     1
 78
     2
176
     1
 67
     7
176
     1
 79
     5
176
     1
170
     0
176
     1
171
     0
176
     1
290
     0
176
     1
 93
       13
176
     1
 44
0.0
176
     1
173
     0
176
     1
  0
VISUALSTYLE
  5
2D
102
{ACAD_REACTORS
330
2A
102
}
102
{ACAD_XDICTIONARY
360
10D
102
}
330
2A
100
AcDbVisualStyle
  2
Gouraud
 70
     2
177
     2
291
     1
 71
     2
176
     1
 72
     2
176
     1
 73
     1
176
     1
 90
        2
176
     1
 40
0.6
176
     1
 41
30.0
176
     1
 62
     5
 63
     7
421
 16777215
176
     1
 74
     0
176
     1
 91
        0
176
     1
 64
     7
176
     1
 65
   257
176
     1
 75
     1
176
     1
175
     1
176
     1
 42
1.0
176
     1
 92
        0
176
     1
 66
     7
176
     1
 43
1.0
176
     1
 76
     1
176
     1
 77
     6
176
     1
 78
     2
176
     1
 67
     7
176
     1
 79
     5
176
     1
170
     0
176
     1
171
     0
176
     1
290
     0
176
     1
 93
       13
176
     1
 44
0.0
176
     1
173
     0
176
     1
  0
VISUALSTYLE
  5
2E
102
{ACAD_REACTORS
330
2A
102
}
102
{ACAD_XDICTIONARY
360
10F
102
}
330
2A
100
AcDbVisualStyle
  2
GouraudWithEdges
 70
     3
177
     2
291
     1
 71
     2
176
     1
 72
     2
176
     1
 73
     1
176
     1
 90
        2
176
     1
 40
0.6
176
     1
 41
30.0
176
     1
 62
     5
 63
     7
421
 16777215
176
     1
 74
     1
176
     1
 91
        0
176
     1
 64
     7
176
     1
 65
   257
176
     1
 75
     1
176
     1
175
     1
176
     1
 42
1.0
176
     1
 92
        0
176
     1
 66
   257
176
     1
 43
1.0
176
     1
 76
     1
176
     1
 77
     6
176
     1
 78
     2
176
     1
 67
     7
176
     1
 79
     5
176
     1
170
     0
176
     1
171
     0
176
     1
290
     0
176
     1
 93
       13
176
     1
 44
0.0
176
     1
173
     0
176
     1
  0
VISUALSTYLE
  5
31
102
{ACAD_REACTORS
330
2A
102
}
102
{ACAD_XDICTIONARY
360
115
102
}
330
2A
100
AcDbVisualStyle
  2
Hidden
 70
     6
177
     2
291
     0
 71
     1
176
     1
 72
     2
176
     1
 73
     2
176
     1
 90
        0
176
     1
 40
0.6
176
     1
 41
30.0
176
     1
 62
     5
 63
     7
421
 16777215
176
     1
 74
     2
176
     1
 91
        2
176
     1
 64
     7
176
     1
 65
   257
176
     1
 75
     2
176
     1
175
     1
176
     1
 42
40.0
176
     1
 92
        0
176
     1
 66
   257
176
     1
 43
1.0
176
     1
 76
     1
176
     1
 77
     6
176
     1
 78
     2
176
     1
 67
     7
176
     1
 79
     3
176
     1
170
     0
176
     1
171
     0
176
     1
290
     0
176
     1
 93
        1
176
     1
 44
0.0
176
     1
173
     0
176
     1
  0
VISUALSTYLE
  5
3B
102
{ACAD_REACTORS
330
2A
102
}
102
{ACAD_XDICTIONARY
360
129
102
}
330
2A
100
AcDbVisualStyle
  2
JitterOff
 70
    20
177
     2
291
     1
 71
     2
176
     0
 72
     2
176
     0
 73
     0
176
     0
 90
        0
176
     0
 40
0.6
176
     0
 41
30.0
176
     0
 62
     5
 63
     7
421
 16777215
176
     0
 74
     1
176
     0
 91
        4
176
     0
 64
     7
176
     0
 65
   257
176
     0
 75
     1
176
     0
175
     1
176
     0
 42
1.0
176
     0
 92
       10
176
     2
 66
     7
176
     0
 43
1.0
176
     0
 76
     1
176
     0
 77
     6
176
     0
 78
     2
176
     0
 67
     7
176
     0
 79
     5
176
     0
170
     0
176
     0
171
     0
176
     0
290
     0
176
     0
 93
        1
176
     0
 44
0.0
176
     0
173
     0
176
     0
  0
VISUALSTYLE
  5
38
102
{ACAD_REACTORS
330
2A
102
}
102
{ACAD_XDICTIONARY
360
123
102
}
330
2A
100
AcDbVisualStyle
  2
Linepattern
 70
    14
177
     2
291
     1
 71
     2
176
     1
 72
     2
176
     1
 73
     0
176
     1
 90
        0
176
     1
 40
0.6
176
     1
 41
30.0
176
     1
 62
     5
 63
     7
421
 16777215
176
     1
 74
     1
176
     1
 91
        4
176
     1
 64
     7
176
     1
 65
   257
176
     1
 75
     7
176
     1
175
     7
176
     1
 42
1.0
176
     1
 92
        8
176
     1
 66
     7
176
     1
 43
1.0
176
     1
 76
     1
176
     1
 77
     6
176
     1
 78
     2
176
     1
 67
     7
176
     1
 79
     5
176
     1
170
     0
176
     1
171
     0
176
     1
290
     0
176
     1
 93
        1
176
     1
 44
0.0
176
     1
173
     0
176
     1
  0
VISUALSTYLE
  5
3C
102
{ACAD_REACTORS
330
2A
102
}
102
{ACAD_XDICTIONARY
360
12B
102
}
330
2A
100
AcDbVisualStyle
  2
OverhangOff
 70
    21
177
     2
291
     1
 71
     2
176
     0
 72
     2
176
     0
 73
     0
176
     0
 90
        0
176
     0
 40
0.6
176
     0
 41
30.0
176
     0
 62
     5
 63
     7
421
 16777215
176
     0
 74
     1
176
     0
 91
        4
176
     0
 64
     7
176
     0
 65
   257
176
     0
 75
     1
176
     0
175
     1
176
     0
 42
1.0
176
     0
 92
        9
176
     2
 66
     7
176
     0
 43
1.0
176
     0
 76
     1
176
     0
 77
     6
176
     0
 78
     2
176
     0
 67
     7
176
     0
 79
     5
176
     0
170
     0
176
     0
171
     0
176
     0
290
     0
176
     0
 93
        1
176
     0
 44
0.0
176
     0
173
     0
176
     0
  0
VISUALSTYLE
  5
33
102
{ACAD_REACTORS
330
2A
102
}
102
{ACAD_XDICTIONARY
360
119
102
}
330
2A
100
AcDbVisualStyle
  2
Realistic
 70
     8
177
     2
291
     0
 71
     2
176
     1
 72
     3
176
     1
 73
     0
176
     1
 90
        2
176
     1
 40
0.6
176
     1
 41
30.0
176
     1
 62
     5
 63
     7
421
 16777215
176
     1
 74
     0
176
     1
 91
        0
176
     1
 64
     7
176
     1
 65
   257
176
     1
 75
     1
176
     1
175
     1
176
     1
 42
1.0
176
     1
 92
        8
176
     1
 66
   257
176
     1
 43
1.0
176
     1
 76
     1
176
     1
 77
     6
176
     1
 78
     2
176
     1
 67
     7
176
     1
 79
     3
176
     1
170
     0
176
     1
171
     0
176
     1
290
     0
176
     1
 93
       13
176
     1
 44
0.0
176
     1
173
     0
176
     1
  0
VISUALSTYLE
  5
42
102
{ACAD_REACTORS
330
2A
102
}
102
{ACAD_XDICTIONARY
360
137
102
}
330
2A
100
AcDbVisualStyle
  2
Shaded
 70
    27
177
     2
291
     0
 71
     2
176
     1
 72
     2
176
     1
 73
     1
176
     1
 90
        2
176
     1
 40
0.6
176
     1
 41
30.0
176
     1
 62
     5
 63
     7
421
 16777215
176
     1
 74
     0
176
     1
 91
        4
176
     1
 64
     7
176
     1
 65
   257
176
     1
 75
     1
176
     1
175
     1
176
     1
 42
1.0
176
     1
 92
        8
176
     1
 66
   257
176
     1
 43
1.0
176
     1
 76
     1
176
     1
 77
     6
176
     1
 78
     2
176
     1
 67
     8
425
  7895160
176
     1
 79
     3
176
     1
170
     0
176
     1
171
     0
176
     1
290
     0
176
     1
 93
        5
176
     1
 44
0.0
176
     1
173
     0
176
     1
  0
VISUALSTYLE
  5
41
102
{ACAD_REACTORS
330
2A
102
}
102
{ACAD_XDICTIONARY
360
135
102
}
330
2A
100
AcDbVisualStyle
  2
Shaded with edges
 70
    26
177
     2
291
     0
 71
     2
176
     1
 72
     2
176
     1
 73
     1
176
     1
 90
        2
176
     1
 40
0.6
176
     1
 41
30.0
176
     1
 62
     5
 63
     7
421
 16777215
176
     1
 74
     1
176
     1
 91
       10
176
     1
 64
     7
176
     1
 65
   257
176
     1
 75
     2
176
     1
175
     1
176
     1
 42
1.0
176
     1
 92
        8
176
     1
 66
   257
176
     1
 43
1.0
176
     1
 76
     1
176
     1
 77
     6
176
     1
 78
     2
176
     1
 67
     7
176
     1
 79
     3
176
     1
170
     0
176
     1
171
     0
176
     1
290
     0
176
     1
 93
        5
176
     1
 44
0.0
176
     1
173
     0
176
     1
  0
VISUALSTYLE
  5
3E
102
{ACAD_REACTORS
330
2A
102
}
102
{ACAD_XDICTIONARY
360
12F
102
}
330
2A
100
AcDbVisualStyle
  2
Shades of Gray
 70
    23
177
     2
291
     0
 71
     2
176
     1
 72
     2
176
     1
 73
     3
176
     1
 90
        0
176
     1
 40
0.6
176
     1
 41
30.0
176
     1
 62
     5
 63
     7
421
 16777215
176
     1
 74
     2
176
     1
 91
        2
176
     1
 64
     7
176
     1
 65
     7
176
     1
 75
     1
176
     1
175
     1
176
     1
 42
40.0
176
     1
 92
        8
176
     1
 66
     7
176
     1
 43
1.0
176
     1
 76
     1
176
     1
 77
     6
176
     1
 78
     2
176
     1
 67
     7
176
     1
 79
     3
176
     1
170
     0
176
     1
171
     0
176
     1
290
     0
176
     1
 93
        1
176
     1
 44
0.0
176
     1
173
     0
176
     1
  0
VISUALSTYLE
  5
3F
102
{ACAD_REACTORS
330
2A
102
}
102
{ACAD_XDICTIONARY
360
131
102
}
330
2A
100
AcDbVisualStyle
  2
Sketchy
 70
    24
177
     2
291
     0
 71
     1
176
     1
 72
     2
176
     1
 73
     2
176
     1
 90
        0
176
     1
 40
0.6
176
     1
 41
30.0
176
     1
 62
     5
 63
     7
421
 16777215
176
     1
 74
     2
176
     1
 91
        2
176
     1
 64
     7
176
     1
 65
     7
176
     1
 75
     1
176
     1
175
     1
176
     1
 42
40.0
176
     1
 92
       11
176
     1
 66
     7
176
     1
 43
1.0
176
     1
 76
     1
176
     1
 77
     6
176
     1
 78
     2
176
     1
 67
     7
176
     1
 79
     6
176
     1
170
     0
176
     1
171
     0
176
     1
290
     0
176
     1
 93
        1
176
     1
 44
0.0
176
     1
173
     0
176
     1
  0
VISUALSTYLE
  5
37
102
{ACAD_REACTORS
330
2A
102
}
102
{ACAD_XDICTIONARY
360
121
102
}
330
2A
100
AcDbVisualStyle
  2
Thicken
 70
    13
177
     2
291
     1
 71
     2
176
     1
 72
     2
176
     1
 73
     0
176
     1
 90
        0
176
     1
 40
0.6
176
     1
 41
30.0
176
     1
 62
     5
 63
     7
421
 16777215
176
     1
 74
     1
176
     1
 91
        4
176
     1
 64
     7
176
     1
 65
   257
176
     1
 75
     1
176
     1
175
     1
176
     1
 42
1.0
176
     1
 92
       12
176
     1
 66
     7
176
     1
 43
1.0
176
     1
 76
     1
176
     1
 77
     6
176
     1
 78
     2
176
     1
 67
     7
176
     1
 79
     5
176
     1
170
     0
176
     1
171
     0
176
     1
290
     0
176
     1
 93
        1
176
     1
 44
0.0
176
     1
173
     0
176
     1
  0
VISUALSTYLE
  5
30
102
{ACAD_REACTORS
330
2A
102
}
102
{ACAD_XDICTIONARY
360
113
102
}
330
2A
100
AcDbVisualStyle
  2
Wireframe
 70
     5
177
     2
291
     0
 71
     0
176
     1
 72
     2
176
     1
 73
     0
176
     1
 90
        0
176
     1
 40
0.6
176
     1
 41
30.0
176
     1
 62
     5
 63
     7
421
 16777215
176
     1
 74
     1
176
     1
 91
        4
176
     1
 64
     7
176
     1
 65
   257
176
     1
 75
     1
176
     1
175
     1
176
     1
 42
1.0
176
     1
 92
        0
176
     1
 66
   257
176
     1
 43
1.0
176
     1
 76
     1
176
     1
 77
     6
176
     1
 78
     2
176
     1
 67
     7
176
     1
 79
     3
176
     1
170
     0
176
     1
171
     0
176
     1
290
     0
176
     1
 93
        1
176
     1
 44
0.0
176
     1
173
     0
176
     1
  0
VISUALSTYLE
  5
40
102
{ACAD_REACTORS
330
2A
102
}
102
{ACAD_XDICTIONARY
360
133
102
}
330
2A
100
AcDbVisualStyle
  2
X-Ray
 70
    25
177
     2
291
     0
 71
     2
176
     1
 72
     2
176
     1
 73
     1
176
     1
 90
        1
176
     1
 40
0.5
176
     1
 41
30.0
176
     1
 62
     5
 63
     7
421
 16777215
176
     1
 74
     1
176
     1
 91
        0
176
     1
 64
     7
176
     1
 65
   257
176
     1
 75
     1
176
     1
175
     1
176
     1
 42
1.0
176
     1
 92
        8
176
     1
 66
     7
176
     1
 43
1.0
176
     1
 76
     1
176
     1
 77
     6
176
     1
 78
     2
176
     1
 67
     7
176
     1
 79
     3
176
     1
170
     0
176
     1
171
     0
176
     1
290
     0
176
     1
 93
       13
176
     1
 44
0.0
176
     1
173
     0
176
     1
  0
DICTIONARYVAR
  5
108
102
{ACAD_REACTORS
330
107
102
}
330
107
100
DictionaryVariables
280
     0
  1
1:1
  0
DICTIONARYVAR
  5
140
102
{ACAD_REACTORS
330
107
102
}
330
107
100
DictionaryVariables
280
     0
  1
3.500000
  0
DICTIONARYVAR
  5
141
102
{ACAD_REACTORS
330
107
102
}
330
107
100
DictionaryVariables
280
     0
  1
acadiso.lin
  0
DICTIONARYVAR
  5
13D
102
{ACAD_REACTORS
330
107
102
}
330
107
100
DictionaryVariables
280
     0
  1
Standard
  0
DICTIONARYVAR
  5
13C
102
{ACAD_REACTORS
330
107
102
}
330
107
100
DictionaryVariables
280
     0
  1
Standard
  0
DICTIONARY
  5
139
330
5A
100
AcDbDictionary
280
     1
281
     1
  3
ACAD_ROUNDTRIP_2008_TABLESTYLE_CELLSTYLEMAP
360
13A
  0
DICTIONARY
  5
111
330
2F
100
AcDbDictionary
280
     1
281
     1
  3
ACAD_XREC_ROUNDTRIP
360
112
  0
DICTIONARY
  5
117
330
32
100
AcDbDictionary
280
     1
281
     1
  3
ACAD_XREC_ROUNDTRIP
360
118
  0
DICTIONARY
  5
11F
330
36
100
AcDbDictionary
280
     1
281
     1
  3
ACAD_XREC_ROUNDTRIP
360
120
  0
DICTIONARY
  5
127
330
3A
100
AcDbDictionary
280
     1
281
     1
  3
ACAD_XREC_ROUNDTRIP
360
128
  0
DICTIONARY
  5
11B
330
34
100
AcDbDictionary
280
     1
281
     1
  3
ACAD_XREC_ROUNDTRIP
360
11C
  0
DICTIONARY
  5
11D
330
35
100
AcDbDictionary
280
     1
281
     1
  3
ACAD_XREC_ROUNDTRIP
360
11E
  0
DICTIONARY
  5
12D
330
3D
100
AcDbDictionary
280
     1
281
     1
  3
ACAD_XREC_ROUNDTRIP
360
12E
  0
DICTIONARY
  5
125
330
39
100
AcDbDictionary
280
     1
281
     1
  3
ACAD_XREC_ROUNDTRIP
360
126
  0
DICTIONARY
  5
109
330
2B
100
AcDbDictionary
280
     1
281
     1
  3
ACAD_XREC_ROUNDTRIP
360
10A
  0
DICTIONARY
  5
10B
330
2C
100
AcDbDictionary
280
     1
281
     1
  3
ACAD_XREC_ROUNDTRIP
360
10C
  0
DICTIONARY
  5
10D
330
2D
100
AcDbDictionary
280
     1
281
     1
  3
ACAD_XREC_ROUNDTRIP
360
10E
  0
DICTIONARY
  5
10F
330
2E
100
AcDbDictionary
280
     1
281
     1
  3
ACAD_XREC_ROUNDTRIP
360
110
  0
DICTIONARY
  5
115
330
31
100
AcDbDictionary
280
     1
281
     1
  3
ACAD_XREC_ROUNDTRIP
360
116
  0
DICTIONARY
  5
129
330
3B
100
AcDbDictionary
280
     1
281
     1
  3
ACAD_XREC_ROUNDTRIP
360
12A
  0
DICTIONARY
  5
123
330
38
100
AcDbDictionary
280
     1
281
     1
  3
ACAD_XREC_ROUNDTRIP
360
124
  0
DICTIONARY
  5
12B
330
3C
100
AcDbDictionary
280
     1
281
     1
  3
ACAD_XREC_ROUNDTRIP
360
12C
  0
DICTIONARY
  5
119
330
33
100
AcDbDictionary
280
     1
281
     1
  3
ACAD_XREC_ROUNDTRIP
360
11A
  0
DICTIONARY
  5
137
330
42
100
AcDbDictionary
280
     1
281
     1
  3
ACAD_XREC_ROUNDTRIP
360
138
  0
DICTIONARY
  5
135
330
41
100
AcDbDictionary
280
     1
281
     1
  3
ACAD_XREC_ROUNDTRIP
360
136
  0
DICTIONARY
  5
12F
330
3E
100
AcDbDictionary
280
     1
281
     1
  3
ACAD_XREC_ROUNDTRIP
360
130
  0
DICTIONARY
  5
131
330
3F
100
AcDbDictionary
280
     1
281
     1
  3
ACAD_XREC_ROUNDTRIP
360
132
  0
DICTIONARY
  5
121
330
37
100
AcDbDictionary
280
     1
281
     1
  3
ACAD_XREC_ROUNDTRIP
360
122
  0
DICTIONARY
  5
113
330
30
100
AcDbDictionary
280
     1
281
     1
  3
ACAD_XREC_ROUNDTRIP
360
114
  0
DICTIONARY
  5
133
330
40
100
AcDbDictionary
280
     1
281
     1
  3
ACAD_XREC_ROUNDTRIP
360
134
  0
CELLSTYLEMAP
  5
13A
102
{ACAD_REACTORS
330
139
102
}
330
139
100
AcDbCellStyleMap
 90
        3
300
CELLSTYLE
  1
TABLEFORMAT_BEGIN
 90
        5
170
     1
 91
        0
 92
    32768
 62
   257
 93
        1
300
CONTENTFORMAT
  1
CONTENTFORMAT_BEGIN
 90
        0
 91
        0
 92
        4
 93
        0
300

 40
0.0
140
1.0
 94
        5
 62
     0
340
11
144
6.0
309
CONTENTFORMAT_END
171
     1
301
MARGIN
  1
CELLMARGIN_BEGIN
 40
1.5
 40
1.5
 40
1.5
 40
1.5
 40
1.5
 40
1.5
309
CELLMARGIN_END
 94
        6
 95
        1
302
GRIDFORMAT
  1
GRIDFORMAT_BEGIN
 90
        0
 91
        1
 62
     0
 92
       -2
340
14
 93
        0
 40
0.045
309
GRIDFORMAT_END
 95
        2
302
GRIDFORMAT
  1
GRIDFORMAT_BEGIN
 90
        0
 91
        1
 62
     0
 92
       -2
340
14
 93
        0
 40
0.045
309
GRIDFORMAT_END
 95
        4
302
GRIDFORMAT
  1
GRIDFORMAT_BEGIN
 90
        0
 91
        1
 62
     0
 92
       -2
340
14
 93
        0
 40
0.045
309
GRIDFORMAT_END
 95
        8
302
GRIDFORMAT
  1
GRIDFORMAT_BEGIN
 90
        0
 91
        1
 62
     0
 92
       -2
340
14
 93
        0
 40
0.045
309
GRIDFORMAT_END
 95
       16
302
GRIDFORMAT
  1
GRIDFORMAT_BEGIN
 90
        0
 91
        1
 62
     0
 92
       -2
340
14
 93
        0
 40
0.045
309
GRIDFORMAT_END
 95
       32
302
GRIDFORMAT
  1
GRIDFORMAT_BEGIN
 90
        0
 91
        1
 62
     0
 92
       -2
340
14
 93
        0
 40
0.045
309
GRIDFORMAT_END
309
TABLEFORMAT_END
  1
CELLSTYLE_BEGIN
 90
        1
 91
        1
300
_TITLE
309
CELLSTYLE_END
300
CELLSTYLE
  1
TABLEFORMAT_BEGIN
 90
        5
170
     1
 91
        0
 92
        0
 62
   257
 93
        1
300
CONTENTFORMAT
  1
CONTENTFORMAT_BEGIN
 90
        0
 91
        0
 92
        4
 93
        0
300

 40
0.0
140
1.0
 94
        5
 62
     0
340
11
144
4.5
309
CONTENTFORMAT_END
171
     1
301
MARGIN
  1
CELLMARGIN_BEGIN
 40
1.5
 40
1.5
 40
1.5
 40
1.5
 40
1.5
 40
1.5
309
CELLMARGIN_END
 94
        6
 95
        1
302
GRIDFORMAT
  1
GRIDFORMAT_BEGIN
 90
        0
 91
        1
 62
     0
 92
       -2
340
14
 93
        0
 40
0.045
309
GRIDFORMAT_END
 95
        2
302
GRIDFORMAT
  1
GRIDFORMAT_BEGIN
 90
        0
 91
        1
 62
     0
 92
       -2
340
14
 93
        0
 40
0.045
309
GRIDFORMAT_END
 95
        4
302
GRIDFORMAT
  1
GRIDFORMAT_BEGIN
 90
        0
 91
        1
 62
     0
 92
       -2
340
14
 93
        0
 40
0.045
309
GRIDFORMAT_END
 95
        8
302
GRIDFORMAT
  1
GRIDFORMAT_BEGIN
 90
        0
 91
        1
 62
     0
 92
       -2
340
14
 93
        0
 40
0.045
309
GRIDFORMAT_END
 95
       16
302
GRIDFORMAT
  1
GRIDFORMAT_BEGIN
 90
        0
 91
        1
 62
     0
 92
       -2
340
14
 93
        0
 40
0.045
309
GRIDFORMAT_END
 95
       32
302
GRIDFORMAT
  1
GRIDFORMAT_BEGIN
 90
        0
 91
        1
 62
     0
 92
       -2
340
14
 93
        0
 40
0.045
309
GRIDFORMAT_END
309
TABLEFORMAT_END
  1
CELLSTYLE_BEGIN
 90
        2
 91
        1
300
_HEADER
309
CELLSTYLE_END
300
CELLSTYLE
  1
TABLEFORMAT_BEGIN
 90
        5
170
     1
 91
        0
 92
        0
 62
   257
 93
        1
300
CONTENTFORMAT
  1
CONTENTFORMAT_BEGIN
 90
        0
 91
        0
 92
        4
 93
        0
300

 40
0.0
140
1.0
 94
        2
 62
     0
340
11
144
4.5
309
CONTENTFORMAT_END
171
     1
301
MARGIN
  1
CELLMARGIN_BEGIN
 40
1.5
 40
1.5
 40
1.5
 40
1.5
 40
1.5
 40
1.5
309
CELLMARGIN_END
 94
        6
 95
        1
302
GRIDFORMAT
  1
GRIDFORMAT_BEGIN
 90
        0
 91
        1
 62
     0
 92
       -2
340
14
 93
        0
 40
0.045
309
GRIDFORMAT_END
 95
        2
302
GRIDFORMAT
  1
GRIDFORMAT_BEGIN
 90
        0
 91
        1
 62
     0
 92
       -2
340
14
 93
        0
 40
0.045
309
GRIDFORMAT_END
 95
        4
302
GRIDFORMAT
  1
GRIDFORMAT_BEGIN
 90
        0
 91
        1
 62
     0
 92
       -2
340
14
 93
        0
 40
0.045
309
GRIDFORMAT_END
 95
        8
302
GRIDFORMAT
  1
GRIDFORMAT_BEGIN
 90
        0
 91
        1
 62
     0
 92
       -2
340
14
 93
        0
 40
0.045
309
GRIDFORMAT_END
 95
       16
302
GRIDFORMAT
  1
GRIDFORMAT_BEGIN
 90
        0
 91
        1
 62
     0
 92
       -2
340
14
 93
        0
 40
0.045
309
GRIDFORMAT_END
 95
       32
302
GRIDFORMAT
  1
GRIDFORMAT_BEGIN
 90
        0
 91
        1
 62
     0
 92
       -2
340
14
 93
        0
 40
0.045
309
GRIDFORMAT_END
309
TABLEFORMAT_END
  1
CELLSTYLE_BEGIN
 90
        3
 91
        2
300
_DATA
309
CELLSTYLE_END
  0
XRECORD
  5
112
102
{ACAD_REACTORS
330
111
102
}
330
111
100
AcDbXrecord
280
     1
102
RTVSPost2010Prop28
280
     1
102
RTVSPost2010PropOp28
 70
     1
102
RTVSPost2010Prop29
280
     1
102
RTVSPost2010PropOp29
 70
     1
102
RTVSPost2010Prop30
280
     0
102
RTVSPost2010PropOp30
 70
     1
102
RTVSPost2010Prop31
280
     0
102
RTVSPost2010PropOp31
 70
     1
102
RTVSPost2010Prop32
280
     0
102
RTVSPost2010PropOp32
 70
     1
102
RTVSPost2010Prop33
280
     0
102
RTVSPost2010PropOp33
 70
     1
102
RTVSPost2010Prop34
280
     0
102
RTVSPost2010PropOp34
 70
     1
102
RTVSPost2010Prop35
280
     0
102
RTVSPost2010PropOp35
 70
     1
102
RTVSPost2010Prop36
280
     0
102
RTVSPost2010PropOp36
 70
     1
102
RTVSPost2010Prop37
 90
       50
102
RTVSPost2010PropOp37
 70
     1
102
RTVSPost2010Prop38
140
0.0
102
RTVSPost2010PropOp38
 70
     1
102
RTVSPost2010Prop39
140
1.0
102
RTVSPost2010PropOp39
 70
     1
102
RTVSPost2010Prop40
 90
        0
102
RTVSPost2010PropOp40
 70
     1
102
RTVSPost2010Prop41ColorIndex
 90
       18
102
RTVSPost2010Prop41ColorRGB
 90
        0
102
RTVSPost2010PropOp41
 70
     1
102
RTVSPost2010Prop42
 90
       50
102
RTVSPost2010PropOp42
 70
     1
102
RTVSPost2010Prop43
 90
        3
102
RTVSPost2010PropOp43
 70
     1
102
RTVSPost2010Prop44ColorIndex
 90
        5
102
RTVSPost2010Prop44ColorRGB
 90
      255
102
RTVSPost2010PropOp44
 70
     1
102
RTVSPost2010Prop45
280
     0
102
RTVSPost2010PropOp45
 70
     1
102
RTVSPost2010Prop46
 90
       50
102
RTVSPost2010PropOp46
 70
     1
102
RTVSPost2010Prop47
 90
       50
102
RTVSPost2010PropOp47
 70
     1
102
RTVSPost2010Prop48
 90
       50
102
RTVSPost2010PropOp48
 70
     1
102
RTVSPost2010Prop49
280
     0
102
RTVSPost2010PropOp49
 70
     1
102
RTVSPost2010Prop50
 90
       50
102
RTVSPost2010PropOp50
 70
     1
102
RTVSPost2010Prop51ColorIndex
 90
      256
102
RTVSPost2010Prop51ColorRGB
 90
-16777216
102
RTVSPost2010PropOp51
 70
     0
102
RTVSPost2010Prop52
140
1.0
102
RTVSPost2010PropOp52
 70
     0
102
RTVSPost2010Prop53
 90
        2
102
RTVSPost2010PropOp53
 70
     1
102
RTVSPost2010Prop54
  1
strokes_ogs.tif
102
RTVSPost2010PropOp54
 70
     1
102
RTVSPost2010Prop55
280
     0
102
RTVSPost2010PropOp55
 70
     1
102
RTVSPost2010Prop56
140
1.0
102
RTVSPost2010PropOp56
 70
     1
102
RTVSPost2010Prop57
140
1.0
102
RTVSPost2010PropOp57
 70
     1
  0
XRECORD
  5
118
102
{ACAD_REACTORS
330
117
102
}
330
117
100
AcDbXrecord
280
     1
102
RTVSPost2010Prop28
280
     0
102
RTVSPost2010PropOp28
 70
     1
102
RTVSPost2010Prop29
280
     1
102
RTVSPost2010PropOp29
 70
     1
102
RTVSPost2010Prop30
280
     1
102
RTVSPost2010PropOp30
 70
     1
102
RTVSPost2010Prop31
280
     0
102
RTVSPost2010PropOp31
 70
     1
102
RTVSPost2010Prop32
280
     0
102
RTVSPost2010PropOp32
 70
     1
102
RTVSPost2010Prop33
280
     0
102
RTVSPost2010PropOp33
 70
     1
102
RTVSPost2010Prop34
280
     0
102
RTVSPost2010PropOp34
 70
     1
102
RTVSPost2010Prop35
280
     0
102
RTVSPost2010PropOp35
 70
     1
102
RTVSPost2010Prop36
280
     0
102
RTVSPost2010PropOp36
 70
     1
102
RTVSPost2010Prop37
 90
       50
102
RTVSPost2010PropOp37
 70
     1
102
RTVSPost2010Prop38
140
0.0
102
RTVSPost2010PropOp38
 70
     1
102
RTVSPost2010Prop39
140
1.0
102
RTVSPost2010PropOp39
 70
     1
102
RTVSPost2010Prop40
 90
        0
102
RTVSPost2010PropOp40
 70
     1
102
RTVSPost2010Prop41ColorIndex
 90
       18
102
RTVSPost2010Prop41ColorRGB
 90
        0
102
RTVSPost2010PropOp41
 70
     1
102
RTVSPost2010Prop42
 90
       50
102
RTVSPost2010PropOp42
 70
     1
102
RTVSPost2010Prop43
 90
        3
102
RTVSPost2010PropOp43
 70
     1
102
RTVSPost2010Prop44ColorIndex
 90
        5
102
RTVSPost2010Prop44ColorRGB
 90
      255
102
RTVSPost2010PropOp44
 70
     1
102
RTVSPost2010Prop45
280
     0
102
RTVSPost2010PropOp45
 70
     1
102
RTVSPost2010Prop46
 90
       50
102
RTVSPost2010PropOp46
 70
     1
102
RTVSPost2010Prop47
 90
       50
102
RTVSPost2010PropOp47
 70
     1
102
RTVSPost2010Prop48
 90
       50
102
RTVSPost2010PropOp48
 70
     1
102
RTVSPost2010Prop49
280
     0
102
RTVSPost2010PropOp49
 70
     1
102
RTVSPost2010Prop50
 90
       50
102
RTVSPost2010PropOp50
 70
     1
102
RTVSPost2010Prop51ColorIndex
 90
      256
102
RTVSPost2010Prop51ColorRGB
 90
-16777216
102
RTVSPost2010PropOp51
 70
     0
102
RTVSPost2010Prop52
140
1.0
102
RTVSPost2010PropOp52
 70
     0
102
RTVSPost2010Prop53
 90
        2
102
RTVSPost2010PropOp53
 70
     1
102
RTVSPost2010Prop54
  1
strokes_ogs.tif
102
RTVSPost2010PropOp54
 70
     1
102
RTVSPost2010Prop55
280
     0
102
RTVSPost2010PropOp55
 70
     1
102
RTVSPost2010Prop56
140
1.0
102
RTVSPost2010PropOp56
 70
     1
102
RTVSPost2010Prop57
140
1.0
102
RTVSPost2010PropOp57
 70
     1
  0
XRECORD
  5
120
102
{ACAD_REACTORS
330
11F
102
}
330
11F
100
AcDbXrecord
280
     1
102
RTVSPost2010Prop28
280
     0
102
RTVSPost2010PropOp28
 70
     1
102
RTVSPost2010Prop29
280
     1
102
RTVSPost2010PropOp29
 70
     1
102
RTVSPost2010Prop30
280
     1
102
RTVSPost2010PropOp30
 70
     1
102
RTVSPost2010Prop31
280
     0
102
RTVSPost2010PropOp31
 70
     1
102
RTVSPost2010Prop32
280
     0
102
RTVSPost2010PropOp32
 70
     1
102
RTVSPost2010Prop33
280
     0
102
RTVSPost2010PropOp33
 70
     1
102
RTVSPost2010Prop34
280
     0
102
RTVSPost2010PropOp34
 70
     1
102
RTVSPost2010Prop35
280
     0
102
RTVSPost2010PropOp35
 70
     1
102
RTVSPost2010Prop36
280
     0
102
RTVSPost2010PropOp36
 70
     1
102
RTVSPost2010Prop37
 90
       50
102
RTVSPost2010PropOp37
 70
     1
102
RTVSPost2010Prop38
140
0.0
102
RTVSPost2010PropOp38
 70
     1
102
RTVSPost2010Prop39
140
1.0
102
RTVSPost2010PropOp39
 70
     1
102
RTVSPost2010Prop40
 90
        0
102
RTVSPost2010PropOp40
 70
     1
102
RTVSPost2010Prop41ColorIndex
 90
       18
102
RTVSPost2010Prop41ColorRGB
 90
        0
102
RTVSPost2010PropOp41
 70
     1
102
RTVSPost2010Prop42
 90
       50
102
RTVSPost2010PropOp42
 70
     1
102
RTVSPost2010Prop43
 90
        3
102
RTVSPost2010PropOp43
 70
     1
102
RTVSPost2010Prop44ColorIndex
 90
        5
102
RTVSPost2010Prop44ColorRGB
 90
      255
102
RTVSPost2010PropOp44
 70
     1
102
RTVSPost2010Prop45
280
     0
102
RTVSPost2010PropOp45
 70
     1
102
RTVSPost2010Prop46
 90
       50
102
RTVSPost2010PropOp46
 70
     1
102
RTVSPost2010Prop47
 90
       50
102
RTVSPost2010PropOp47
 70
     1
102
RTVSPost2010Prop48
 90
       50
102
RTVSPost2010PropOp48
 70
     1
102
RTVSPost2010Prop49
280
     0
102
RTVSPost2010PropOp49
 70
     1
102
RTVSPost2010Prop50
 90
       50
102
RTVSPost2010PropOp50
 70
     1
102
RTVSPost2010Prop51ColorIndex
 90
      256
102
RTVSPost2010Prop51ColorRGB
 90
-16777216
102
RTVSPost2010PropOp51
 70
     0
102
RTVSPost2010Prop52
140
1.0
102
RTVSPost2010PropOp52
 70
     0
102
RTVSPost2010Prop53
 90
        2
102
RTVSPost2010PropOp53
 70
     1
102
RTVSPost2010Prop54
  1
strokes_ogs.tif
102
RTVSPost2010PropOp54
 70
     1
102
RTVSPost2010Prop55
280
     0
102
RTVSPost2010PropOp55
 70
     1
102
RTVSPost2010Prop56
140
1.0
102
RTVSPost2010PropOp56
 70
     1
102
RTVSPost2010Prop57
140
1.0
102
RTVSPost2010PropOp57
 70
     1
  0
XRECORD
  5
128
102
{ACAD_REACTORS
330
127
102
}
330
127
100
AcDbXrecord
280
     1
102
RTVSPost2010Prop28
280
     0
102
RTVSPost2010PropOp28
 70
     1
102
RTVSPost2010Prop29
280
     1
102
RTVSPost2010PropOp29
 70
     1
102
RTVSPost2010Prop30
280
     1
102
RTVSPost2010PropOp30
 70
     1
102
RTVSPost2010Prop31
280
     0
102
RTVSPost2010PropOp31
 70
     1
102
RTVSPost2010Prop32
280
     0
102
RTVSPost2010PropOp32
 70
     1
102
RTVSPost2010Prop33
280
     0
102
RTVSPost2010PropOp33
 70
     1
102
RTVSPost2010Prop34
280
     0
102
RTVSPost2010PropOp34
 70
     1
102
RTVSPost2010Prop35
280
     0
102
RTVSPost2010PropOp35
 70
     1
102
RTVSPost2010Prop36
280
     0
102
RTVSPost2010PropOp36
 70
     1
102
RTVSPost2010Prop37
 90
       50
102
RTVSPost2010PropOp37
 70
     1
102
RTVSPost2010Prop38
140
0.0
102
RTVSPost2010PropOp38
 70
     1
102
RTVSPost2010Prop39
140
1.0
102
RTVSPost2010PropOp39
 70
     1
102
RTVSPost2010Prop40
 90
        0
102
RTVSPost2010PropOp40
 70
     1
102
RTVSPost2010Prop41ColorIndex
 90
       18
102
RTVSPost2010Prop41ColorRGB
 90
        0
102
RTVSPost2010PropOp41
 70
     1
102
RTVSPost2010Prop42
 90
       50
102
RTVSPost2010PropOp42
 70
     1
102
RTVSPost2010Prop43
 90
        3
102
RTVSPost2010PropOp43
 70
     1
102
RTVSPost2010Prop44ColorIndex
 90
        5
102
RTVSPost2010Prop44ColorRGB
 90
      255
102
RTVSPost2010PropOp44
 70
     1
102
RTVSPost2010Prop45
280
     0
102
RTVSPost2010PropOp45
 70
     1
102
RTVSPost2010Prop46
 90
       50
102
RTVSPost2010PropOp46
 70
     1
102
RTVSPost2010Prop47
 90
       50
102
RTVSPost2010PropOp47
 70
     1
102
RTVSPost2010Prop48
 90
       50
102
RTVSPost2010PropOp48
 70
     1
102
RTVSPost2010Prop49
280
     0
102
RTVSPost2010PropOp49
 70
     1
102
RTVSPost2010Prop50
 90
       50
102
RTVSPost2010PropOp50
 70
     1
102
RTVSPost2010Prop51ColorIndex
 90
      256
102
RTVSPost2010Prop51ColorRGB
 90
-16777216
102
RTVSPost2010PropOp51
 70
     0
102
RTVSPost2010Prop52
140
1.0
102
RTVSPost2010PropOp52
 70
     0
102
RTVSPost2010Prop53
 90
        2
102
RTVSPost2010PropOp53
 70
     1
102
RTVSPost2010Prop54
  1
strokes_ogs.tif
102
RTVSPost2010PropOp54
 70
     1
102
RTVSPost2010Prop55
280
     0
102
RTVSPost2010PropOp55
 70
     1
102
RTVSPost2010Prop56
140
1.0
102
RTVSPost2010PropOp56
 70
     1
102
RTVSPost2010Prop57
140
1.0
102
RTVSPost2010PropOp57
 70
     1
  0
XRECORD
  5
11C
102
{ACAD_REACTORS
330
11B
102
}
330
11B
100
AcDbXrecord
280
     1
102
RTVSPost2010Prop28
280
     0
102
RTVSPost2010PropOp28
 70
     1
102
RTVSPost2010Prop29
280
     1
102
RTVSPost2010PropOp29
 70
     1
102
RTVSPost2010Prop30
280
     1
102
RTVSPost2010PropOp30
 70
     1
102
RTVSPost2010Prop31
280
     0
102
RTVSPost2010PropOp31
 70
     1
102
RTVSPost2010Prop32
280
     0
102
RTVSPost2010PropOp32
 70
     1
102
RTVSPost2010Prop33
280
     0
102
RTVSPost2010PropOp33
 70
     1
102
RTVSPost2010Prop34
280
     0
102
RTVSPost2010PropOp34
 70
     1
102
RTVSPost2010Prop35
280
     0
102
RTVSPost2010PropOp35
 70
     1
102
RTVSPost2010Prop36
280
     0
102
RTVSPost2010PropOp36
 70
     1
102
RTVSPost2010Prop37
 90
       50
102
RTVSPost2010PropOp37
 70
     1
102
RTVSPost2010Prop38
140
0.0
102
RTVSPost2010PropOp38
 70
     1
102
RTVSPost2010Prop39
140
1.0
102
RTVSPost2010PropOp39
 70
     1
102
RTVSPost2010Prop40
 90
        0
102
RTVSPost2010PropOp40
 70
     1
102
RTVSPost2010Prop41ColorIndex
 90
       18
102
RTVSPost2010Prop41ColorRGB
 90
        0
102
RTVSPost2010PropOp41
 70
     1
102
RTVSPost2010Prop42
 90
       50
102
RTVSPost2010PropOp42
 70
     1
102
RTVSPost2010Prop43
 90
        3
102
RTVSPost2010PropOp43
 70
     1
102
RTVSPost2010Prop44ColorIndex
 90
        5
102
RTVSPost2010Prop44ColorRGB
 90
      255
102
RTVSPost2010PropOp44
 70
     1
102
RTVSPost2010Prop45
280
     0
102
RTVSPost2010PropOp45
 70
     1
102
RTVSPost2010Prop46
 90
       50
102
RTVSPost2010PropOp46
 70
     1
102
RTVSPost2010Prop47
 90
       50
102
RTVSPost2010PropOp47
 70
     1
102
RTVSPost2010Prop48
 90
       50
102
RTVSPost2010PropOp48
 70
     1
102
RTVSPost2010Prop49
280
     0
102
RTVSPost2010PropOp49
 70
     1
102
RTVSPost2010Prop50
 90
       50
102
RTVSPost2010PropOp50
 70
     1
102
RTVSPost2010Prop51ColorIndex
 90
      256
102
RTVSPost2010Prop51ColorRGB
 90
-16777216
102
RTVSPost2010PropOp51
 70
     0
102
RTVSPost2010Prop52
140
1.0
102
RTVSPost2010PropOp52
 70
     0
102
RTVSPost2010Prop53
 90
        2
102
RTVSPost2010PropOp53
 70
     1
102
RTVSPost2010Prop54
  1
strokes_ogs.tif
102
RTVSPost2010PropOp54
 70
     1
102
RTVSPost2010Prop55
280
     0
102
RTVSPost2010PropOp55
 70
     1
102
RTVSPost2010Prop56
140
1.0
102
RTVSPost2010PropOp56
 70
     1
102
RTVSPost2010Prop57
140
1.0
102
RTVSPost2010PropOp57
 70
     1
  0
XRECORD
  5
11E
102
{ACAD_REACTORS
330
11D
102
}
330
11D
100
AcDbXrecord
280
     1
102
RTVSPost2010Prop28
280
     0
102
RTVSPost2010PropOp28
 70
     1
102
RTVSPost2010Prop29
280
     1
102
RTVSPost2010PropOp29
 70
     1
102
RTVSPost2010Prop30
280
     1
102
RTVSPost2010PropOp30
 70
     1
102
RTVSPost2010Prop31
280
     0
102
RTVSPost2010PropOp31
 70
     1
102
RTVSPost2010Prop32
280
     0
102
RTVSPost2010PropOp32
 70
     1
102
RTVSPost2010Prop33
280
     0
102
RTVSPost2010PropOp33
 70
     1
102
RTVSPost2010Prop34
280
     0
102
RTVSPost2010PropOp34
 70
     1
102
RTVSPost2010Prop35
280
     0
102
RTVSPost2010PropOp35
 70
     1
102
RTVSPost2010Prop36
280
     0
102
RTVSPost2010PropOp36
 70
     1
102
RTVSPost2010Prop37
 90
       50
102
RTVSPost2010PropOp37
 70
     1
102
RTVSPost2010Prop38
140
0.0
102
RTVSPost2010PropOp38
 70
     1
102
RTVSPost2010Prop39
140
1.0
102
RTVSPost2010PropOp39
 70
     1
102
RTVSPost2010Prop40
 90
        0
102
RTVSPost2010PropOp40
 70
     1
102
RTVSPost2010Prop41ColorIndex
 90
       18
102
RTVSPost2010Prop41ColorRGB
 90
        0
102
RTVSPost2010PropOp41
 70
     1
102
RTVSPost2010Prop42
 90
       50
102
RTVSPost2010PropOp42
 70
     1
102
RTVSPost2010Prop43
 90
        3
102
RTVSPost2010PropOp43
 70
     1
102
RTVSPost2010Prop44ColorIndex
 90
        5
102
RTVSPost2010Prop44ColorRGB
 90
      255
102
RTVSPost2010PropOp44
 70
     1
102
RTVSPost2010Prop45
280
     0
102
RTVSPost2010PropOp45
 70
     1
102
RTVSPost2010Prop46
 90
       50
102
RTVSPost2010PropOp46
 70
     1
102
RTVSPost2010Prop47
 90
       50
102
RTVSPost2010PropOp47
 70
     1
102
RTVSPost2010Prop48
 90
       50
102
RTVSPost2010PropOp48
 70
     1
102
RTVSPost2010Prop49
280
     0
102
RTVSPost2010PropOp49
 70
     1
102
RTVSPost2010Prop50
 90
       50
102
RTVSPost2010PropOp50
 70
     1
102
RTVSPost2010Prop51ColorIndex
 90
      256
102
RTVSPost2010Prop51ColorRGB
 90
-16777216
102
RTVSPost2010PropOp51
 70
     0
102
RTVSPost2010Prop52
140
1.0
102
RTVSPost2010PropOp52
 70
     0
102
RTVSPost2010Prop53
 90
        2
102
RTVSPost2010PropOp53
 70
     1
102
RTVSPost2010Prop54
  1
strokes_ogs.tif
102
RTVSPost2010PropOp54
 70
     1
102
RTVSPost2010Prop55
280
     0
102
RTVSPost2010PropOp55
 70
     1
102
RTVSPost2010Prop56
140
1.0
102
RTVSPost2010PropOp56
 70
     1
102
RTVSPost2010Prop57
140
1.0
102
RTVSPost2010PropOp57
 70
     1
  0
XRECORD
  5
12E
102
{ACAD_REACTORS
330
12D
102
}
330
12D
100
AcDbXrecord
280
     1
102
RTVSPost2010Prop28
280
     0
102
RTVSPost2010PropOp28
 70
     0
102
RTVSPost2010Prop29
280
     1
102
RTVSPost2010PropOp29
 70
     0
102
RTVSPost2010Prop30
280
     1
102
RTVSPost2010PropOp30
 70
     0
102
RTVSPost2010Prop31
280
     0
102
RTVSPost2010PropOp31
 70
     0
102
RTVSPost2010Prop32
280
     0
102
RTVSPost2010PropOp32
 70
     0
102
RTVSPost2010Prop33
280
     0
102
RTVSPost2010PropOp33
 70
     0
102
RTVSPost2010Prop34
280
     0
102
RTVSPost2010PropOp34
 70
     0
102
RTVSPost2010Prop35
280
     0
102
RTVSPost2010PropOp35
 70
     0
102
RTVSPost2010Prop36
280
     0
102
RTVSPost2010PropOp36
 70
     0
102
RTVSPost2010Prop37
 90
       50
102
RTVSPost2010PropOp37
 70
     0
102
RTVSPost2010Prop38
140
0.0
102
RTVSPost2010PropOp38
 70
     0
102
RTVSPost2010Prop39
140
1.0
102
RTVSPost2010PropOp39
 70
     0
102
RTVSPost2010Prop40
 90
        0
102
RTVSPost2010PropOp40
 70
     0
102
RTVSPost2010Prop41ColorIndex
 90
       18
102
RTVSPost2010Prop41ColorRGB
 90
        0
102
RTVSPost2010PropOp41
 70
     0
102
RTVSPost2010Prop42
 90
       50
102
RTVSPost2010PropOp42
 70
     0
102
RTVSPost2010Prop43
 90
        3
102
RTVSPost2010PropOp43
 70
     0
102
RTVSPost2010Prop44ColorIndex
 90
        5
102
RTVSPost2010Prop44ColorRGB
 90
      255
102
RTVSPost2010PropOp44
 70
     0
102
RTVSPost2010Prop45
280
     0
102
RTVSPost2010PropOp45
 70
     0
102
RTVSPost2010Prop46
 90
       50
102
RTVSPost2010PropOp46
 70
     0
102
RTVSPost2010Prop47
 90
       50
102
RTVSPost2010PropOp47
 70
     0
102
RTVSPost2010Prop48
 90
       50
102
RTVSPost2010PropOp48
 70
     0
102
RTVSPost2010Prop49
280
     0
102
RTVSPost2010PropOp49
 70
     0
102
RTVSPost2010Prop50
 90
       50
102
RTVSPost2010PropOp50
 70
     0
102
RTVSPost2010Prop51ColorIndex
 90
      256
102
RTVSPost2010Prop51ColorRGB
 90
-16777216
102
RTVSPost2010PropOp51
 70
     0
102
RTVSPost2010Prop52
140
1.0
102
RTVSPost2010PropOp52
 70
     0
102
RTVSPost2010Prop53
 90
        2
102
RTVSPost2010PropOp53
 70
     0
102
RTVSPost2010Prop54
  1
strokes_ogs.tif
102
RTVSPost2010PropOp54
 70
     0
102
RTVSPost2010Prop55
280
     0
102
RTVSPost2010PropOp55
 70
     0
102
RTVSPost2010Prop56
140
1.0
102
RTVSPost2010PropOp56
 70
     0
102
RTVSPost2010Prop57
140
1.0
102
RTVSPost2010PropOp57
 70
     0
  0
XRECORD
  5
126
102
{ACAD_REACTORS
330
125
102
}
330
125
100
AcDbXrecord
280
     1
102
RTVSPost2010Prop28
280
     0
102
RTVSPost2010PropOp28
 70
     1
102
RTVSPost2010Prop29
280
     1
102
RTVSPost2010PropOp29
 70
     1
102
RTVSPost2010Prop30
280
     1
102
RTVSPost2010PropOp30
 70
     1
102
RTVSPost2010Prop31
280
     0
102
RTVSPost2010PropOp31
 70
     1
102
RTVSPost2010Prop32
280
     0
102
RTVSPost2010PropOp32
 70
     1
102
RTVSPost2010Prop33
280
     0
102
RTVSPost2010PropOp33
 70
     1
102
RTVSPost2010Prop34
280
     0
102
RTVSPost2010PropOp34
 70
     1
102
RTVSPost2010Prop35
280
     0
102
RTVSPost2010PropOp35
 70
     1
102
RTVSPost2010Prop36
280
     0
102
RTVSPost2010PropOp36
 70
     1
102
RTVSPost2010Prop37
 90
       50
102
RTVSPost2010PropOp37
 70
     1
102
RTVSPost2010Prop38
140
0.0
102
RTVSPost2010PropOp38
 70
     1
102
RTVSPost2010Prop39
140
1.0
102
RTVSPost2010PropOp39
 70
     1
102
RTVSPost2010Prop40
 90
        0
102
RTVSPost2010PropOp40
 70
     1
102
RTVSPost2010Prop41ColorIndex
 90
       18
102
RTVSPost2010Prop41ColorRGB
 90
        0
102
RTVSPost2010PropOp41
 70
     1
102
RTVSPost2010Prop42
 90
       50
102
RTVSPost2010PropOp42
 70
     1
102
RTVSPost2010Prop43
 90
        3
102
RTVSPost2010PropOp43
 70
     1
102
RTVSPost2010Prop44ColorIndex
 90
        5
102
RTVSPost2010Prop44ColorRGB
 90
      255
102
RTVSPost2010PropOp44
 70
     1
102
RTVSPost2010Prop45
280
     0
102
RTVSPost2010PropOp45
 70
     1
102
RTVSPost2010Prop46
 90
       50
102
RTVSPost2010PropOp46
 70
     1
102
RTVSPost2010Prop47
 90
       50
102
RTVSPost2010PropOp47
 70
     1
102
RTVSPost2010Prop48
 90
       50
102
RTVSPost2010PropOp48
 70
     1
102
RTVSPost2010Prop49
280
     0
102
RTVSPost2010PropOp49
 70
     1
102
RTVSPost2010Prop50
 90
       50
102
RTVSPost2010PropOp50
 70
     1
102
RTVSPost2010Prop51ColorIndex
 90
      256
102
RTVSPost2010Prop51ColorRGB
 90
-16777216
102
RTVSPost2010PropOp51
 70
     0
102
RTVSPost2010Prop52
140
1.0
102
RTVSPost2010PropOp52
 70
     0
102
RTVSPost2010Prop53
 90
        2
102
RTVSPost2010PropOp53
 70
     1
102
RTVSPost2010Prop54
  1
strokes_ogs.tif
102
RTVSPost2010PropOp54
 70
     1
102
RTVSPost2010Prop55
280
     0
102
RTVSPost2010PropOp55
 70
     1
102
RTVSPost2010Prop56
140
1.0
102
RTVSPost2010PropOp56
 70
     1
102
RTVSPost2010Prop57
140
1.0
102
RTVSPost2010PropOp57
 70
     1
  0
XRECORD
  5
10A
102
{ACAD_REACTORS
330
109
102
}
330
109
100
AcDbXrecord
280
     1
102
RTVSPost2010Prop28
280
     0
102
RTVSPost2010PropOp28
 70
     1
102
RTVSPost2010Prop29
280
     1
102
RTVSPost2010PropOp29
 70
     1
102
RTVSPost2010Prop30
280
     1
102
RTVSPost2010PropOp30
 70
     1
102
RTVSPost2010Prop31
280
     0
102
RTVSPost2010PropOp31
 70
     1
102
RTVSPost2010Prop32
280
     0
102
RTVSPost2010PropOp32
 70
     1
102
RTVSPost2010Prop33
280
     0
102
RTVSPost2010PropOp33
 70
     1
102
RTVSPost2010Prop34
280
     0
102
RTVSPost2010PropOp34
 70
     1
102
RTVSPost2010Prop35
280
     0
102
RTVSPost2010PropOp35
 70
     1
102
RTVSPost2010Prop36
280
     0
102
RTVSPost2010PropOp36
 70
     1
102
RTVSPost2010Prop37
 90
       50
102
RTVSPost2010PropOp37
 70
     1
102
RTVSPost2010Prop38
140
0.0
102
RTVSPost2010PropOp38
 70
     1
102
RTVSPost2010Prop39
140
1.0
102
RTVSPost2010PropOp39
 70
     1
102
RTVSPost2010Prop40
 90
        0
102
RTVSPost2010PropOp40
 70
     1
102
RTVSPost2010Prop41ColorIndex
 90
       18
102
RTVSPost2010Prop41ColorRGB
 90
        0
102
RTVSPost2010PropOp41
 70
     1
102
RTVSPost2010Prop42
 90
       50
102
RTVSPost2010PropOp42
 70
     1
102
RTVSPost2010Prop43
 90
        3
102
RTVSPost2010PropOp43
 70
     1
102
RTVSPost2010Prop44ColorIndex
 90
        5
102
RTVSPost2010Prop44ColorRGB
 90
      255
102
RTVSPost2010PropOp44
 70
     1
102
RTVSPost2010Prop45
280
     0
102
RTVSPost2010PropOp45
 70
     1
102
RTVSPost2010Prop46
 90
       50
102
RTVSPost2010PropOp46
 70
     1
102
RTVSPost2010Prop47
 90
       50
102
RTVSPost2010PropOp47
 70
     1
102
RTVSPost2010Prop48
 90
       50
102
RTVSPost2010PropOp48
 70
     1
102
RTVSPost2010Prop49
280
     0
102
RTVSPost2010PropOp49
 70
     1
102
RTVSPost2010Prop50
 90
       50
102
RTVSPost2010PropOp50
 70
     1
102
RTVSPost2010Prop51ColorIndex
 90
      256
102
RTVSPost2010Prop51ColorRGB
 90
-16777216
102
RTVSPost2010PropOp51
 70
     0
102
RTVSPost2010Prop52
140
1.0
102
RTVSPost2010PropOp52
 70
     0
102
RTVSPost2010Prop53
 90
        2
102
RTVSPost2010PropOp53
 70
     1
102
RTVSPost2010Prop54
  1
strokes_ogs.tif
102
RTVSPost2010PropOp54
 70
     1
102
RTVSPost2010Prop55
280
     0
102
RTVSPost2010PropOp55
 70
     1
102
RTVSPost2010Prop56
140
1.0
102
RTVSPost2010PropOp56
 70
     1
102
RTVSPost2010Prop57
140
1.0
102
RTVSPost2010PropOp57
 70
     1
  0
XRECORD
  5
10C
102
{ACAD_REACTORS
330
10B
102
}
330
10B
100
AcDbXrecord
280
     1
102
RTVSPost2010Prop28
280
     0
102
RTVSPost2010PropOp28
 70
     1
102
RTVSPost2010Prop29
280
     1
102
RTVSPost2010PropOp29
 70
     1
102
RTVSPost2010Prop30
280
     1
102
RTVSPost2010PropOp30
 70
     1
102
RTVSPost2010Prop31
280
     0
102
RTVSPost2010PropOp31
 70
     1
102
RTVSPost2010Prop32
280
     0
102
RTVSPost2010PropOp32
 70
     1
102
RTVSPost2010Prop33
280
     0
102
RTVSPost2010PropOp33
 70
     1
102
RTVSPost2010Prop34
280
     0
102
RTVSPost2010PropOp34
 70
     1
102
RTVSPost2010Prop35
280
     0
102
RTVSPost2010PropOp35
 70
     1
102
RTVSPost2010Prop36
280
     0
102
RTVSPost2010PropOp36
 70
     1
102
RTVSPost2010Prop37
 90
       50
102
RTVSPost2010PropOp37
 70
     1
102
RTVSPost2010Prop38
140
0.0
102
RTVSPost2010PropOp38
 70
     1
102
RTVSPost2010Prop39
140
1.0
102
RTVSPost2010PropOp39
 70
     1
102
RTVSPost2010Prop40
 90
        0
102
RTVSPost2010PropOp40
 70
     1
102
RTVSPost2010Prop41ColorIndex
 90
       18
102
RTVSPost2010Prop41ColorRGB
 90
        0
102
RTVSPost2010PropOp41
 70
     1
102
RTVSPost2010Prop42
 90
       50
102
RTVSPost2010PropOp42
 70
     1
102
RTVSPost2010Prop43
 90
        3
102
RTVSPost2010PropOp43
 70
     1
102
RTVSPost2010Prop44ColorIndex
 90
        5
102
RTVSPost2010Prop44ColorRGB
 90
      255
102
RTVSPost2010PropOp44
 70
     1
102
RTVSPost2010Prop45
280
     0
102
RTVSPost2010PropOp45
 70
     1
102
RTVSPost2010Prop46
 90
       50
102
RTVSPost2010PropOp46
 70
     1
102
RTVSPost2010Prop47
 90
       50
102
RTVSPost2010PropOp47
 70
     1
102
RTVSPost2010Prop48
 90
       50
102
RTVSPost2010PropOp48
 70
     1
102
RTVSPost2010Prop49
280
     0
102
RTVSPost2010PropOp49
 70
     1
102
RTVSPost2010Prop50
 90
       50
102
RTVSPost2010PropOp50
 70
     1
102
RTVSPost2010Prop51ColorIndex
 90
      256
102
RTVSPost2010Prop51ColorRGB
 90
-16777216
102
RTVSPost2010PropOp51
 70
     0
102
RTVSPost2010Prop52
140
1.0
102
RTVSPost2010PropOp52
 70
     0
102
RTVSPost2010Prop53
 90
        2
102
RTVSPost2010PropOp53
 70
     1
102
RTVSPost2010Prop54
  1
strokes_ogs.tif
102
RTVSPost2010PropOp54
 70
     1
102
RTVSPost2010Prop55
280
     0
102
RTVSPost2010PropOp55
 70
     1
102
RTVSPost2010Prop56
140
1.0
102
RTVSPost2010PropOp56
 70
     1
102
RTVSPost2010Prop57
140
1.0
102
RTVSPost2010PropOp57
 70
     1
  0
XRECORD
  5
10E
102
{ACAD_REACTORS
330
10D
102
}
330
10D
100
AcDbXrecord
280
     1
102
RTVSPost2010Prop28
280
     0
102
RTVSPost2010PropOp28
 70
     1
102
RTVSPost2010Prop29
280
     1
102
RTVSPost2010PropOp29
 70
     1
102
RTVSPost2010Prop30
280
     1
102
RTVSPost2010PropOp30
 70
     1
102
RTVSPost2010Prop31
280
     0
102
RTVSPost2010PropOp31
 70
     1
102
RTVSPost2010Prop32
280
     0
102
RTVSPost2010PropOp32
 70
     1
102
RTVSPost2010Prop33
280
     0
102
RTVSPost2010PropOp33
 70
     1
102
RTVSPost2010Prop34
280
     0
102
RTVSPost2010PropOp34
 70
     1
102
RTVSPost2010Prop35
280
     0
102
RTVSPost2010PropOp35
 70
     1
102
RTVSPost2010Prop36
280
     0
102
RTVSPost2010PropOp36
 70
     1
102
RTVSPost2010Prop37
 90
       50
102
RTVSPost2010PropOp37
 70
     1
102
RTVSPost2010Prop38
140
0.0
102
RTVSPost2010PropOp38
 70
     1
102
RTVSPost2010Prop39
140
1.0
102
RTVSPost2010PropOp39
 70
     1
102
RTVSPost2010Prop40
 90
        0
102
RTVSPost2010PropOp40
 70
     1
102
RTVSPost2010Prop41ColorIndex
 90
       18
102
RTVSPost2010Prop41ColorRGB
 90
        0
102
RTVSPost2010PropOp41
 70
     1
102
RTVSPost2010Prop42
 90
       50
102
RTVSPost2010PropOp42
 70
     1
102
RTVSPost2010Prop43
 90
        3
102
RTVSPost2010PropOp43
 70
     1
102
RTVSPost2010Prop44ColorIndex
 90
        5
102
RTVSPost2010Prop44ColorRGB
 90
      255
102
RTVSPost2010PropOp44
 70
     1
102
RTVSPost2010Prop45
280
     0
102
RTVSPost2010PropOp45
 70
     1
102
RTVSPost2010Prop46
 90
       50
102
RTVSPost2010PropOp46
 70
     1
102
RTVSPost2010Prop47
 90
       50
102
RTVSPost2010PropOp47
 70
     1
102
RTVSPost2010Prop48
 90
       50
102
RTVSPost2010PropOp48
 70
     1
102
RTVSPost2010Prop49
280
     0
102
RTVSPost2010PropOp49
 70
     1
102
RTVSPost2010Prop50
 90
       50
102
RTVSPost2010PropOp50
 70
     1
102
RTVSPost2010Prop51ColorIndex
 90
      256
102
RTVSPost2010Prop51ColorRGB
 90
-16777216
102
RTVSPost2010PropOp51
 70
     0
102
RTVSPost2010Prop52
140
1.0
102
RTVSPost2010PropOp52
 70
     0
102
RTVSPost2010Prop53
 90
        2
102
RTVSPost2010PropOp53
 70
     1
102
RTVSPost2010Prop54
  1
strokes_ogs.tif
102
RTVSPost2010PropOp54
 70
     1
102
RTVSPost2010Prop55
280
     0
102
RTVSPost2010PropOp55
 70
     1
102
RTVSPost2010Prop56
140
1.0
102
RTVSPost2010PropOp56
 70
     1
102
RTVSPost2010Prop57
140
1.0
102
RTVSPost2010PropOp57
 70
     1
  0
XRECORD
  5
110
102
{ACAD_REACTORS
330
10F
102
}
330
10F
100
AcDbXrecord
280
     1
102
RTVSPost2010Prop28
280
     0
102
RTVSPost2010PropOp28
 70
     1
102
RTVSPost2010Prop29
280
     1
102
RTVSPost2010PropOp29
 70
     1
102
RTVSPost2010Prop30
280
     1
102
RTVSPost2010PropOp30
 70
     1
102
RTVSPost2010Prop31
280
     0
102
RTVSPost2010PropOp31
 70
     1
102
RTVSPost2010Prop32
280
     0
102
RTVSPost2010PropOp32
 70
     1
102
RTVSPost2010Prop33
280
     0
102
RTVSPost2010PropOp33
 70
     1
102
RTVSPost2010Prop34
280
     0
102
RTVSPost2010PropOp34
 70
     1
102
RTVSPost2010Prop35
280
     0
102
RTVSPost2010PropOp35
 70
     1
102
RTVSPost2010Prop36
280
     0
102
RTVSPost2010PropOp36
 70
     1
102
RTVSPost2010Prop37
 90
       50
102
RTVSPost2010PropOp37
 70
     1
102
RTVSPost2010Prop38
140
0.0
102
RTVSPost2010PropOp38
 70
     1
102
RTVSPost2010Prop39
140
1.0
102
RTVSPost2010PropOp39
 70
     1
102
RTVSPost2010Prop40
 90
        0
102
RTVSPost2010PropOp40
 70
     1
102
RTVSPost2010Prop41ColorIndex
 90
       18
102
RTVSPost2010Prop41ColorRGB
 90
        0
102
RTVSPost2010PropOp41
 70
     1
102
RTVSPost2010Prop42
 90
       50
102
RTVSPost2010PropOp42
 70
     1
102
RTVSPost2010Prop43
 90
        3
102
RTVSPost2010PropOp43
 70
     1
102
RTVSPost2010Prop44ColorIndex
 90
        5
102
RTVSPost2010Prop44ColorRGB
 90
      255
102
RTVSPost2010PropOp44
 70
     1
102
RTVSPost2010Prop45
280
     0
102
RTVSPost2010PropOp45
 70
     1
102
RTVSPost2010Prop46
 90
       50
102
RTVSPost2010PropOp46
 70
     1
102
RTVSPost2010Prop47
 90
       50
102
RTVSPost2010PropOp47
 70
     1
102
RTVSPost2010Prop48
 90
       50
102
RTVSPost2010PropOp48
 70
     1
102
RTVSPost2010Prop49
280
     0
102
RTVSPost2010PropOp49
 70
     1
102
RTVSPost2010Prop50
 90
       50
102
RTVSPost2010PropOp50
 70
     1
102
RTVSPost2010Prop51ColorIndex
 90
      256
102
RTVSPost2010Prop51ColorRGB
 90
-16777216
102
RTVSPost2010PropOp51
 70
     0
102
RTVSPost2010Prop52
140
1.0
102
RTVSPost2010PropOp52
 70
     0
102
RTVSPost2010Prop53
 90
        2
102
RTVSPost2010PropOp53
 70
     1
102
RTVSPost2010Prop54
  1
strokes_ogs.tif
102
RTVSPost2010PropOp54
 70
     1
102
RTVSPost2010Prop55
280
     0
102
RTVSPost2010PropOp55
 70
     1
102
RTVSPost2010Prop56
140
1.0
102
RTVSPost2010PropOp56
 70
     1
102
RTVSPost2010Prop57
140
1.0
102
RTVSPost2010PropOp57
 70
     1
  0
XRECORD
  5
116
102
{ACAD_REACTORS
330
115
102
}
330
115
100
AcDbXrecord
280
     1
102
RTVSPost2010Prop28
280
     0
102
RTVSPost2010PropOp28
 70
     1
102
RTVSPost2010Prop29
280
     1
102
RTVSPost2010PropOp29
 70
     1
102
RTVSPost2010Prop30
280
     1
102
RTVSPost2010PropOp30
 70
     1
102
RTVSPost2010Prop31
280
     0
102
RTVSPost2010PropOp31
 70
     1
102
RTVSPost2010Prop32
280
     0
102
RTVSPost2010PropOp32
 70
     1
102
RTVSPost2010Prop33
280
     0
102
RTVSPost2010PropOp33
 70
     1
102
RTVSPost2010Prop34
280
     0
102
RTVSPost2010PropOp34
 70
     1
102
RTVSPost2010Prop35
280
     0
102
RTVSPost2010PropOp35
 70
     1
102
RTVSPost2010Prop36
280
     0
102
RTVSPost2010PropOp36
 70
     1
102
RTVSPost2010Prop37
 90
       50
102
RTVSPost2010PropOp37
 70
     1
102
RTVSPost2010Prop38
140
0.0
102
RTVSPost2010PropOp38
 70
     1
102
RTVSPost2010Prop39
140
1.0
102
RTVSPost2010PropOp39
 70
     1
102
RTVSPost2010Prop40
 90
        0
102
RTVSPost2010PropOp40
 70
     1
102
RTVSPost2010Prop41ColorIndex
 90
       18
102
RTVSPost2010Prop41ColorRGB
 90
        0
102
RTVSPost2010PropOp41
 70
     1
102
RTVSPost2010Prop42
 90
       50
102
RTVSPost2010PropOp42
 70
     1
102
RTVSPost2010Prop43
 90
        3
102
RTVSPost2010PropOp43
 70
     1
102
RTVSPost2010Prop44ColorIndex
 90
        5
102
RTVSPost2010Prop44ColorRGB
 90
      255
102
RTVSPost2010PropOp44
 70
     1
102
RTVSPost2010Prop45
280
     0
102
RTVSPost2010PropOp45
 70
     1
102
RTVSPost2010Prop46
 90
       50
102
RTVSPost2010PropOp46
 70
     1
102
RTVSPost2010Prop47
 90
       50
102
RTVSPost2010PropOp47
 70
     1
102
RTVSPost2010Prop48
 90
       50
102
RTVSPost2010PropOp48
 70
     1
102
RTVSPost2010Prop49
280
     0
102
RTVSPost2010PropOp49
 70
     1
102
RTVSPost2010Prop50
 90
       50
102
RTVSPost2010PropOp50
 70
     1
102
RTVSPost2010Prop51ColorIndex
 90
      256
102
RTVSPost2010Prop51ColorRGB
 90
-16777216
102
RTVSPost2010PropOp51
 70
     0
102
RTVSPost2010Prop52
140
1.0
102
RTVSPost2010PropOp52
 70
     0
102
RTVSPost2010Prop53
 90
        2
102
RTVSPost2010PropOp53
 70
     1
102
RTVSPost2010Prop54
  1
strokes_ogs.tif
102
RTVSPost2010PropOp54
 70
     1
102
RTVSPost2010Prop55
280
     0
102
RTVSPost2010PropOp55
 70
     1
102
RTVSPost2010Prop56
140
1.0
102
RTVSPost2010PropOp56
 70
     1
102
RTVSPost2010Prop57
140
1.0
102
RTVSPost2010PropOp57
 70
     1
  0
XRECORD
  5
12A
102
{ACAD_REACTORS
330
129
102
}
330
129
100
AcDbXrecord
280
     1
102
RTVSPost2010Prop28
280
     0
102
RTVSPost2010PropOp28
 70
     0
102
RTVSPost2010Prop29
280
     1
102
RTVSPost2010PropOp29
 70
     0
102
RTVSPost2010Prop30
280
     1
102
RTVSPost2010PropOp30
 70
     0
102
RTVSPost2010Prop31
280
     0
102
RTVSPost2010PropOp31
 70
     0
102
RTVSPost2010Prop32
280
     0
102
RTVSPost2010PropOp32
 70
     0
102
RTVSPost2010Prop33
280
     0
102
RTVSPost2010PropOp33
 70
     0
102
RTVSPost2010Prop34
280
     0
102
RTVSPost2010PropOp34
 70
     0
102
RTVSPost2010Prop35
280
     0
102
RTVSPost2010PropOp35
 70
     0
102
RTVSPost2010Prop36
280
     0
102
RTVSPost2010PropOp36
 70
     0
102
RTVSPost2010Prop37
 90
       50
102
RTVSPost2010PropOp37
 70
     0
102
RTVSPost2010Prop38
140
0.0
102
RTVSPost2010PropOp38
 70
     0
102
RTVSPost2010Prop39
140
1.0
102
RTVSPost2010PropOp39
 70
     0
102
RTVSPost2010Prop40
 90
        0
102
RTVSPost2010PropOp40
 70
     0
102
RTVSPost2010Prop41ColorIndex
 90
       18
102
RTVSPost2010Prop41ColorRGB
 90
        0
102
RTVSPost2010PropOp41
 70
     0
102
RTVSPost2010Prop42
 90
       50
102
RTVSPost2010PropOp42
 70
     0
102
RTVSPost2010Prop43
 90
        3
102
RTVSPost2010PropOp43
 70
     0
102
RTVSPost2010Prop44ColorIndex
 90
        5
102
RTVSPost2010Prop44ColorRGB
 90
      255
102
RTVSPost2010PropOp44
 70
     0
102
RTVSPost2010Prop45
280
     0
102
RTVSPost2010PropOp45
 70
     0
102
RTVSPost2010Prop46
 90
       50
102
RTVSPost2010PropOp46
 70
     0
102
RTVSPost2010Prop47
 90
       50
102
RTVSPost2010PropOp47
 70
     0
102
RTVSPost2010Prop48
 90
       50
102
RTVSPost2010PropOp48
 70
     0
102
RTVSPost2010Prop49
280
     0
102
RTVSPost2010PropOp49
 70
     0
102
RTVSPost2010Prop50
 90
       50
102
RTVSPost2010PropOp50
 70
     0
102
RTVSPost2010Prop51ColorIndex
 90
      256
102
RTVSPost2010Prop51ColorRGB
 90
-16777216
102
RTVSPost2010PropOp51
 70
     0
102
RTVSPost2010Prop52
140
1.0
102
RTVSPost2010PropOp52
 70
     0
102
RTVSPost2010Prop53
 90
        2
102
RTVSPost2010PropOp53
 70
     0
102
RTVSPost2010Prop54
  1
strokes_ogs.tif
102
RTVSPost2010PropOp54
 70
     0
102
RTVSPost2010Prop55
280
     0
102
RTVSPost2010PropOp55
 70
     0
102
RTVSPost2010Prop56
140
1.0
102
RTVSPost2010PropOp56
 70
     0
102
RTVSPost2010Prop57
140
1.0
102
RTVSPost2010PropOp57
 70
     0
  0
XRECORD
  5
124
102
{ACAD_REACTORS
330
123
102
}
330
123
100
AcDbXrecord
280
     1
102
RTVSPost2010Prop28
280
     0
102
RTVSPost2010PropOp28
 70
     1
102
RTVSPost2010Prop29
280
     1
102
RTVSPost2010PropOp29
 70
     1
102
RTVSPost2010Prop30
280
     1
102
RTVSPost2010PropOp30
 70
     1
102
RTVSPost2010Prop31
280
     0
102
RTVSPost2010PropOp31
 70
     1
102
RTVSPost2010Prop32
280
     0
102
RTVSPost2010PropOp32
 70
     1
102
RTVSPost2010Prop33
280
     0
102
RTVSPost2010PropOp33
 70
     1
102
RTVSPost2010Prop34
280
     0
102
RTVSPost2010PropOp34
 70
     1
102
RTVSPost2010Prop35
280
     0
102
RTVSPost2010PropOp35
 70
     1
102
RTVSPost2010Prop36
280
     0
102
RTVSPost2010PropOp36
 70
     1
102
RTVSPost2010Prop37
 90
       50
102
RTVSPost2010PropOp37
 70
     1
102
RTVSPost2010Prop38
140
0.0
102
RTVSPost2010PropOp38
 70
     1
102
RTVSPost2010Prop39
140
1.0
102
RTVSPost2010PropOp39
 70
     1
102
RTVSPost2010Prop40
 90
        0
102
RTVSPost2010PropOp40
 70
     1
102
RTVSPost2010Prop41ColorIndex
 90
       18
102
RTVSPost2010Prop41ColorRGB
 90
        0
102
RTVSPost2010PropOp41
 70
     1
102
RTVSPost2010Prop42
 90
       50
102
RTVSPost2010PropOp42
 70
     1
102
RTVSPost2010Prop43
 90
        3
102
RTVSPost2010PropOp43
 70
     1
102
RTVSPost2010Prop44ColorIndex
 90
        5
102
RTVSPost2010Prop44ColorRGB
 90
      255
102
RTVSPost2010PropOp44
 70
     1
102
RTVSPost2010Prop45
280
     0
102
RTVSPost2010PropOp45
 70
     1
102
RTVSPost2010Prop46
 90
       50
102
RTVSPost2010PropOp46
 70
     1
102
RTVSPost2010Prop47
 90
       50
102
RTVSPost2010PropOp47
 70
     1
102
RTVSPost2010Prop48
 90
       50
102
RTVSPost2010PropOp48
 70
     1
102
RTVSPost2010Prop49
280
     0
102
RTVSPost2010PropOp49
 70
     1
102
RTVSPost2010Prop50
 90
       50
102
RTVSPost2010PropOp50
 70
     1
102
RTVSPost2010Prop51ColorIndex
 90
      256
102
RTVSPost2010Prop51ColorRGB
 90
-16777216
102
RTVSPost2010PropOp51
 70
     0
102
RTVSPost2010Prop52
140
1.0
102
RTVSPost2010PropOp52
 70
     0
102
RTVSPost2010Prop53
 90
        2
102
RTVSPost2010PropOp53
 70
     1
102
RTVSPost2010Prop54
  1
strokes_ogs.tif
102
RTVSPost2010PropOp54
 70
     1
102
RTVSPost2010Prop55
280
     0
102
RTVSPost2010PropOp55
 70
     1
102
RTVSPost2010Prop56
140
1.0
102
RTVSPost2010PropOp56
 70
     1
102
RTVSPost2010Prop57
140
1.0
102
RTVSPost2010PropOp57
 70
     1
  0
XRECORD
  5
12C
102
{ACAD_REACTORS
330
12B
102
}
330
12B
100
AcDbXrecord
280
     1
102
RTVSPost2010Prop28
280
     0
102
RTVSPost2010PropOp28
 70
     0
102
RTVSPost2010Prop29
280
     1
102
RTVSPost2010PropOp29
 70
     0
102
RTVSPost2010Prop30
280
     1
102
RTVSPost2010PropOp30
 70
     0
102
RTVSPost2010Prop31
280
     0
102
RTVSPost2010PropOp31
 70
     0
102
RTVSPost2010Prop32
280
     0
102
RTVSPost2010PropOp32
 70
     0
102
RTVSPost2010Prop33
280
     0
102
RTVSPost2010PropOp33
 70
     0
102
RTVSPost2010Prop34
280
     0
102
RTVSPost2010PropOp34
 70
     0
102
RTVSPost2010Prop35
280
     0
102
RTVSPost2010PropOp35
 70
     0
102
RTVSPost2010Prop36
280
     0
102
RTVSPost2010PropOp36
 70
     0
102
RTVSPost2010Prop37
 90
       50
102
RTVSPost2010PropOp37
 70
     0
102
RTVSPost2010Prop38
140
0.0
102
RTVSPost2010PropOp38
 70
     0
102
RTVSPost2010Prop39
140
1.0
102
RTVSPost2010PropOp39
 70
     0
102
RTVSPost2010Prop40
 90
        0
102
RTVSPost2010PropOp40
 70
     0
102
RTVSPost2010Prop41ColorIndex
 90
       18
102
RTVSPost2010Prop41ColorRGB
 90
        0
102
RTVSPost2010PropOp41
 70
     0
102
RTVSPost2010Prop42
 90
       50
102
RTVSPost2010PropOp42
 70
     0
102
RTVSPost2010Prop43
 90
        3
102
RTVSPost2010PropOp43
 70
     0
102
RTVSPost2010Prop44ColorIndex
 90
        5
102
RTVSPost2010Prop44ColorRGB
 90
      255
102
RTVSPost2010PropOp44
 70
     0
102
RTVSPost2010Prop45
280
     0
102
RTVSPost2010PropOp45
 70
     0
102
RTVSPost2010Prop46
 90
       50
102
RTVSPost2010PropOp46
 70
     0
102
RTVSPost2010Prop47
 90
       50
102
RTVSPost2010PropOp47
 70
     0
102
RTVSPost2010Prop48
 90
       50
102
RTVSPost2010PropOp48
 70
     0
102
RTVSPost2010Prop49
280
     0
102
RTVSPost2010PropOp49
 70
     0
102
RTVSPost2010Prop50
 90
       50
102
RTVSPost2010PropOp50
 70
     0
102
RTVSPost2010Prop51ColorIndex
 90
      256
102
RTVSPost2010Prop51ColorRGB
 90
-16777216
102
RTVSPost2010PropOp51
 70
     0
102
RTVSPost2010Prop52
140
1.0
102
RTVSPost2010PropOp52
 70
     0
102
RTVSPost2010Prop53
 90
        2
102
RTVSPost2010PropOp53
 70
     0
102
RTVSPost2010Prop54
  1
strokes_ogs.tif
102
RTVSPost2010PropOp54
 70
     0
102
RTVSPost2010Prop55
280
     0
102
RTVSPost2010PropOp55
 70
     0
102
RTVSPost2010Prop56
140
1.0
102
RTVSPost2010PropOp56
 70
     0
102
RTVSPost2010Prop57
140
1.0
102
RTVSPost2010PropOp57
 70
     0
  0
XRECORD
  5
11A
102
{ACAD_REACTORS
330
119
102
}
330
119
100
AcDbXrecord
280
     1
102
RTVSPost2010Prop28
280
     0
102
RTVSPost2010PropOp28
 70
     1
102
RTVSPost2010Prop29
280
     1
102
RTVSPost2010PropOp29
 70
     1
102
RTVSPost2010Prop30
280
     1
102
RTVSPost2010PropOp30
 70
     1
102
RTVSPost2010Prop31
280
     0
102
RTVSPost2010PropOp31
 70
     1
102
RTVSPost2010Prop32
280
     0
102
RTVSPost2010PropOp32
 70
     1
102
RTVSPost2010Prop33
280
     0
102
RTVSPost2010PropOp33
 70
     1
102
RTVSPost2010Prop34
280
     0
102
RTVSPost2010PropOp34
 70
     1
102
RTVSPost2010Prop35
280
     0
102
RTVSPost2010PropOp35
 70
     1
102
RTVSPost2010Prop36
280
     0
102
RTVSPost2010PropOp36
 70
     1
102
RTVSPost2010Prop37
 90
       50
102
RTVSPost2010PropOp37
 70
     1
102
RTVSPost2010Prop38
140
0.0
102
RTVSPost2010PropOp38
 70
     1
102
RTVSPost2010Prop39
140
1.0
102
RTVSPost2010PropOp39
 70
     1
102
RTVSPost2010Prop40
 90
        0
102
RTVSPost2010PropOp40
 70
     1
102
RTVSPost2010Prop41ColorIndex
 90
       18
102
RTVSPost2010Prop41ColorRGB
 90
        0
102
RTVSPost2010PropOp41
 70
     1
102
RTVSPost2010Prop42
 90
       50
102
RTVSPost2010PropOp42
 70
     1
102
RTVSPost2010Prop43
 90
        3
102
RTVSPost2010PropOp43
 70
     1
102
RTVSPost2010Prop44ColorIndex
 90
        5
102
RTVSPost2010Prop44ColorRGB
 90
      255
102
RTVSPost2010PropOp44
 70
     1
102
RTVSPost2010Prop45
280
     0
102
RTVSPost2010PropOp45
 70
     1
102
RTVSPost2010Prop46
 90
       50
102
RTVSPost2010PropOp46
 70
     1
102
RTVSPost2010Prop47
 90
       50
102
RTVSPost2010PropOp47
 70
     1
102
RTVSPost2010Prop48
 90
       50
102
RTVSPost2010PropOp48
 70
     1
102
RTVSPost2010Prop49
280
     0
102
RTVSPost2010PropOp49
 70
     1
102
RTVSPost2010Prop50
 90
       50
102
RTVSPost2010PropOp50
 70
     1
102
RTVSPost2010Prop51ColorIndex
 90
      256
102
RTVSPost2010Prop51ColorRGB
 90
-16777216
102
RTVSPost2010PropOp51
 70
     0
102
RTVSPost2010Prop52
140
1.0
102
RTVSPost2010PropOp52
 70
     0
102
RTVSPost2010Prop53
 90
        2
102
RTVSPost2010PropOp53
 70
     1
102
RTVSPost2010Prop54
  1
strokes_ogs.tif
102
RTVSPost2010PropOp54
 70
     1
102
RTVSPost2010Prop55
280
     0
102
RTVSPost2010PropOp55
 70
     1
102
RTVSPost2010Prop56
140
1.0
102
RTVSPost2010PropOp56
 70
     1
102
RTVSPost2010Prop57
140
1.0
102
RTVSPost2010PropOp57
 70
     1
  0
XRECORD
  5
138
102
{ACAD_REACTORS
330
137
102
}
330
137
100
AcDbXrecord
280
     1
102
RTVSPost2010Prop28
280
     0
102
RTVSPost2010PropOp28
 70
     1
102
RTVSPost2010Prop29
280
     1
102
RTVSPost2010PropOp29
 70
     1
102
RTVSPost2010Prop30
280
     1
102
RTVSPost2010PropOp30
 70
     1
102
RTVSPost2010Prop31
280
     0
102
RTVSPost2010PropOp31
 70
     1
102
RTVSPost2010Prop32
280
     0
102
RTVSPost2010PropOp32
 70
     1
102
RTVSPost2010Prop33
280
     0
102
RTVSPost2010PropOp33
 70
     1
102
RTVSPost2010Prop34
280
     0
102
RTVSPost2010PropOp34
 70
     1
102
RTVSPost2010Prop35
280
     0
102
RTVSPost2010PropOp35
 70
     1
102
RTVSPost2010Prop36
280
     0
102
RTVSPost2010PropOp36
 70
     1
102
RTVSPost2010Prop37
 90
       50
102
RTVSPost2010PropOp37
 70
     1
102
RTVSPost2010Prop38
140
0.0
102
RTVSPost2010PropOp38
 70
     1
102
RTVSPost2010Prop39
140
1.0
102
RTVSPost2010PropOp39
 70
     1
102
RTVSPost2010Prop40
 90
        0
102
RTVSPost2010PropOp40
 70
     1
102
RTVSPost2010Prop41ColorIndex
 90
       18
102
RTVSPost2010Prop41ColorRGB
 90
        0
102
RTVSPost2010PropOp41
 70
     1
102
RTVSPost2010Prop42
 90
       50
102
RTVSPost2010PropOp42
 70
     1
102
RTVSPost2010Prop43
 90
        3
102
RTVSPost2010PropOp43
 70
     1
102
RTVSPost2010Prop44ColorIndex
 90
        5
102
RTVSPost2010Prop44ColorRGB
 90
      255
102
RTVSPost2010PropOp44
 70
     1
102
RTVSPost2010Prop45
280
     0
102
RTVSPost2010PropOp45
 70
     1
102
RTVSPost2010Prop46
 90
       50
102
RTVSPost2010PropOp46
 70
     1
102
RTVSPost2010Prop47
 90
       50
102
RTVSPost2010PropOp47
 70
     1
102
RTVSPost2010Prop48
 90
       50
102
RTVSPost2010PropOp48
 70
     1
102
RTVSPost2010Prop49
280
     0
102
RTVSPost2010PropOp49
 70
     1
102
RTVSPost2010Prop50
 90
       50
102
RTVSPost2010PropOp50
 70
     1
102
RTVSPost2010Prop51ColorIndex
 90
      256
102
RTVSPost2010Prop51ColorRGB
 90
-16777216
102
RTVSPost2010PropOp51
 70
     0
102
RTVSPost2010Prop52
140
1.0
102
RTVSPost2010PropOp52
 70
     0
102
RTVSPost2010Prop53
 90
        2
102
RTVSPost2010PropOp53
 70
     1
102
RTVSPost2010Prop54
  1
strokes_ogs.tif
102
RTVSPost2010PropOp54
 70
     1
102
RTVSPost2010Prop55
280
     0
102
RTVSPost2010PropOp55
 70
     1
102
RTVSPost2010Prop56
140
1.0
102
RTVSPost2010PropOp56
 70
     1
102
RTVSPost2010Prop57
140
1.0
102
RTVSPost2010PropOp57
 70
     1
  0
XRECORD
  5
136
102
{ACAD_REACTORS
330
135
102
}
330
135
100
AcDbXrecord
280
     1
102
RTVSPost2010Prop28
280
     0
102
RTVSPost2010PropOp28
 70
     1
102
RTVSPost2010Prop29
280
     1
102
RTVSPost2010PropOp29
 70
     1
102
RTVSPost2010Prop30
280
     1
102
RTVSPost2010PropOp30
 70
     1
102
RTVSPost2010Prop31
280
     0
102
RTVSPost2010PropOp31
 70
     1
102
RTVSPost2010Prop32
280
     0
102
RTVSPost2010PropOp32
 70
     1
102
RTVSPost2010Prop33
280
     0
102
RTVSPost2010PropOp33
 70
     1
102
RTVSPost2010Prop34
280
     0
102
RTVSPost2010PropOp34
 70
     1
102
RTVSPost2010Prop35
280
     0
102
RTVSPost2010PropOp35
 70
     1
102
RTVSPost2010Prop36
280
     0
102
RTVSPost2010PropOp36
 70
     1
102
RTVSPost2010Prop37
 90
       50
102
RTVSPost2010PropOp37
 70
     1
102
RTVSPost2010Prop38
140
0.0
102
RTVSPost2010PropOp38
 70
     1
102
RTVSPost2010Prop39
140
1.0
102
RTVSPost2010PropOp39
 70
     1
102
RTVSPost2010Prop40
 90
        0
102
RTVSPost2010PropOp40
 70
     1
102
RTVSPost2010Prop41ColorIndex
 90
       18
102
RTVSPost2010Prop41ColorRGB
 90
        0
102
RTVSPost2010PropOp41
 70
     1
102
RTVSPost2010Prop42
 90
       50
102
RTVSPost2010PropOp42
 70
     1
102
RTVSPost2010Prop43
 90
        3
102
RTVSPost2010PropOp43
 70
     1
102
RTVSPost2010Prop44ColorIndex
 90
        5
102
RTVSPost2010Prop44ColorRGB
 90
      255
102
RTVSPost2010PropOp44
 70
     1
102
RTVSPost2010Prop45
280
     0
102
RTVSPost2010PropOp45
 70
     1
102
RTVSPost2010Prop46
 90
       50
102
RTVSPost2010PropOp46
 70
     1
102
RTVSPost2010Prop47
 90
       50
102
RTVSPost2010PropOp47
 70
     1
102
RTVSPost2010Prop48
 90
       50
102
RTVSPost2010PropOp48
 70
     1
102
RTVSPost2010Prop49
280
     0
102
RTVSPost2010PropOp49
 70
     1
102
RTVSPost2010Prop50
 90
       50
102
RTVSPost2010PropOp50
 70
     1
102
RTVSPost2010Prop51ColorIndex
 90
      256
102
RTVSPost2010Prop51ColorRGB
 90
-16777216
102
RTVSPost2010PropOp51
 70
     0
102
RTVSPost2010Prop52
140
1.0
102
RTVSPost2010PropOp52
 70
     0
102
RTVSPost2010Prop53
 90
        2
102
RTVSPost2010PropOp53
 70
     1
102
RTVSPost2010Prop54
  1
strokes_ogs.tif
102
RTVSPost2010PropOp54
 70
     1
102
RTVSPost2010Prop55
280
     0
102
RTVSPost2010PropOp55
 70
     1
102
RTVSPost2010Prop56
140
1.0
102
RTVSPost2010PropOp56
 70
     1
102
RTVSPost2010Prop57
140
1.0
102
RTVSPost2010PropOp57
 70
     1
  0
XRECORD
  5
130
102
{ACAD_REACTORS
330
12F
102
}
330
12F
100
AcDbXrecord
280
     1
102
RTVSPost2010Prop28
280
     0
102
RTVSPost2010PropOp28
 70
     1
102
RTVSPost2010Prop29
280
     1
102
RTVSPost2010PropOp29
 70
     1
102
RTVSPost2010Prop30
280
     1
102
RTVSPost2010PropOp30
 70
     1
102
RTVSPost2010Prop31
280
     0
102
RTVSPost2010PropOp31
 70
     1
102
RTVSPost2010Prop32
280
     0
102
RTVSPost2010PropOp32
 70
     1
102
RTVSPost2010Prop33
280
     0
102
RTVSPost2010PropOp33
 70
     1
102
RTVSPost2010Prop34
280
     0
102
RTVSPost2010PropOp34
 70
     1
102
RTVSPost2010Prop35
280
     0
102
RTVSPost2010PropOp35
 70
     1
102
RTVSPost2010Prop36
280
     0
102
RTVSPost2010PropOp36
 70
     1
102
RTVSPost2010Prop37
 90
       50
102
RTVSPost2010PropOp37
 70
     1
102
RTVSPost2010Prop38
140
0.0
102
RTVSPost2010PropOp38
 70
     1
102
RTVSPost2010Prop39
140
1.0
102
RTVSPost2010PropOp39
 70
     1
102
RTVSPost2010Prop40
 90
        0
102
RTVSPost2010PropOp40
 70
     1
102
RTVSPost2010Prop41ColorIndex
 90
       18
102
RTVSPost2010Prop41ColorRGB
 90
        0
102
RTVSPost2010PropOp41
 70
     1
102
RTVSPost2010Prop42
 90
       50
102
RTVSPost2010PropOp42
 70
     1
102
RTVSPost2010Prop43
 90
        3
102
RTVSPost2010PropOp43
 70
     1
102
RTVSPost2010Prop44ColorIndex
 90
        5
102
RTVSPost2010Prop44ColorRGB
 90
      255
102
RTVSPost2010PropOp44
 70
     1
102
RTVSPost2010Prop45
280
     0
102
RTVSPost2010PropOp45
 70
     1
102
RTVSPost2010Prop46
 90
       50
102
RTVSPost2010PropOp46
 70
     1
102
RTVSPost2010Prop47
 90
       50
102
RTVSPost2010PropOp47
 70
     1
102
RTVSPost2010Prop48
 90
       50
102
RTVSPost2010PropOp48
 70
     1
102
RTVSPost2010Prop49
280
     0
102
RTVSPost2010PropOp49
 70
     1
102
RTVSPost2010Prop50
 90
       50
102
RTVSPost2010PropOp50
 70
     1
102
RTVSPost2010Prop51ColorIndex
 90
      256
102
RTVSPost2010Prop51ColorRGB
 90
-16777216
102
RTVSPost2010PropOp51
 70
     0
102
RTVSPost2010Prop52
140
1.0
102
RTVSPost2010PropOp52
 70
     0
102
RTVSPost2010Prop53
 90
        2
102
RTVSPost2010PropOp53
 70
     1
102
RTVSPost2010Prop54
  1
strokes_ogs.tif
102
RTVSPost2010PropOp54
 70
     1
102
RTVSPost2010Prop55
280
     0
102
RTVSPost2010PropOp55
 70
     1
102
RTVSPost2010Prop56
140
1.0
102
RTVSPost2010PropOp56
 70
     1
102
RTVSPost2010Prop57
140
1.0
102
RTVSPost2010PropOp57
 70
     1
  0
XRECORD
  5
132
102
{ACAD_REACTORS
330
131
102
}
330
131
100
AcDbXrecord
280
     1
102
RTVSPost2010Prop28
280
     0
102
RTVSPost2010PropOp28
 70
     1
102
RTVSPost2010Prop29
280
     1
102
RTVSPost2010PropOp29
 70
     1
102
RTVSPost2010Prop30
280
     1
102
RTVSPost2010PropOp30
 70
     1
102
RTVSPost2010Prop31
280
     0
102
RTVSPost2010PropOp31
 70
     1
102
RTVSPost2010Prop32
280
     0
102
RTVSPost2010PropOp32
 70
     1
102
RTVSPost2010Prop33
280
     0
102
RTVSPost2010PropOp33
 70
     1
102
RTVSPost2010Prop34
280
     0
102
RTVSPost2010PropOp34
 70
     1
102
RTVSPost2010Prop35
280
     0
102
RTVSPost2010PropOp35
 70
     1
102
RTVSPost2010Prop36
280
     0
102
RTVSPost2010PropOp36
 70
     1
102
RTVSPost2010Prop37
 90
       50
102
RTVSPost2010PropOp37
 70
     1
102
RTVSPost2010Prop38
140
0.0
102
RTVSPost2010PropOp38
 70
     1
102
RTVSPost2010Prop39
140
1.0
102
RTVSPost2010PropOp39
 70
     1
102
RTVSPost2010Prop40
 90
        0
102
RTVSPost2010PropOp40
 70
     1
102
RTVSPost2010Prop41ColorIndex
 90
       18
102
RTVSPost2010Prop41ColorRGB
 90
        0
102
RTVSPost2010PropOp41
 70
     1
102
RTVSPost2010Prop42
 90
       50
102
RTVSPost2010PropOp42
 70
     1
102
RTVSPost2010Prop43
 90
        3
102
RTVSPost2010PropOp43
 70
     1
102
RTVSPost2010Prop44ColorIndex
 90
        5
102
RTVSPost2010Prop44ColorRGB
 90
      255
102
RTVSPost2010PropOp44
 70
     1
102
RTVSPost2010Prop45
280
     0
102
RTVSPost2010PropOp45
 70
     1
102
RTVSPost2010Prop46
 90
       50
102
RTVSPost2010PropOp46
 70
     1
102
RTVSPost2010Prop47
 90
       50
102
RTVSPost2010PropOp47
 70
     1
102
RTVSPost2010Prop48
 90
       50
102
RTVSPost2010PropOp48
 70
     1
102
RTVSPost2010Prop49
280
     0
102
RTVSPost2010PropOp49
 70
     1
102
RTVSPost2010Prop50
 90
       50
102
RTVSPost2010PropOp50
 70
     1
102
RTVSPost2010Prop51ColorIndex
 90
      256
102
RTVSPost2010Prop51ColorRGB
 90
-16777216
102
RTVSPost2010PropOp51
 70
     0
102
RTVSPost2010Prop52
140
1.0
102
RTVSPost2010PropOp52
 70
     0
102
RTVSPost2010Prop53
 90
        2
102
RTVSPost2010PropOp53
 70
     1
102
RTVSPost2010Prop54
  1
strokes_ogs.tif
102
RTVSPost2010PropOp54
 70
     1
102
RTVSPost2010Prop55
280
     0
102
RTVSPost2010PropOp55
 70
     1
102
RTVSPost2010Prop56
140
1.0
102
RTVSPost2010PropOp56
 70
     1
102
RTVSPost2010Prop57
140
1.0
102
RTVSPost2010PropOp57
 70
     1
  0
XRECORD
  5
122
102
{ACAD_REACTORS
330
121
102
}
330
121
100
AcDbXrecord
280
     1
102
RTVSPost2010Prop28
280
     0
102
RTVSPost2010PropOp28
 70
     1
102
RTVSPost2010Prop29
280
     1
102
RTVSPost2010PropOp29
 70
     1
102
RTVSPost2010Prop30
280
     1
102
RTVSPost2010PropOp30
 70
     1
102
RTVSPost2010Prop31
280
     0
102
RTVSPost2010PropOp31
 70
     1
102
RTVSPost2010Prop32
280
     0
102
RTVSPost2010PropOp32
 70
     1
102
RTVSPost2010Prop33
280
     0
102
RTVSPost2010PropOp33
 70
     1
102
RTVSPost2010Prop34
280
     0
102
RTVSPost2010PropOp34
 70
     1
102
RTVSPost2010Prop35
280
     0
102
RTVSPost2010PropOp35
 70
     1
102
RTVSPost2010Prop36
280
     0
102
RTVSPost2010PropOp36
 70
     1
102
RTVSPost2010Prop37
 90
       50
102
RTVSPost2010PropOp37
 70
     1
102
RTVSPost2010Prop38
140
0.0
102
RTVSPost2010PropOp38
 70
     1
102
RTVSPost2010Prop39
140
1.0
102
RTVSPost2010PropOp39
 70
     1
102
RTVSPost2010Prop40
 90
        0
102
RTVSPost2010PropOp40
 70
     1
102
RTVSPost2010Prop41ColorIndex
 90
       18
102
RTVSPost2010Prop41ColorRGB
 90
        0
102
RTVSPost2010PropOp41
 70
     1
102
RTVSPost2010Prop42
 90
       50
102
RTVSPost2010PropOp42
 70
     1
102
RTVSPost2010Prop43
 90
        3
102
RTVSPost2010PropOp43
 70
     1
102
RTVSPost2010Prop44ColorIndex
 90
        5
102
RTVSPost2010Prop44ColorRGB
 90
      255
102
RTVSPost2010PropOp44
 70
     1
102
RTVSPost2010Prop45
280
     0
102
RTVSPost2010PropOp45
 70
     1
102
RTVSPost2010Prop46
 90
       50
102
RTVSPost2010PropOp46
 70
     1
102
RTVSPost2010Prop47
 90
       50
102
RTVSPost2010PropOp47
 70
     1
102
RTVSPost2010Prop48
 90
       50
102
RTVSPost2010PropOp48
 70
     1
102
RTVSPost2010Prop49
280
     0
102
RTVSPost2010PropOp49
 70
     1
102
RTVSPost2010Prop50
 90
       50
102
RTVSPost2010PropOp50
 70
     1
102
RTVSPost2010Prop51ColorIndex
 90
      256
102
RTVSPost2010Prop51ColorRGB
 90
-16777216
102
RTVSPost2010PropOp51
 70
     0
102
RTVSPost2010Prop52
140
1.0
102
RTVSPost2010PropOp52
 70
     0
102
RTVSPost2010Prop53
 90
        2
102
RTVSPost2010PropOp53
 70
     1
102
RTVSPost2010Prop54
  1
strokes_ogs.tif
102
RTVSPost2010PropOp54
 70
     1
102
RTVSPost2010Prop55
280
     0
102
RTVSPost2010PropOp55
 70
     1
102
RTVSPost2010Prop56
140
1.0
102
RTVSPost2010PropOp56
 70
     1
102
RTVSPost2010Prop57
140
1.0
102
RTVSPost2010PropOp57
 70
     1
  0
XRECORD
  5
114
102
{ACAD_REACTORS
330
113
102
}
330
113
100
AcDbXrecord
280
     1
102
RTVSPost2010Prop28
280
     0
102
RTVSPost2010PropOp28
 70
     1
102
RTVSPost2010Prop29
280
     1
102
RTVSPost2010PropOp29
 70
     1
102
RTVSPost2010Prop30
280
     1
102
RTVSPost2010PropOp30
 70
     1
102
RTVSPost2010Prop31
280
     0
102
RTVSPost2010PropOp31
 70
     1
102
RTVSPost2010Prop32
280
     0
102
RTVSPost2010PropOp32
 70
     1
102
RTVSPost2010Prop33
280
     0
102
RTVSPost2010PropOp33
 70
     1
102
RTVSPost2010Prop34
280
     0
102
RTVSPost2010PropOp34
 70
     1
102
RTVSPost2010Prop35
280
     0
102
RTVSPost2010PropOp35
 70
     1
102
RTVSPost2010Prop36
280
     0
102
RTVSPost2010PropOp36
 70
     1
102
RTVSPost2010Prop37
 90
       50
102
RTVSPost2010PropOp37
 70
     1
102
RTVSPost2010Prop38
140
0.0
102
RTVSPost2010PropOp38
 70
     1
102
RTVSPost2010Prop39
140
1.0
102
RTVSPost2010PropOp39
 70
     1
102
RTVSPost2010Prop40
 90
        0
102
RTVSPost2010PropOp40
 70
     1
102
RTVSPost2010Prop41ColorIndex
 90
       18
102
RTVSPost2010Prop41ColorRGB
 90
        0
102
RTVSPost2010PropOp41
 70
     1
102
RTVSPost2010Prop42
 90
       50
102
RTVSPost2010PropOp42
 70
     1
102
RTVSPost2010Prop43
 90
        3
102
RTVSPost2010PropOp43
 70
     1
102
RTVSPost2010Prop44ColorIndex
 90
        5
102
RTVSPost2010Prop44ColorRGB
 90
      255
102
RTVSPost2010PropOp44
 70
     1
102
RTVSPost2010Prop45
280
     0
102
RTVSPost2010PropOp45
 70
     1
102
RTVSPost2010Prop46
 90
       50
102
RTVSPost2010PropOp46
 70
     1
102
RTVSPost2010Prop47
 90
       50
102
RTVSPost2010PropOp47
 70
     1
102
RTVSPost2010Prop48
 90
       50
102
RTVSPost2010PropOp48
 70
     1
102
RTVSPost2010Prop49
280
     0
102
RTVSPost2010PropOp49
 70
     1
102
RTVSPost2010Prop50
 90
       50
102
RTVSPost2010PropOp50
 70
     1
102
RTVSPost2010Prop51ColorIndex
 90
      256
102
RTVSPost2010Prop51ColorRGB
 90
-16777216
102
RTVSPost2010PropOp51
 70
     0
102
RTVSPost2010Prop52
140
1.0
102
RTVSPost2010PropOp52
 70
     0
102
RTVSPost2010Prop53
 90
        2
102
RTVSPost2010PropOp53
 70
     1
102
RTVSPost2010Prop54
  1
strokes_ogs.tif
102
RTVSPost2010PropOp54
 70
     1
102
RTVSPost2010Prop55
280
     0
102
RTVSPost2010PropOp55
 70
     1
102
RTVSPost2010Prop56
140
1.0
102
RTVSPost2010PropOp56
 70
     1
102
RTVSPost2010Prop57
140
1.0
102
RTVSPost2010PropOp57
 70
     1
  0
XRECORD
  5
134
102
{ACAD_REACTORS
330
133
102
}
330
133
100
AcDbXrecord
280
     1
102
RTVSPost2010Prop28
280
     0
102
RTVSPost2010PropOp28
 70
     1
102
RTVSPost2010Prop29
280
     1
102
RTVSPost2010PropOp29
 70
     1
102
RTVSPost2010Prop30
280
     1
102
RTVSPost2010PropOp30
 70
     1
102
RTVSPost2010Prop31
280
     0
102
RTVSPost2010PropOp31
 70
     1
102
RTVSPost2010Prop32
280
     0
102
RTVSPost2010PropOp32
 70
     1
102
RTVSPost2010Prop33
280
     0
102
RTVSPost2010PropOp33
 70
     1
102
RTVSPost2010Prop34
280
     0
102
RTVSPost2010PropOp34
 70
     1
102
RTVSPost2010Prop35
280
     0
102
RTVSPost2010PropOp35
 70
     1
102
RTVSPost2010Prop36
280
     0
102
RTVSPost2010PropOp36
 70
     1
102
RTVSPost2010Prop37
 90
       50
102
RTVSPost2010PropOp37
 70
     1
102
RTVSPost2010Prop38
140
0.0
102
RTVSPost2010PropOp38
 70
     1
102
RTVSPost2010Prop39
140
1.0
102
RTVSPost2010PropOp39
 70
     1
102
RTVSPost2010Prop40
 90
        0
102
RTVSPost2010PropOp40
 70
     1
102
RTVSPost2010Prop41ColorIndex
 90
       18
102
RTVSPost2010Prop41ColorRGB
 90
        0
102
RTVSPost2010PropOp41
 70
     1
102
RTVSPost2010Prop42
 90
       50
102
RTVSPost2010PropOp42
 70
     1
102
RTVSPost2010Prop43
 90
        3
102
RTVSPost2010PropOp43
 70
     1
102
RTVSPost2010Prop44ColorIndex
 90
        5
102
RTVSPost2010Prop44ColorRGB
 90
      255
102
RTVSPost2010PropOp44
 70
     1
102
RTVSPost2010Prop45
280
     0
102
RTVSPost2010PropOp45
 70
     1
102
RTVSPost2010Prop46
 90
       50
102
RTVSPost2010PropOp46
 70
     1
102
RTVSPost2010Prop47
 90
       50
102
RTVSPost2010PropOp47
 70
     1
102
RTVSPost2010Prop48
 90
       50
102
RTVSPost2010PropOp48
 70
     1
102
RTVSPost2010Prop49
280
     0
102
RTVSPost2010PropOp49
 70
     1
102
RTVSPost2010Prop50
 90
       50
102
RTVSPost2010PropOp50
 70
     1
102
RTVSPost2010Prop51ColorIndex
 90
      256
102
RTVSPost2010Prop51ColorRGB
 90
-16777216
102
RTVSPost2010PropOp51
 70
     0
102
RTVSPost2010Prop52
140
1.0
102
RTVSPost2010PropOp52
 70
     0
102
RTVSPost2010Prop53
 90
        2
102
RTVSPost2010PropOp53
 70
     1
102
RTVSPost2010Prop54
  1
strokes_ogs.tif
102
RTVSPost2010PropOp54
 70
     1
102
RTVSPost2010Prop55
280
     0
102
RTVSPost2010PropOp55
 70
     1
102
RTVSPost2010Prop56
140
1.0
102
RTVSPost2010PropOp56
 70
     1
102
RTVSPost2010Prop57
140
1.0
102
RTVSPost2010PropOp57
 70
     1
  0
ENDSEC
  0
EOF
