  0
SECTION
  2
HEADER
  9
$ACADVER
  1
AC1009
  9
$DWGCODEPAGE
  3
ansi_1252
  9
$INSBASE
 10
0.0
 20
0.0
 30
0.0
  9
$EXTMIN
 10
-0.1250487045831576
 20
0.0
 30
0.0
  9
$EXTMAX
 10
31.99995129541684
 20
32.12499999999999
 30
0.0
  9
$LIMMIN
 10
0.0
 20
0.0
  9
$LIMMAX
 10
12.0
 20
9.0
  9
$ORTHOMODE
 70
     0
  9
$REGENMODE
 70
     1
  9
$FILLMODE
 70
     1
  9
$QTEXTMODE
 70
     0
  9
$MIRRTEXT
 70
     1
  9
$DRAGMODE
 70
     2
  9
$LTSCALE
 40
1.0
  9
$OSMODE
 70
    37
  9
$ATTMODE
 70
     1
  9
$TEXTSIZE
 40
0.2
  9
$TRACEWID
 40
0.05
  9
$TEXTSTYLE
  7
STANDARD
  9
$CLAYER
  8
0
  9
$CELTYPE
  6
BYLAYER
  9
$CECOLOR
 62
   256
  9
$DIMSCALE
 40
1.0
  9
$DIMASZ
 40
0.18
  9
$DIMEXO
 40
0.0625
  9
$DIMDLI
 40
0.38
  9
$DIMRND
 40
0.0
  9
$DIMDLE
 40
0.0
  9
$DIMEXE
 40
0.18
  9
$DIMTP
 40
0.0
  9
$DIMTM
 40
0.0
  9
$DIMTXT
 40
0.18
  9
$DIMCEN
 40
0.09
  9
$DIMTSZ
 40
0.0
  9
$DIMTOL
 70
     0
  9
$DIMLIM
 70
     0
  9
$DIMTIH
 70
     1
  9
$DIMTOH
 70
     1
  9
$DIMSE1
 70
     0
  9
$DIMSE2
 70
     0
  9
$DIMTAD
 70
     0
  9
$DIMZIN
 70
     0
  9
$DIMBLK
  1

  9
$DIMASO
 70
     1
  9
$DIMSHO
 70
     1
  9
$DIMPOST
  1

  9
$DIMAPOST
  1

  9
$DIMALT
 70
     0
  9
$DIMALTD
 70
     2
  9
$DIMALTF
 40
25.4
  9
$DIMLFAC
 40
1.0
  9
$DIMTOFL
 70
     0
  9
$DIMTVP
 40
0.0
  9
$DIMTIX
 70
     0
  9
$DIMSOXD
 70
     0
  9
$DIMSAH
 70
     0
  9
$DIMBLK1
  1

  9
$DIMBLK2
  1

  9
$DIMSTYLE
  2
STANDARD
  9
$DIMCLRD
 70
     0
  9
$DIMCLRE
 70
     0
  9
$DIMCLRT
 70
     0
  9
$DIMTFAC
 40
1.0
  9
$DIMGAP
 40
0.09
  9
$LUNITS
 70
     2
  9
$LUPREC
 70
     4
  9
$SKETCHINC
 40
0.1
  9
$FILLETRAD
 40
0.5
  9
$AUNITS
 70
     0
  9
$AUPREC
 70
     0
  9
$MENU
  1
.
  9
$ELEVATION
 40
0.0
  9
$PELEVATION
 40
0.0
  9
$THICKNESS
 40
0.0
  9
$LIMCHECK
 70
     0
  9
$CHAMFERA
 40
0.0
  9
$CHAMFERB
 40
0.0
  9
$SKPOLY
 70
     0
  9
$TDCREATE
 40
2454910.5
  9
$TDUPDATE
 40
2459149.390270278
  9
$TDINDWG
 40
0.0000000116
  9
$TDUSRTIMER
 40
0.0000000116
  9
$USRTIMER
 70
     1
  9
$ANGBASE
 50
0.0
  9
$ANGDIR
 70
     0
  9
$PDMODE
 70
     0
  9
$PDSIZE
 40
0.0
  9
$PLINEWID
 40
0.0
  9
$COORDS
 70
     1
  9
$SPLFRAME
 70
     0
  9
$SPLINETYPE
 70
     6
  9
$SPLINESEGS
 70
     8
  9
$ATTDIA
 70
     0
  9
$ATTREQ
 70
     1
  9
$HANDLING
 70
     1
  9
$HANDSEED
  5
EA4
  9
$SURFTAB1
 70
     6
  9
$SURFTAB2
 70
     6
  9
$SURFTYPE
 70
     6
  9
$SURFU
 70
     6
  9
$SURFV
 70
     6
  9
$UCSNAME
  2

  9
$UCSORG
 10
0.0
 20
0.0
 30
0.0
  9
$UCSXDIR
 10
1.0
 20
0.0
 30
0.0
  9
$UCSYDIR
 10
0.0
 20
1.0
 30
0.0
  9
$PUCSNAME
  2

  9
$PUCSORG
 10
0.0
 20
0.0
 30
0.0
  9
$PUCSXDIR
 10
1.0
 20
0.0
 30
0.0
  9
$PUCSYDIR
 10
0.0
 20
1.0
 30
0.0
  9
$USERI1
 70
     0
  9
$USERI2
 70
     0
  9
$USERI3
 70
     0
  9
$USERI4
 70
     0
  9
$USERI5
 70
     0
  9
$USERR1
 40
0.0
  9
$USERR2
 40
0.0
  9
$USERR3
 40
0.0
  9
$USERR4
 40
0.0
  9
$USERR5
 40
0.0
  9
$WORLDVIEW
 70
     1
  9
$SHADEDGE
 70
     3
  9
$SHADEDIF
 70
    70
  9
$TILEMODE
 70
     1
  9
$MAXACTVP
 70
    64
  9
$PLIMCHECK
 70
     0
  9
$PEXTMIN
 10
1.000000000000000E+20
 20
1.000000000000000E+20
 30
1.000000000000000E+20
  9
$PEXTMAX
 10
-1.000000000000000E+20
 20
-1.000000000000000E+20
 30
-1.000000000000000E+20
  9
$PLIMMIN
 10
0.0
 20
0.0
  9
$PLIMMAX
 10
12.0
 20
9.0
  9
$UNITMODE
 70
     0
  9
$VISRETAIN
 70
     1
  9
$PLINEGEN
 70
     0
  9
$PSLTSCALE
 70
     1
  0
ENDSEC
  0
SECTION
  2
TABLES
  0
TABLE
  2
VPORT
 70
     1
  0
VPORT
  2
*ACTIVE
 70
     0
 10
0.0
 20
0.0
 11
1.0
 21
1.0
 12
10.42990654205607
 22
4.5
 13
0.0
 23
0.0
 14
0.5
 24
0.5
 15
0.5
 25
0.5
 16
0.0
 26
0.0
 36
1.0
 17
0.0
 27
0.0
 37
0.0
 40
9.0
 41
1.972972972850329
 42
50.0
 43
0.0
 44
0.0
 50
0.0
 51
0.0
 71
     0
 72
   100
 73
     1
 74
     3
 75
     0
 76
     0
 77
     0
 78
     0
  0
ENDTAB
  0
TABLE
  2
LTYPE
 70
     2
  0
LTYPE
  2
CONTINUOUS
 70
     0
  3
Solid line
 72
    65
 73
     0
 40
0.0
  0
LTYPE
  2
CONTINUOUS2
 70
     0
  3
Solid Line
 72
    65
 73
     0
 40
0.0
  0
ENDTAB
  0
TABLE
  2
LAYER
 70
     2
  0
LAYER
  2
0
 70
     0
 62
     7
  6
CONTINUOUS
  0
LAYER
  2
RULER
 70
     0
 62
     7
  6
CONTINUOUS
  0
ENDTAB
  0
TABLE
  2
STYLE
 70
     1
  0
STYLE
  2
STANDARD
 70
     0
 40
0.0
 41
1.0
 50
0.0
 71
     0
 42
0.2
  3
txt
  4

  0
ENDTAB
  0
TABLE
  2
VIEW
 70
     0
  0
ENDTAB
  0
TABLE
  2
UCS
 70
     0
  0
ENDTAB
  0
TABLE
  2
APPID
 70
     1
  0
APPID
  2
ACAD
 70
     0
  0
ENDTAB
  0
TABLE
  2
DIMSTYLE
 70
     1
  0
DIMSTYLE
  2
STANDARD
 70
     0
  3

  4

  5

  6

  7

 40
1.0
 41
0.18
 42
0.0625
 43
0.38
 44
0.18
 45
0.0
 46
0.0
 47
0.0
 48
0.0
140
0.18
141
0.09
142
0.0
143
25.4
144
1.0
145
0.0
146
1.0
147
0.09
 71
     0
 72
     0
 73
     1
 74
     1
 75
     0
 76
     0
 77
     0
 78
     0
170
     0
171
     2
172
     0
173
     0
174
     0
175
     0
176
     0
177
     0
178
     0
  0
ENDTAB
  0
ENDSEC
  0
SECTION
  2
BLOCKS
  0
BLOCK
  8
0
  2
$MODEL_SPACE
 70
     0
 10
0.0
 20
0.0
 30
0.0
  3
$MODEL_SPACE
  1

  0
ENDBLK
  5
21
  8
0
  0
BLOCK
 67
     1
  8
0
  2
$PAPER_SPACE
 70
     0
 10
0.0
 20
0.0
 30
0.0
  3
$PAPER_SPACE
  1

  0
ENDBLK
  5
1D
 67
     1
  8
0
  0
ENDSEC
  0
SECTION
  2
ENTITIES
  0
POLYLINE
  5
70
  8
RULER
 66
     1
 10
0.0
 20
0.0
 30
0.0
  0
VERTEX
  5
2F4
  8
RULER
 10
0.0
 20
0.0
 30
0.0
  0
VERTEX
  5
2F5
  8
RULER
 10
1.000000000000002
 20
0.0
 30
0.0
  0
SEQEND
  5
C27
  8
RULER
  0
POLYLINE
  5
71
  8
RULER
 66
     1
 10
0.0
 20
0.0
 30
0.0
  0
VERTEX
  5
2F6
  8
RULER
 10
0.0
 20
1.0
 30
0.0
  0
VERTEX
  5
2F7
  8
RULER
 10
1.000000000000002
 20
1.0
 30
0.0
  0
SEQEND
  5
C28
  8
RULER
  0
POLYLINE
  5
72
  8
RULER
 66
     1
 10
0.0
 20
0.0
 30
0.0
  0
VERTEX
  5
2F8
  8
RULER
 10
0.0
 20
2.0
 30
0.0
  0
VERTEX
  5
2F9
  8
RULER
 10
1.000000000000002
 20
2.0
 30
0.0
  0
SEQEND
  5
C29
  8
RULER
  0
POLYLINE
  5
73
  8
RULER
 66
     1
 10
0.0
 20
0.0
 30
0.0
  0
VERTEX
  5
2FA
  8
RULER
 10
0.0000000000000018
 20
2.999999999999998
 30
0.0
  0
VERTEX
  5
2FB
  8
RULER
 10
1.000000000000002
 20
2.999999999999998
 30
0.0
  0
SEQEND
  5
C2A
  8
RULER
  0
POLYLINE
  5
74
  8
RULER
 66
     1
 10
0.0
 20
0.0
 30
0.0
  0
VERTEX
  5
2FC
  8
RULER
 10
0.0000000000000018
 20
3.999999999999998
 30
0.0
  0
VERTEX
  5
2FD
  8
RULER
 10
1.000000000000002
 20
3.999999999999998
 30
0.0
  0
SEQEND
  5
C2B
  8
RULER
  0
POLYLINE
  5
75
  8
RULER
 66
     1
 10
0.0
 20
0.0
 30
0.0
  0
VERTEX
  5
2FE
  8
RULER
 10
0.0000000000000018
 20
4.999999999999998
 30
0.0
  0
VERTEX
  5
2FF
  8
RULER
 10
1.000000000000002
 20
4.999999999999998
 30
0.0
  0
SEQEND
  5
C2C
  8
RULER
  0
POLYLINE
  5
76
  8
RULER
 66
     1
 10
0.0
 20
0.0
 30
0.0
  0
VERTEX
  5
300
  8
RULER
 10
0.0000000000000018
 20
5.999999999999998
 30
0.0
  0
VERTEX
  5
301
  8
RULER
 10
1.000000000000002
 20
5.999999999999998
 30
0.0
  0
SEQEND
  5
C2D
  8
RULER
  0
POLYLINE
  5
77
  8
RULER
 66
     1
 10
0.0
 20
0.0
 30
0.0
  0
VERTEX
  5
302
  8
RULER
 10
0.0000000000000036
 20
6.999999999999998
 30
0.0
  0
VERTEX
  5
303
  8
RULER
 10
1.000000000000005
 20
6.999999999999998
 30
0.0
  0
SEQEND
  5
C2E
  8
RULER
  0
POLYLINE
  5
78
  8
RULER
 66
     1
 10
0.0
 20
0.0
 30
0.0
  0
VERTEX
  5
304
  8
RULER
 10
0.0000000000000036
 20
7.999999999999995
 30
0.0
  0
VERTEX
  5
305
  8
RULER
 10
1.000000000000005
 20
7.999999999999995
 30
0.0
  0
SEQEND
  5
C2F
  8
RULER
  0
POLYLINE
  5
79
  8
RULER
 66
     1
 10
0.0
 20
0.0
 30
0.0
  0
VERTEX
  5
306
  8
RULER
 10
0.0000000000000036
 20
8.999999999999995
 30
0.0
  0
VERTEX
  5
307
  8
RULER
 10
1.000000000000005
 20
8.999999999999995
 30
0.0
  0
SEQEND
  5
C30
  8
RULER
  0
POLYLINE
  5
7A
  8
RULER
 66
     1
 10
0.0
 20
0.0
 30
0.0
  0
VERTEX
  5
308
  8
RULER
 10
0.0000000000000036
 20
9.999999999999995
 30
0.0
  0
VERTEX
  5
309
  8
RULER
 10
1.000000000000004
 20
9.999999999999995
 30
0.0
  0
SEQEND
  5
C31
  8
RULER
  0
POLYLINE
  5
7B
  8
RULER
 66
     1
 10
0.0
 20
0.0
 30
0.0
  0
VERTEX
  5
30A
  8
RULER
 10
0.0000000000000036
 20
10.99999999999999
 30
0.0
  0
VERTEX
  5
30B
  8
RULER
 10
1.000000000000004
 20
10.99999999999999
 30
0.0
  0
SEQEND
  5
C32
  8
RULER
  0
POLYLINE
  5
7C
  8
RULER
 66
     1
 10
0.0
 20
0.0
 30
0.0
  0
VERTEX
  5
30C
  8
RULER
 10
0.0
 20
12.0
 30
0.0
  0
VERTEX
  5
30D
  8
RULER
 10
1.000000000000004
 20
12.0
 30
0.0
  0
SEQEND
  5
C33
  8
RULER
  0
POLYLINE
  5
7D
  8
RULER
 66
     1
 10
0.0
 20
0.0
 30
0.0
  0
VERTEX
  5
30E
  8
RULER
 10
0.0
 20
12.99999999999999
 30
0.0
  0
VERTEX
  5
30F
  8
RULER
 10
1.000000000000004
 20
12.99999999999999
 30
0.0
  0
SEQEND
  5
C34
  8
RULER
  0
POLYLINE
  5
7E
  8
RULER
 66
     1
 10
0.0
 20
0.0
 30
0.0
  0
VERTEX
  5
310
  8
RULER
 10
0.0
 20
13.99999999999999
 30
0.0
  0
VERTEX
  5
311
  8
RULER
 10
1.000000000000004
 20
13.99999999999999
 30
0.0
  0
SEQEND
  5
C35
  8
RULER
  0
POLYLINE
  5
7F
  8
RULER
 66
     1
 10
0.0
 20
0.0
 30
0.0
  0
VERTEX
  5
312
  8
RULER
 10
0.0
 20
14.99999999999999
 30
0.0
  0
VERTEX
  5
313
  8
RULER
 10
1.000000000000004
 20
14.99999999999999
 30
0.0
  0
SEQEND
  5
C36
  8
RULER
  0
POLYLINE
  5
80
  8
RULER
 66
     1
 10
0.0
 20
0.0
 30
0.0
  0
VERTEX
  5
314
  8
RULER
 10
0.0000000000000036
 20
15.99999999999999
 30
0.0
  0
VERTEX
  5
315
  8
RULER
 10
1.000000000000004
 20
15.99999999999999
 30
0.0
  0
SEQEND
  5
C37
  8
RULER
  0
POLYLINE
  5
81
  8
RULER
 66
     1
 10
0.0
 20
0.0
 30
0.0
  0
VERTEX
  5
316
  8
RULER
 10
0.0000000000000018
 20
16.99999999999999
 30
0.0
  0
VERTEX
  5
317
  8
RULER
 10
1.000000000000004
 20
16.99999999999999
 30
0.0
  0
SEQEND
  5
C38
  8
RULER
  0
POLYLINE
  5
82
  8
RULER
 66
     1
 10
0.0
 20
0.0
 30
0.0
  0
VERTEX
  5
318
  8
RULER
 10
0.0000000000000018
 20
17.99999999999999
 30
0.0
  0
VERTEX
  5
319
  8
RULER
 10
1.000000000000004
 20
17.99999999999999
 30
0.0
  0
SEQEND
  5
C39
  8
RULER
  0
POLYLINE
  5
83
  8
RULER
 66
     1
 10
0.0
 20
0.0
 30
0.0
  0
VERTEX
  5
31A
  8
RULER
 10
0.0000000000000018
 20
18.99999999999999
 30
0.0
  0
VERTEX
  5
31B
  8
RULER
 10
1.000000000000004
 20
18.99999999999999
 30
0.0
  0
SEQEND
  5
C3A
  8
RULER
  0
POLYLINE
  5
84
  8
RULER
 66
     1
 10
0.0
 20
0.0
 30
0.0
  0
VERTEX
  5
31C
  8
RULER
 10
0.0000000000000018
 20
19.99999999999999
 30
0.0
  0
VERTEX
  5
31D
  8
RULER
 10
1.000000000000004
 20
19.99999999999999
 30
0.0
  0
SEQEND
  5
C3B
  8
RULER
  0
POLYLINE
  5
85
  8
RULER
 66
     1
 10
0.0
 20
0.0
 30
0.0
  0
VERTEX
  5
31E
  8
RULER
 10
0.0000000000000053
 20
20.99999999999999
 30
0.0
  0
VERTEX
  5
31F
  8
RULER
 10
1.000000000000005
 20
20.99999999999999
 30
0.0
  0
SEQEND
  5
C3C
  8
RULER
  0
POLYLINE
  5
86
  8
RULER
 66
     1
 10
0.0
 20
0.0
 30
0.0
  0
VERTEX
  5
320
  8
RULER
 10
0.0000000000000053
 20
21.99999999999999
 30
0.0
  0
VERTEX
  5
321
  8
RULER
 10
1.000000000000005
 20
21.99999999999999
 30
0.0
  0
SEQEND
  5
C3D
  8
RULER
  0
POLYLINE
  5
87
  8
RULER
 66
     1
 10
0.0
 20
0.0
 30
0.0
  0
VERTEX
  5
322
  8
RULER
 10
0.0000000000000053
 20
22.99999999999999
 30
0.0
  0
VERTEX
  5
323
  8
RULER
 10
1.000000000000005
 20
22.99999999999999
 30
0.0
  0
SEQEND
  5
C3E
  8
RULER
  0
POLYLINE
  5
88
  8
RULER
 66
     1
 10
0.0
 20
0.0
 30
0.0
  0
VERTEX
  5
324
  8
RULER
 10
0.0000000000000053
 20
24.0
 30
0.0
  0
VERTEX
  5
325
  8
RULER
 10
1.000000000000005
 20
24.0
 30
0.0
  0
SEQEND
  5
C3F
  8
RULER
  0
POLYLINE
  5
89
  8
RULER
 66
     1
 10
0.0
 20
0.0
 30
0.0
  0
VERTEX
  5
326
  8
RULER
 10
0.0000000000000053
 20
24.99999999999999
 30
0.0
  0
VERTEX
  5
327
  8
RULER
 10
1.000000000000005
 20
24.99999999999999
 30
0.0
  0
SEQEND
  5
C40
  8
RULER
  0
POLYLINE
  5
8A
  8
RULER
 66
     1
 10
0.0
 20
0.0
 30
0.0
  0
VERTEX
  5
328
  8
RULER
 10
0.0000000000000036
 20
25.99999999999999
 30
0.0
  0
VERTEX
  5
329
  8
RULER
 10
1.000000000000004
 20
25.99999999999999
 30
0.0
  0
SEQEND
  5
C41
  8
RULER
  0
POLYLINE
  5
8B
  8
RULER
 66
     1
 10
0.0
 20
0.0
 30
0.0
  0
VERTEX
  5
32A
  8
RULER
 10
0.0000000000000036
 20
27.0
 30
0.0
  0
VERTEX
  5
32B
  8
RULER
 10
1.000000000000004
 20
27.0
 30
0.0
  0
SEQEND
  5
C42
  8
RULER
  0
POLYLINE
  5
8C
  8
RULER
 66
     1
 10
0.0
 20
0.0
 30
0.0
  0
VERTEX
  5
32C
  8
RULER
 10
0.0000000000000018
 20
28.0
 30
0.0
  0
VERTEX
  5
32D
  8
RULER
 10
1.000000000000002
 20
28.0
 30
0.0
  0
SEQEND
  5
C43
  8
RULER
  0
POLYLINE
  5
8D
  8
RULER
 66
     1
 10
0.0
 20
0.0
 30
0.0
  0
VERTEX
  5
32E
  8
RULER
 10
0.0000000000000018
 20
28.99999999999999
 30
0.0
  0
VERTEX
  5
32F
  8
RULER
 10
1.000000000000002
 20
28.99999999999999
 30
0.0
  0
SEQEND
  5
C44
  8
RULER
  0
POLYLINE
  5
8E
  8
RULER
 66
     1
 10
0.0
 20
0.0
 30
0.0
  0
VERTEX
  5
330
  8
RULER
 10
0.0000000000000018
 20
29.99999999999999
 30
0.0
  0
VERTEX
  5
331
  8
RULER
 10
1.000000000000004
 20
29.99999999999999
 30
0.0
  0
SEQEND
  5
C45
  8
RULER
  0
POLYLINE
  5
8F
  8
RULER
 66
     1
 10
0.0
 20
0.0
 30
0.0
  0
VERTEX
  5
332
  8
RULER
 10
0.0000000000000018
 20
30.99999999999999
 30
0.0
  0
VERTEX
  5
333
  8
RULER
 10
1.000000000000004
 20
30.99999999999999
 30
0.0
  0
SEQEND
  5
C46
  8
RULER
  0
POLYLINE
  5
90
  8
RULER
 66
     1
 10
0.0
 20
0.0
 30
0.0
  0
VERTEX
  5
334
  8
RULER
 10
0.0000000000000018
 20
32.0
 30
0.0
  0
VERTEX
  5
335
  8
RULER
 10
1.000000000000004
 20
32.0
 30
0.0
  0
SEQEND
  5
C47
  8
RULER
  0
POLYLINE
  5
91
  8
RULER
 66
     1
 10
0.0
 20
0.0
 30
0.0
  0
VERTEX
  5
336
  8
RULER
 10
0.0
 20
0.5
 30
0.0
  0
VERTEX
  5
337
  8
RULER
 10
0.5000000000000036
 20
0.4999999999999929
 30
0.0
  0
SEQEND
  5
C48
  8
RULER
  0
POLYLINE
  5
92
  8
RULER
 66
     1
 10
0.0
 20
0.0
 30
0.0
  0
VERTEX
  5
338
  8
RULER
 10
0.0
 20
1.5
 30
0.0
  0
VERTEX
  5
339
  8
RULER
 10
0.5000000000000036
 20
1.5
 30
0.0
  0
SEQEND
  5
C49
  8
RULER
  0
POLYLINE
  5
93
  8
RULER
 66
     1
 10
0.0
 20
0.0
 30
0.0
  0
VERTEX
  5
33A
  8
RULER
 10
0.0000000000000018
 20
2.5
 30
0.0
  0
VERTEX
  5
33B
  8
RULER
 10
0.5000000000000036
 20
2.5
 30
0.0
  0
SEQEND
  5
C4A
  8
RULER
  0
POLYLINE
  5
94
  8
RULER
 66
     1
 10
0.0
 20
0.0
 30
0.0
  0
VERTEX
  5
33C
  8
RULER
 10
0.0000000000000018
 20
3.499999999999998
 30
0.0
  0
VERTEX
  5
33D
  8
RULER
 10
0.5000000000000036
 20
3.499999999999998
 30
0.0
  0
SEQEND
  5
C4B
  8
RULER
  0
POLYLINE
  5
95
  8
RULER
 66
     1
 10
0.0
 20
0.0
 30
0.0
  0
VERTEX
  5
33E
  8
RULER
 10
0.0000000000000018
 20
4.499999999999998
 30
0.0
  0
VERTEX
  5
33F
  8
RULER
 10
0.5000000000000036
 20
4.499999999999998
 30
0.0
  0
SEQEND
  5
C4C
  8
RULER
  0
POLYLINE
  5
96
  8
RULER
 66
     1
 10
0.0
 20
0.0
 30
0.0
  0
VERTEX
  5
340
  8
RULER
 10
0.0000000000000018
 20
5.499999999999998
 30
0.0
  0
VERTEX
  5
341
  8
RULER
 10
0.5000000000000036
 20
5.499999999999998
 30
0.0
  0
SEQEND
  5
C4D
  8
RULER
  0
POLYLINE
  5
97
  8
RULER
 66
     1
 10
0.0
 20
0.0
 30
0.0
  0
VERTEX
  5
342
  8
RULER
 10
0.0000000000000036
 20
6.499999999999998
 30
0.0
  0
VERTEX
  5
343
  8
RULER
 10
0.5000000000000053
 20
6.499999999999998
 30
0.0
  0
SEQEND
  5
C4E
  8
RULER
  0
POLYLINE
  5
98
  8
RULER
 66
     1
 10
0.0
 20
0.0
 30
0.0
  0
VERTEX
  5
344
  8
RULER
 10
0.0000000000000036
 20
7.499999999999995
 30
0.0
  0
VERTEX
  5
345
  8
RULER
 10
0.5000000000000071
 20
7.499999999999995
 30
0.0
  0
SEQEND
  5
C4F
  8
RULER
  0
POLYLINE
  5
99
  8
RULER
 66
     1
 10
0.0
 20
0.0
 30
0.0
  0
VERTEX
  5
346
  8
RULER
 10
0.0000000000000036
 20
8.499999999999991
 30
0.0
  0
VERTEX
  5
347
  8
RULER
 10
0.5000000000000071
 20
8.499999999999991
 30
0.0
  0
SEQEND
  5
C50
  8
RULER
  0
POLYLINE
  5
9A
  8
RULER
 66
     1
 10
0.0
 20
0.0
 30
0.0
  0
VERTEX
  5
348
  8
RULER
 10
0.0000000000000036
 20
9.499999999999995
 30
0.0
  0
VERTEX
  5
349
  8
RULER
 10
0.5000000000000071
 20
9.499999999999995
 30
0.0
  0
SEQEND
  5
C51
  8
RULER
  0
POLYLINE
  5
9B
  8
RULER
 66
     1
 10
0.0
 20
0.0
 30
0.0
  0
VERTEX
  5
34A
  8
RULER
 10
0.0000000000000036
 20
10.49999999999999
 30
0.0
  0
VERTEX
  5
34B
  8
RULER
 10
0.5000000000000071
 20
10.49999999999999
 30
0.0
  0
SEQEND
  5
C52
  8
RULER
  0
POLYLINE
  5
9C
  8
RULER
 66
     1
 10
0.0
 20
0.0
 30
0.0
  0
VERTEX
  5
34C
  8
RULER
 10
0.0
 20
11.49999999999999
 30
0.0
  0
VERTEX
  5
34D
  8
RULER
 10
0.5000000000000036
 20
11.49999999999999
 30
0.0
  0
SEQEND
  5
C53
  8
RULER
  0
POLYLINE
  5
9D
  8
RULER
 66
     1
 10
0.0
 20
0.0
 30
0.0
  0
VERTEX
  5
34E
  8
RULER
 10
0.0
 20
12.49999999999999
 30
0.0
  0
VERTEX
  5
34F
  8
RULER
 10
0.5000000000000036
 20
12.49999999999999
 30
0.0
  0
SEQEND
  5
C54
  8
RULER
  0
POLYLINE
  5
9E
  8
RULER
 66
     1
 10
0.0
 20
0.0
 30
0.0
  0
VERTEX
  5
350
  8
RULER
 10
0.0
 20
13.49999999999999
 30
0.0
  0
VERTEX
  5
351
  8
RULER
 10
0.5000000000000036
 20
13.49999999999999
 30
0.0
  0
SEQEND
  5
C55
  8
RULER
  0
POLYLINE
  5
9F
  8
RULER
 66
     1
 10
0.0
 20
0.0
 30
0.0
  0
VERTEX
  5
352
  8
RULER
 10
0.0
 20
14.49999999999999
 30
0.0
  0
VERTEX
  5
353
  8
RULER
 10
0.5000000000000036
 20
14.49999999999999
 30
0.0
  0
SEQEND
  5
C56
  8
RULER
  0
POLYLINE
  5
A0
  8
RULER
 66
     1
 10
0.0
 20
0.0
 30
0.0
  0
VERTEX
  5
354
  8
RULER
 10
0.0
 20
15.49999999999999
 30
0.0
  0
VERTEX
  5
355
  8
RULER
 10
0.5000000000000036
 20
15.49999999999999
 30
0.0
  0
SEQEND
  5
C57
  8
RULER
  0
POLYLINE
  5
A1
  8
RULER
 66
     1
 10
0.0
 20
0.0
 30
0.0
  0
VERTEX
  5
356
  8
RULER
 10
0.0000000000000018
 20
16.49999999999999
 30
0.0
  0
VERTEX
  5
357
  8
RULER
 10
0.5000000000000053
 20
16.49999999999999
 30
0.0
  0
SEQEND
  5
C58
  8
RULER
  0
POLYLINE
  5
A2
  8
RULER
 66
     1
 10
0.0
 20
0.0
 30
0.0
  0
VERTEX
  5
358
  8
RULER
 10
0.0000000000000018
 20
17.49999999999999
 30
0.0
  0
VERTEX
  5
359
  8
RULER
 10
0.5000000000000053
 20
17.49999999999999
 30
0.0
  0
SEQEND
  5
C59
  8
RULER
  0
POLYLINE
  5
A3
  8
RULER
 66
     1
 10
0.0
 20
0.0
 30
0.0
  0
VERTEX
  5
35A
  8
RULER
 10
0.0000000000000018
 20
18.49999999999999
 30
0.0
  0
VERTEX
  5
35B
  8
RULER
 10
0.5000000000000053
 20
18.49999999999999
 30
0.0
  0
SEQEND
  5
C5A
  8
RULER
  0
POLYLINE
  5
A4
  8
RULER
 66
     1
 10
0.0
 20
0.0
 30
0.0
  0
VERTEX
  5
35C
  8
RULER
 10
0.0000000000000018
 20
19.49999999999999
 30
0.0
  0
VERTEX
  5
35D
  8
RULER
 10
0.5000000000000053
 20
19.49999999999999
 30
0.0
  0
SEQEND
  5
C5B
  8
RULER
  0
POLYLINE
  5
A5
  8
RULER
 66
     1
 10
0.0
 20
0.0
 30
0.0
  0
VERTEX
  5
35E
  8
RULER
 10
0.0000000000000036
 20
20.49999999999999
 30
0.0
  0
VERTEX
  5
35F
  8
RULER
 10
0.5000000000000053
 20
20.49999999999999
 30
0.0
  0
SEQEND
  5
C5C
  8
RULER
  0
POLYLINE
  5
A6
  8
RULER
 66
     1
 10
0.0
 20
0.0
 30
0.0
  0
VERTEX
  5
360
  8
RULER
 10
0.0000000000000053
 20
21.49999999999999
 30
0.0
  0
VERTEX
  5
361
  8
RULER
 10
0.5000000000000071
 20
21.49999999999999
 30
0.0
  0
SEQEND
  5
C5D
  8
RULER
  0
POLYLINE
  5
A7
  8
RULER
 66
     1
 10
0.0
 20
0.0
 30
0.0
  0
VERTEX
  5
362
  8
RULER
 10
0.0000000000000053
 20
22.49999999999999
 30
0.0
  0
VERTEX
  5
363
  8
RULER
 10
0.5000000000000071
 20
22.49999999999999
 30
0.0
  0
SEQEND
  5
C5E
  8
RULER
  0
POLYLINE
  5
A8
  8
RULER
 66
     1
 10
0.0
 20
0.0
 30
0.0
  0
VERTEX
  5
364
  8
RULER
 10
0.0000000000000053
 20
23.49999999999999
 30
0.0
  0
VERTEX
  5
365
  8
RULER
 10
0.5000000000000071
 20
23.49999999999999
 30
0.0
  0
SEQEND
  5
C5F
  8
RULER
  0
POLYLINE
  5
A9
  8
RULER
 66
     1
 10
0.0
 20
0.0
 30
0.0
  0
VERTEX
  5
366
  8
RULER
 10
0.0000000000000053
 20
24.49999999999999
 30
0.0
  0
VERTEX
  5
367
  8
RULER
 10
0.5000000000000071
 20
24.49999999999999
 30
0.0
  0
SEQEND
  5
C60
  8
RULER
  0
POLYLINE
  5
AA
  8
RULER
 66
     1
 10
0.0
 20
0.0
 30
0.0
  0
VERTEX
  5
368
  8
RULER
 10
0.0000000000000053
 20
25.5
 30
0.0
  0
VERTEX
  5
369
  8
RULER
 10
0.5000000000000089
 20
25.5
 30
0.0
  0
SEQEND
  5
C61
  8
RULER
  0
POLYLINE
  5
AB
  8
RULER
 66
     1
 10
0.0
 20
0.0
 30
0.0
  0
VERTEX
  5
36A
  8
RULER
 10
0.0000000000000036
 20
26.49999999999999
 30
0.0
  0
VERTEX
  5
36B
  8
RULER
 10
0.5000000000000071
 20
26.49999999999999
 30
0.0
  0
SEQEND
  5
C62
  8
RULER
  0
POLYLINE
  5
AC
  8
RULER
 66
     1
 10
0.0
 20
0.0
 30
0.0
  0
VERTEX
  5
36C
  8
RULER
 10
0.0000000000000036
 20
27.49999999999999
 30
0.0
  0
VERTEX
  5
36D
  8
RULER
 10
0.5000000000000071
 20
27.49999999999999
 30
0.0
  0
SEQEND
  5
C63
  8
RULER
  0
POLYLINE
  5
AD
  8
RULER
 66
     1
 10
0.0
 20
0.0
 30
0.0
  0
VERTEX
  5
36E
  8
RULER
 10
0.0000000000000018
 20
28.49999999999999
 30
0.0
  0
VERTEX
  5
36F
  8
RULER
 10
0.5000000000000053
 20
28.49999999999999
 30
0.0
  0
SEQEND
  5
C64
  8
RULER
  0
POLYLINE
  5
AE
  8
RULER
 66
     1
 10
0.0
 20
0.0
 30
0.0
  0
VERTEX
  5
370
  8
RULER
 10
0.0000000000000018
 20
29.49999999999999
 30
0.0
  0
VERTEX
  5
371
  8
RULER
 10
0.5000000000000053
 20
29.49999999999999
 30
0.0
  0
SEQEND
  5
C65
  8
RULER
  0
POLYLINE
  5
AF
  8
RULER
 66
     1
 10
0.0
 20
0.0
 30
0.0
  0
VERTEX
  5
372
  8
RULER
 10
0.0000000000000018
 20
30.5
 30
0.0
  0
VERTEX
  5
373
  8
RULER
 10
0.5000000000000053
 20
30.5
 30
0.0
  0
SEQEND
  5
C66
  8
RULER
  0
POLYLINE
  5
B0
  8
RULER
 66
     1
 10
0.0
 20
0.0
 30
0.0
  0
VERTEX
  5
374
  8
RULER
 10
0.0000000000000018
 20
31.49999999999999
 30
0.0
  0
VERTEX
  5
375
  8
RULER
 10
0.5000000000000053
 20
31.49999999999999
 30
0.0
  0
SEQEND
  5
C67
  8
RULER
  0
POLYLINE
  5
B1
  8
RULER
 66
     1
 10
0.0
 20
0.0
 30
0.0
  0
VERTEX
  5
376
  8
RULER
 10
0.0
 20
0.25
 30
0.0
  0
VERTEX
  5
377
  8
RULER
 10
0.2500000000000036
 20
0.25
 30
0.0
  0
SEQEND
  5
C68
  8
RULER
  0
POLYLINE
  5
B2
  8
RULER
 66
     1
 10
0.0
 20
0.0
 30
0.0
  0
VERTEX
  5
378
  8
RULER
 10
0.0
 20
0.75
 30
0.0
  0
VERTEX
  5
379
  8
RULER
 10
0.2500000000000036
 20
0.75
 30
0.0
  0
SEQEND
  5
C69
  8
RULER
  0
POLYLINE
  5
B3
  8
RULER
 66
     1
 10
0.0
 20
0.0
 30
0.0
  0
VERTEX
  5
37A
  8
RULER
 10
0.0
 20
1.25
 30
0.0
  0
VERTEX
  5
37B
  8
RULER
 10
0.2500000000000036
 20
1.25
 30
0.0
  0
SEQEND
  5
C6A
  8
RULER
  0
POLYLINE
  5
B4
  8
RULER
 66
     1
 10
0.0
 20
0.0
 30
0.0
  0
VERTEX
  5
37C
  8
RULER
 10
0.0
 20
1.749999999999993
 30
0.0
  0
VERTEX
  5
37D
  8
RULER
 10
0.2500000000000036
 20
1.749999999999993
 30
0.0
  0
SEQEND
  5
C6B
  8
RULER
  0
POLYLINE
  5
B5
  8
RULER
 66
     1
 10
0.0
 20
0.0
 30
0.0
  0
VERTEX
  5
37E
  8
RULER
 10
0.0
 20
2.25
 30
0.0
  0
VERTEX
  5
37F
  8
RULER
 10
0.2500000000000036
 20
2.25
 30
0.0
  0
SEQEND
  5
C6C
  8
RULER
  0
POLYLINE
  5
B6
  8
RULER
 66
     1
 10
0.0
 20
0.0
 30
0.0
  0
VERTEX
  5
380
  8
RULER
 10
0.0000000000000018
 20
2.749999999999998
 30
0.0
  0
VERTEX
  5
381
  8
RULER
 10
0.2500000000000053
 20
2.749999999999998
 30
0.0
  0
SEQEND
  5
C6D
  8
RULER
  0
POLYLINE
  5
B7
  8
RULER
 66
     1
 10
0.0
 20
0.0
 30
0.0
  0
VERTEX
  5
382
  8
RULER
 10
0.0000000000000018
 20
3.249999999999998
 30
0.0
  0
VERTEX
  5
383
  8
RULER
 10
0.2500000000000053
 20
3.249999999999998
 30
0.0
  0
SEQEND
  5
C6E
  8
RULER
  0
POLYLINE
  5
B8
  8
RULER
 66
     1
 10
0.0
 20
0.0
 30
0.0
  0
VERTEX
  5
384
  8
RULER
 10
0.0000000000000018
 20
3.749999999999998
 30
0.0
  0
VERTEX
  5
385
  8
RULER
 10
0.2500000000000053
 20
3.749999999999998
 30
0.0
  0
SEQEND
  5
C6F
  8
RULER
  0
POLYLINE
  5
B9
  8
RULER
 66
     1
 10
0.0
 20
0.0
 30
0.0
  0
VERTEX
  5
386
  8
RULER
 10
0.0000000000000018
 20
4.249999999999998
 30
0.0
  0
VERTEX
  5
387
  8
RULER
 10
0.2500000000000053
 20
4.249999999999998
 30
0.0
  0
SEQEND
  5
C70
  8
RULER
  0
POLYLINE
  5
BA
  8
RULER
 66
     1
 10
0.0
 20
0.0
 30
0.0
  0
VERTEX
  5
388
  8
RULER
 10
0.0000000000000018
 20
4.749999999999998
 30
0.0
  0
VERTEX
  5
389
  8
RULER
 10
0.2500000000000053
 20
4.749999999999998
 30
0.0
  0
SEQEND
  5
C71
  8
RULER
  0
POLYLINE
  5
BB
  8
RULER
 66
     1
 10
0.0
 20
0.0
 30
0.0
  0
VERTEX
  5
38A
  8
RULER
 10
0.0000000000000018
 20
5.249999999999998
 30
0.0
  0
VERTEX
  5
38B
  8
RULER
 10
0.2500000000000053
 20
5.249999999999998
 30
0.0
  0
SEQEND
  5
C72
  8
RULER
  0
POLYLINE
  5
BC
  8
RULER
 66
     1
 10
0.0
 20
0.0
 30
0.0
  0
VERTEX
  5
38C
  8
RULER
 10
0.0000000000000018
 20
5.749999999999998
 30
0.0
  0
VERTEX
  5
38D
  8
RULER
 10
0.2500000000000053
 20
5.749999999999998
 30
0.0
  0
SEQEND
  5
C73
  8
RULER
  0
POLYLINE
  5
BD
  8
RULER
 66
     1
 10
0.0
 20
0.0
 30
0.0
  0
VERTEX
  5
38E
  8
RULER
 10
0.0000000000000036
 20
6.249999999999998
 30
0.0
  0
VERTEX
  5
38F
  8
RULER
 10
0.2500000000000071
 20
6.249999999999998
 30
0.0
  0
SEQEND
  5
C74
  8
RULER
  0
POLYLINE
  5
BE
  8
RULER
 66
     1
 10
0.0
 20
0.0
 30
0.0
  0
VERTEX
  5
390
  8
RULER
 10
0.0000000000000036
 20
6.749999999999995
 30
0.0
  0
VERTEX
  5
391
  8
RULER
 10
0.2500000000000071
 20
6.749999999999995
 30
0.0
  0
SEQEND
  5
C75
  8
RULER
  0
POLYLINE
  5
BF
  8
RULER
 66
     1
 10
0.0
 20
0.0
 30
0.0
  0
VERTEX
  5
392
  8
RULER
 10
0.0000000000000036
 20
7.249999999999991
 30
0.0
  0
VERTEX
  5
393
  8
RULER
 10
0.2500000000000071
 20
7.249999999999991
 30
0.0
  0
SEQEND
  5
C76
  8
RULER
  0
POLYLINE
  5
C0
  8
RULER
 66
     1
 10
0.0
 20
0.0
 30
0.0
  0
VERTEX
  5
394
  8
RULER
 10
0.0000000000000036
 20
7.749999999999995
 30
0.0
  0
VERTEX
  5
395
  8
RULER
 10
0.2500000000000071
 20
7.749999999999995
 30
0.0
  0
SEQEND
  5
C77
  8
RULER
  0
POLYLINE
  5
C1
  8
RULER
 66
     1
 10
0.0
 20
0.0
 30
0.0
  0
VERTEX
  5
396
  8
RULER
 10
0.0000000000000036
 20
8.249999999999998
 30
0.0
  0
VERTEX
  5
397
  8
RULER
 10
0.2500000000000071
 20
8.249999999999998
 30
0.0
  0
SEQEND
  5
C78
  8
RULER
  0
POLYLINE
  5
C2
  8
RULER
 66
     1
 10
0.0
 20
0.0
 30
0.0
  0
VERTEX
  5
398
  8
RULER
 10
0.0000000000000036
 20
8.749999999999995
 30
0.0
  0
VERTEX
  5
399
  8
RULER
 10
0.2500000000000071
 20
8.749999999999995
 30
0.0
  0
SEQEND
  5
C79
  8
RULER
  0
POLYLINE
  5
C3
  8
RULER
 66
     1
 10
0.0
 20
0.0
 30
0.0
  0
VERTEX
  5
39A
  8
RULER
 10
0.0000000000000036
 20
9.249999999999995
 30
0.0
  0
VERTEX
  5
39B
  8
RULER
 10
0.2500000000000071
 20
9.249999999999995
 30
0.0
  0
SEQEND
  5
C7A
  8
RULER
  0
POLYLINE
  5
C4
  8
RULER
 66
     1
 10
0.0
 20
0.0
 30
0.0
  0
VERTEX
  5
39C
  8
RULER
 10
0.0000000000000036
 20
9.749999999999991
 30
0.0
  0
VERTEX
  5
39D
  8
RULER
 10
0.2500000000000071
 20
9.749999999999991
 30
0.0
  0
SEQEND
  5
C7B
  8
RULER
  0
POLYLINE
  5
C5
  8
RULER
 66
     1
 10
0.0
 20
0.0
 30
0.0
  0
VERTEX
  5
39E
  8
RULER
 10
0.0000000000000036
 20
10.24999999999999
 30
0.0
  0
VERTEX
  5
39F
  8
RULER
 10
0.2500000000000071
 20
10.24999999999999
 30
0.0
  0
SEQEND
  5
C7C
  8
RULER
  0
POLYLINE
  5
C6
  8
RULER
 66
     1
 10
0.0
 20
0.0
 30
0.0
  0
VERTEX
  5
3A0
  8
RULER
 10
0.0000000000000036
 20
10.75
 30
0.0
  0
VERTEX
  5
3A1
  8
RULER
 10
0.2500000000000071
 20
10.75
 30
0.0
  0
SEQEND
  5
C7D
  8
RULER
  0
POLYLINE
  5
C7
  8
RULER
 66
     1
 10
0.0
 20
0.0
 30
0.0
  0
VERTEX
  5
3A2
  8
RULER
 10
0.0000000000000036
 20
11.24999999999999
 30
0.0
  0
VERTEX
  5
3A3
  8
RULER
 10
0.2500000000000071
 20
11.24999999999999
 30
0.0
  0
SEQEND
  5
C7E
  8
RULER
  0
POLYLINE
  5
C8
  8
RULER
 66
     1
 10
0.0
 20
0.0
 30
0.0
  0
VERTEX
  5
3A4
  8
RULER
 10
0.0
 20
11.74999999999999
 30
0.0
  0
VERTEX
  5
3A5
  8
RULER
 10
0.2500000000000036
 20
11.74999999999999
 30
0.0
  0
SEQEND
  5
C7F
  8
RULER
  0
POLYLINE
  5
C9
  8
RULER
 66
     1
 10
0.0
 20
0.0
 30
0.0
  0
VERTEX
  5
3A6
  8
RULER
 10
0.0
 20
12.24999999999999
 30
0.0
  0
VERTEX
  5
3A7
  8
RULER
 10
0.2500000000000036
 20
12.24999999999999
 30
0.0
  0
SEQEND
  5
C80
  8
RULER
  0
POLYLINE
  5
CA
  8
RULER
 66
     1
 10
0.0
 20
0.0
 30
0.0
  0
VERTEX
  5
3A8
  8
RULER
 10
0.0
 20
12.74999999999999
 30
0.0
  0
VERTEX
  5
3A9
  8
RULER
 10
0.2500000000000036
 20
12.74999999999999
 30
0.0
  0
SEQEND
  5
C81
  8
RULER
  0
POLYLINE
  5
CB
  8
RULER
 66
     1
 10
0.0
 20
0.0
 30
0.0
  0
VERTEX
  5
3AA
  8
RULER
 10
0.0
 20
13.24999999999999
 30
0.0
  0
VERTEX
  5
3AB
  8
RULER
 10
0.2500000000000036
 20
13.24999999999999
 30
0.0
  0
SEQEND
  5
C82
  8
RULER
  0
POLYLINE
  5
CC
  8
RULER
 66
     1
 10
0.0
 20
0.0
 30
0.0
  0
VERTEX
  5
3AC
  8
RULER
 10
0.0
 20
13.74999999999999
 30
0.0
  0
VERTEX
  5
3AD
  8
RULER
 10
0.2500000000000036
 20
13.74999999999999
 30
0.0
  0
SEQEND
  5
C83
  8
RULER
  0
POLYLINE
  5
CD
  8
RULER
 66
     1
 10
0.0
 20
0.0
 30
0.0
  0
VERTEX
  5
3AE
  8
RULER
 10
0.0
 20
14.24999999999999
 30
0.0
  0
VERTEX
  5
3AF
  8
RULER
 10
0.2500000000000036
 20
14.24999999999999
 30
0.0
  0
SEQEND
  5
C84
  8
RULER
  0
POLYLINE
  5
CE
  8
RULER
 66
     1
 10
0.0
 20
0.0
 30
0.0
  0
VERTEX
  5
3B0
  8
RULER
 10
0.0
 20
14.74999999999999
 30
0.0
  0
VERTEX
  5
3B1
  8
RULER
 10
0.2500000000000036
 20
14.74999999999999
 30
0.0
  0
SEQEND
  5
C85
  8
RULER
  0
POLYLINE
  5
CF
  8
RULER
 66
     1
 10
0.0
 20
0.0
 30
0.0
  0
VERTEX
  5
3B2
  8
RULER
 10
0.0
 20
15.24999999999999
 30
0.0
  0
VERTEX
  5
3B3
  8
RULER
 10
0.2500000000000036
 20
15.24999999999999
 30
0.0
  0
SEQEND
  5
C86
  8
RULER
  0
POLYLINE
  5
D0
  8
RULER
 66
     1
 10
0.0
 20
0.0
 30
0.0
  0
VERTEX
  5
3B4
  8
RULER
 10
0.0
 20
15.74999999999999
 30
0.0
  0
VERTEX
  5
3B5
  8
RULER
 10
0.2500000000000036
 20
15.74999999999999
 30
0.0
  0
SEQEND
  5
C87
  8
RULER
  0
POLYLINE
  5
D1
  8
RULER
 66
     1
 10
0.0
 20
0.0
 30
0.0
  0
VERTEX
  5
3B6
  8
RULER
 10
0.0000000000000036
 20
16.24999999999999
 30
0.0
  0
VERTEX
  5
3B7
  8
RULER
 10
0.2500000000000071
 20
16.24999999999999
 30
0.0
  0
SEQEND
  5
C88
  8
RULER
  0
POLYLINE
  5
D2
  8
RULER
 66
     1
 10
0.0
 20
0.0
 30
0.0
  0
VERTEX
  5
3B8
  8
RULER
 10
0.0000000000000018
 20
16.74999999999999
 30
0.0
  0
VERTEX
  5
3B9
  8
RULER
 10
0.2500000000000053
 20
16.74999999999999
 30
0.0
  0
SEQEND
  5
C89
  8
RULER
  0
POLYLINE
  5
D3
  8
RULER
 66
     1
 10
0.0
 20
0.0
 30
0.0
  0
VERTEX
  5
3BA
  8
RULER
 10
0.0000000000000018
 20
17.24999999999999
 30
0.0
  0
VERTEX
  5
3BB
  8
RULER
 10
0.2500000000000053
 20
17.24999999999999
 30
0.0
  0
SEQEND
  5
C8A
  8
RULER
  0
POLYLINE
  5
D4
  8
RULER
 66
     1
 10
0.0
 20
0.0
 30
0.0
  0
VERTEX
  5
3BC
  8
RULER
 10
0.0000000000000018
 20
17.74999999999999
 30
0.0
  0
VERTEX
  5
3BD
  8
RULER
 10
0.2500000000000053
 20
17.74999999999999
 30
0.0
  0
SEQEND
  5
C8B
  8
RULER
  0
POLYLINE
  5
D5
  8
RULER
 66
     1
 10
0.0
 20
0.0
 30
0.0
  0
VERTEX
  5
3BE
  8
RULER
 10
0.0000000000000018
 20
18.24999999999999
 30
0.0
  0
VERTEX
  5
3BF
  8
RULER
 10
0.2500000000000053
 20
18.24999999999999
 30
0.0
  0
SEQEND
  5
C8C
  8
RULER
  0
POLYLINE
  5
D6
  8
RULER
 66
     1
 10
0.0
 20
0.0
 30
0.0
  0
VERTEX
  5
3C0
  8
RULER
 10
0.0000000000000018
 20
18.74999999999999
 30
0.0
  0
VERTEX
  5
3C1
  8
RULER
 10
0.2500000000000053
 20
18.74999999999999
 30
0.0
  0
SEQEND
  5
C8D
  8
RULER
  0
POLYLINE
  5
D7
  8
RULER
 66
     1
 10
0.0
 20
0.0
 30
0.0
  0
VERTEX
  5
3C2
  8
RULER
 10
0.0000000000000018
 20
19.24999999999999
 30
0.0
  0
VERTEX
  5
3C3
  8
RULER
 10
0.2500000000000053
 20
19.24999999999999
 30
0.0
  0
SEQEND
  5
C8E
  8
RULER
  0
POLYLINE
  5
D8
  8
RULER
 66
     1
 10
0.0
 20
0.0
 30
0.0
  0
VERTEX
  5
3C4
  8
RULER
 10
0.0000000000000018
 20
19.74999999999999
 30
0.0
  0
VERTEX
  5
3C5
  8
RULER
 10
0.2500000000000053
 20
19.74999999999999
 30
0.0
  0
SEQEND
  5
C8F
  8
RULER
  0
POLYLINE
  5
D9
  8
RULER
 66
     1
 10
0.0
 20
0.0
 30
0.0
  0
VERTEX
  5
3C6
  8
RULER
 10
0.0000000000000018
 20
20.24999999999999
 30
0.0
  0
VERTEX
  5
3C7
  8
RULER
 10
0.2500000000000053
 20
20.24999999999999
 30
0.0
  0
SEQEND
  5
C90
  8
RULER
  0
POLYLINE
  5
DA
  8
RULER
 66
     1
 10
0.0
 20
0.0
 30
0.0
  0
VERTEX
  5
3C8
  8
RULER
 10
0.0000000000000053
 20
20.74999999999999
 30
0.0
  0
VERTEX
  5
3C9
  8
RULER
 10
0.2500000000000089
 20
20.74999999999999
 30
0.0
  0
SEQEND
  5
C91
  8
RULER
  0
POLYLINE
  5
DB
  8
RULER
 66
     1
 10
0.0
 20
0.0
 30
0.0
  0
VERTEX
  5
3CA
  8
RULER
 10
0.0000000000000053
 20
21.24999999999999
 30
0.0
  0
VERTEX
  5
3CB
  8
RULER
 10
0.2500000000000089
 20
21.24999999999999
 30
0.0
  0
SEQEND
  5
C92
  8
RULER
  0
POLYLINE
  5
DC
  8
RULER
 66
     1
 10
0.0
 20
0.0
 30
0.0
  0
VERTEX
  5
3CC
  8
RULER
 10
0.0000000000000053
 20
21.74999999999999
 30
0.0
  0
VERTEX
  5
3CD
  8
RULER
 10
0.2500000000000089
 20
21.74999999999999
 30
0.0
  0
SEQEND
  5
C93
  8
RULER
  0
POLYLINE
  5
DD
  8
RULER
 66
     1
 10
0.0
 20
0.0
 30
0.0
  0
VERTEX
  5
3CE
  8
RULER
 10
0.0000000000000053
 20
22.24999999999999
 30
0.0
  0
VERTEX
  5
3CF
  8
RULER
 10
0.2500000000000089
 20
22.24999999999999
 30
0.0
  0
SEQEND
  5
C94
  8
RULER
  0
POLYLINE
  5
DE
  8
RULER
 66
     1
 10
0.0
 20
0.0
 30
0.0
  0
VERTEX
  5
3D0
  8
RULER
 10
0.0000000000000053
 20
22.75
 30
0.0
  0
VERTEX
  5
3D1
  8
RULER
 10
0.2500000000000089
 20
22.75
 30
0.0
  0
SEQEND
  5
C95
  8
RULER
  0
POLYLINE
  5
DF
  8
RULER
 66
     1
 10
0.0
 20
0.0
 30
0.0
  0
VERTEX
  5
3D2
  8
RULER
 10
0.0000000000000053
 20
23.24999999999999
 30
0.0
  0
VERTEX
  5
3D3
  8
RULER
 10
0.2500000000000089
 20
23.24999999999999
 30
0.0
  0
SEQEND
  5
C96
  8
RULER
  0
POLYLINE
  5
E0
  8
RULER
 66
     1
 10
0.0
 20
0.0
 30
0.0
  0
VERTEX
  5
3D4
  8
RULER
 10
0.0000000000000053
 20
23.74999999999999
 30
0.0
  0
VERTEX
  5
3D5
  8
RULER
 10
0.2500000000000089
 20
23.74999999999999
 30
0.0
  0
SEQEND
  5
C97
  8
RULER
  0
POLYLINE
  5
E1
  8
RULER
 66
     1
 10
0.0
 20
0.0
 30
0.0
  0
VERTEX
  5
3D6
  8
RULER
 10
0.0000000000000053
 20
24.24999999999999
 30
0.0
  0
VERTEX
  5
3D7
  8
RULER
 10
0.2500000000000089
 20
24.24999999999999
 30
0.0
  0
SEQEND
  5
C98
  8
RULER
  0
POLYLINE
  5
E2
  8
RULER
 66
     1
 10
0.0
 20
0.0
 30
0.0
  0
VERTEX
  5
3D8
  8
RULER
 10
0.0000000000000053
 20
24.74999999999999
 30
0.0
  0
VERTEX
  5
3D9
  8
RULER
 10
0.2500000000000089
 20
24.74999999999999
 30
0.0
  0
SEQEND
  5
C99
  8
RULER
  0
POLYLINE
  5
E3
  8
RULER
 66
     1
 10
0.0
 20
0.0
 30
0.0
  0
VERTEX
  5
3DA
  8
RULER
 10
0.0000000000000053
 20
25.25
 30
0.0
  0
VERTEX
  5
3DB
  8
RULER
 10
0.2500000000000089
 20
25.25
 30
0.0
  0
SEQEND
  5
C9A
  8
RULER
  0
POLYLINE
  5
E4
  8
RULER
 66
     1
 10
0.0
 20
0.0
 30
0.0
  0
VERTEX
  5
3DC
  8
RULER
 10
0.0000000000000053
 20
25.75
 30
0.0
  0
VERTEX
  5
3DD
  8
RULER
 10
0.2500000000000089
 20
25.75
 30
0.0
  0
SEQEND
  5
C9B
  8
RULER
  0
POLYLINE
  5
E5
  8
RULER
 66
     1
 10
0.0
 20
0.0
 30
0.0
  0
VERTEX
  5
3DE
  8
RULER
 10
0.0000000000000036
 20
26.24999999999999
 30
0.0
  0
VERTEX
  5
3DF
  8
RULER
 10
0.2500000000000071
 20
26.24999999999999
 30
0.0
  0
SEQEND
  5
C9C
  8
RULER
  0
POLYLINE
  5
E6
  8
RULER
 66
     1
 10
0.0
 20
0.0
 30
0.0
  0
VERTEX
  5
3E0
  8
RULER
 10
0.0000000000000036
 20
26.75
 30
0.0
  0
VERTEX
  5
3E1
  8
RULER
 10
0.2500000000000071
 20
26.75
 30
0.0
  0
SEQEND
  5
C9D
  8
RULER
  0
POLYLINE
  5
E7
  8
RULER
 66
     1
 10
0.0
 20
0.0
 30
0.0
  0
VERTEX
  5
3E2
  8
RULER
 10
0.0000000000000036
 20
27.24999999999999
 30
0.0
  0
VERTEX
  5
3E3
  8
RULER
 10
0.2500000000000071
 20
27.24999999999999
 30
0.0
  0
SEQEND
  5
C9E
  8
RULER
  0
POLYLINE
  5
E8
  8
RULER
 66
     1
 10
0.0
 20
0.0
 30
0.0
  0
VERTEX
  5
3E4
  8
RULER
 10
0.0000000000000036
 20
27.74999999999999
 30
0.0
  0
VERTEX
  5
3E5
  8
RULER
 10
0.2500000000000071
 20
27.74999999999999
 30
0.0
  0
SEQEND
  5
C9F
  8
RULER
  0
POLYLINE
  5
E9
  8
RULER
 66
     1
 10
0.0
 20
0.0
 30
0.0
  0
VERTEX
  5
3E6
  8
RULER
 10
0.0000000000000018
 20
28.24999999999999
 30
0.0
  0
VERTEX
  5
3E7
  8
RULER
 10
0.2500000000000053
 20
28.24999999999999
 30
0.0
  0
SEQEND
  5
CA0
  8
RULER
  0
POLYLINE
  5
EA
  8
RULER
 66
     1
 10
0.0
 20
0.0
 30
0.0
  0
VERTEX
  5
3E8
  8
RULER
 10
0.0000000000000018
 20
28.74999999999999
 30
0.0
  0
VERTEX
  5
3E9
  8
RULER
 10
0.2500000000000053
 20
28.74999999999999
 30
0.0
  0
SEQEND
  5
CA1
  8
RULER
  0
POLYLINE
  5
EB
  8
RULER
 66
     1
 10
0.0
 20
0.0
 30
0.0
  0
VERTEX
  5
3EA
  8
RULER
 10
0.0000000000000018
 20
29.25
 30
0.0
  0
VERTEX
  5
3EB
  8
RULER
 10
0.2500000000000053
 20
29.25
 30
0.0
  0
SEQEND
  5
CA2
  8
RULER
  0
POLYLINE
  5
EC
  8
RULER
 66
     1
 10
0.0
 20
0.0
 30
0.0
  0
VERTEX
  5
3EC
  8
RULER
 10
0.0000000000000018
 20
29.74999999999999
 30
0.0
  0
VERTEX
  5
3ED
  8
RULER
 10
0.2500000000000053
 20
29.74999999999999
 30
0.0
  0
SEQEND
  5
CA3
  8
RULER
  0
POLYLINE
  5
ED
  8
RULER
 66
     1
 10
0.0
 20
0.0
 30
0.0
  0
VERTEX
  5
3EE
  8
RULER
 10
0.0000000000000018
 20
30.24999999999999
 30
0.0
  0
VERTEX
  5
3EF
  8
RULER
 10
0.2500000000000053
 20
30.24999999999999
 30
0.0
  0
SEQEND
  5
CA4
  8
RULER
  0
POLYLINE
  5
EE
  8
RULER
 66
     1
 10
0.0
 20
0.0
 30
0.0
  0
VERTEX
  5
3F0
  8
RULER
 10
0.0000000000000018
 20
30.75
 30
0.0
  0
VERTEX
  5
3F1
  8
RULER
 10
0.2500000000000053
 20
30.75
 30
0.0
  0
SEQEND
  5
CA5
  8
RULER
  0
POLYLINE
  5
EF
  8
RULER
 66
     1
 10
0.0
 20
0.0
 30
0.0
  0
VERTEX
  5
3F2
  8
RULER
 10
0.0000000000000018
 20
31.24999999999999
 30
0.0
  0
VERTEX
  5
3F3
  8
RULER
 10
0.2500000000000053
 20
31.24999999999999
 30
0.0
  0
SEQEND
  5
CA6
  8
RULER
  0
POLYLINE
  5
F0
  8
RULER
 66
     1
 10
0.0
 20
0.0
 30
0.0
  0
VERTEX
  5
3F4
  8
RULER
 10
0.0000000000000018
 20
31.75
 30
0.0
  0
VERTEX
  5
3F5
  8
RULER
 10
0.2500000000000053
 20
31.75
 30
0.0
  0
SEQEND
  5
CA7
  8
RULER
  0
POLYLINE
  5
F1
  8
RULER
 66
     1
 10
0.0
 20
0.0
 30
0.0
  0
VERTEX
  5
3F6
  8
RULER
 10
0.0
 20
0.125
 30
0.0
  0
VERTEX
  5
3F7
  8
RULER
 10
0.1250000000000018
 20
0.125
 30
0.0
  0
SEQEND
  5
CA8
  8
RULER
  0
POLYLINE
  5
F2
  8
RULER
 66
     1
 10
0.0
 20
0.0
 30
0.0
  0
VERTEX
  5
3F8
  8
RULER
 10
0.0
 20
0.375
 30
0.0
  0
VERTEX
  5
3F9
  8
RULER
 10
0.1250000000000018
 20
0.375
 30
0.0
  0
SEQEND
  5
CA9
  8
RULER
  0
POLYLINE
  5
F3
  8
RULER
 66
     1
 10
0.0
 20
0.0
 30
0.0
  0
VERTEX
  5
3FA
  8
RULER
 10
0.0
 20
0.625
 30
0.0
  0
VERTEX
  5
3FB
  8
RULER
 10
0.1250000000000018
 20
0.625
 30
0.0
  0
SEQEND
  5
CAA
  8
RULER
  0
POLYLINE
  5
F4
  8
RULER
 66
     1
 10
0.0
 20
0.0
 30
0.0
  0
VERTEX
  5
3FC
  8
RULER
 10
0.0
 20
0.875
 30
0.0
  0
VERTEX
  5
3FD
  8
RULER
 10
0.1250000000000018
 20
0.875
 30
0.0
  0
SEQEND
  5
CAB
  8
RULER
  0
POLYLINE
  5
F5
  8
RULER
 66
     1
 10
0.0
 20
0.0
 30
0.0
  0
VERTEX
  5
3FE
  8
RULER
 10
0.0
 20
1.124999999999993
 30
0.0
  0
VERTEX
  5
3FF
  8
RULER
 10
0.1250000000000018
 20
1.124999999999993
 30
0.0
  0
SEQEND
  5
CAC
  8
RULER
  0
POLYLINE
  5
F6
  8
RULER
 66
     1
 10
0.0
 20
0.0
 30
0.0
  0
VERTEX
  5
400
  8
RULER
 10
0.0
 20
1.375
 30
0.0
  0
VERTEX
  5
401
  8
RULER
 10
0.1250000000000018
 20
1.375
 30
0.0
  0
SEQEND
  5
CAD
  8
RULER
  0
POLYLINE
  5
F7
  8
RULER
 66
     1
 10
0.0
 20
0.0
 30
0.0
  0
VERTEX
  5
402
  8
RULER
 10
0.0
 20
1.625
 30
0.0
  0
VERTEX
  5
403
  8
RULER
 10
0.1250000000000018
 20
1.625
 30
0.0
  0
SEQEND
  5
CAE
  8
RULER
  0
POLYLINE
  5
F8
  8
RULER
 66
     1
 10
0.0
 20
0.0
 30
0.0
  0
VERTEX
  5
404
  8
RULER
 10
0.0
 20
1.875
 30
0.0
  0
VERTEX
  5
405
  8
RULER
 10
0.1250000000000018
 20
1.875
 30
0.0
  0
SEQEND
  5
CAF
  8
RULER
  0
POLYLINE
  5
F9
  8
RULER
 66
     1
 10
0.0
 20
0.0
 30
0.0
  0
VERTEX
  5
406
  8
RULER
 10
0.0
 20
2.125
 30
0.0
  0
VERTEX
  5
407
  8
RULER
 10
0.1250000000000018
 20
2.125
 30
0.0
  0
SEQEND
  5
CB0
  8
RULER
  0
POLYLINE
  5
FA
  8
RULER
 66
     1
 10
0.0
 20
0.0
 30
0.0
  0
VERTEX
  5
408
  8
RULER
 10
0.0000000000000018
 20
2.375
 30
0.0
  0
VERTEX
  5
409
  8
RULER
 10
0.1250000000000036
 20
2.375
 30
0.0
  0
SEQEND
  5
CB1
  8
RULER
  0
POLYLINE
  5
FB
  8
RULER
 66
     1
 10
0.0
 20
0.0
 30
0.0
  0
VERTEX
  5
40A
  8
RULER
 10
0.0000000000000018
 20
2.625
 30
0.0
  0
VERTEX
  5
40B
  8
RULER
 10
0.1250000000000036
 20
2.625
 30
0.0
  0
SEQEND
  5
CB2
  8
RULER
  0
POLYLINE
  5
FC
  8
RULER
 66
     1
 10
0.0
 20
0.0
 30
0.0
  0
VERTEX
  5
40C
  8
RULER
 10
0.0000000000000018
 20
2.874999999999998
 30
0.0
  0
VERTEX
  5
40D
  8
RULER
 10
0.1250000000000036
 20
2.874999999999998
 30
0.0
  0
SEQEND
  5
CB3
  8
RULER
  0
POLYLINE
  5
FD
  8
RULER
 66
     1
 10
0.0
 20
0.0
 30
0.0
  0
VERTEX
  5
40E
  8
RULER
 10
0.0000000000000018
 20
3.124999999999998
 30
0.0
  0
VERTEX
  5
40F
  8
RULER
 10
0.1250000000000036
 20
3.124999999999998
 30
0.0
  0
SEQEND
  5
CB4
  8
RULER
  0
POLYLINE
  5
FE
  8
RULER
 66
     1
 10
0.0
 20
0.0
 30
0.0
  0
VERTEX
  5
410
  8
RULER
 10
0.0000000000000018
 20
3.374999999999998
 30
0.0
  0
VERTEX
  5
411
  8
RULER
 10
0.1250000000000036
 20
3.374999999999998
 30
0.0
  0
SEQEND
  5
CB5
  8
RULER
  0
POLYLINE
  5
FF
  8
RULER
 66
     1
 10
0.0
 20
0.0
 30
0.0
  0
VERTEX
  5
412
  8
RULER
 10
0.0000000000000018
 20
3.624999999999998
 30
0.0
  0
VERTEX
  5
413
  8
RULER
 10
0.1250000000000036
 20
3.624999999999998
 30
0.0
  0
SEQEND
  5
CB6
  8
RULER
  0
POLYLINE
  5
100
  8
RULER
 66
     1
 10
0.0
 20
0.0
 30
0.0
  0
VERTEX
  5
414
  8
RULER
 10
0.0000000000000018
 20
3.874999999999998
 30
0.0
  0
VERTEX
  5
415
  8
RULER
 10
0.1250000000000036
 20
3.874999999999998
 30
0.0
  0
SEQEND
  5
CB7
  8
RULER
  0
POLYLINE
  5
101
  8
RULER
 66
     1
 10
0.0
 20
0.0
 30
0.0
  0
VERTEX
  5
416
  8
RULER
 10
0.0000000000000018
 20
4.124999999999998
 30
0.0
  0
VERTEX
  5
417
  8
RULER
 10
0.1250000000000036
 20
4.124999999999998
 30
0.0
  0
SEQEND
  5
CB8
  8
RULER
  0
POLYLINE
  5
102
  8
RULER
 66
     1
 10
0.0
 20
0.0
 30
0.0
  0
VERTEX
  5
418
  8
RULER
 10
0.0000000000000018
 20
4.374999999999998
 30
0.0
  0
VERTEX
  5
419
  8
RULER
 10
0.1250000000000036
 20
4.374999999999998
 30
0.0
  0
SEQEND
  5
CB9
  8
RULER
  0
POLYLINE
  5
103
  8
RULER
 66
     1
 10
0.0
 20
0.0
 30
0.0
  0
VERTEX
  5
41A
  8
RULER
 10
0.0000000000000018
 20
4.624999999999998
 30
0.0
  0
VERTEX
  5
41B
  8
RULER
 10
0.1250000000000036
 20
4.624999999999998
 30
0.0
  0
SEQEND
  5
CBA
  8
RULER
  0
POLYLINE
  5
104
  8
RULER
 66
     1
 10
0.0
 20
0.0
 30
0.0
  0
VERTEX
  5
41C
  8
RULER
 10
0.0000000000000018
 20
4.874999999999998
 30
0.0
  0
VERTEX
  5
41D
  8
RULER
 10
0.1250000000000036
 20
4.874999999999998
 30
0.0
  0
SEQEND
  5
CBB
  8
RULER
  0
POLYLINE
  5
105
  8
RULER
 66
     1
 10
0.0
 20
0.0
 30
0.0
  0
VERTEX
  5
41E
  8
RULER
 10
0.0000000000000018
 20
5.124999999999998
 30
0.0
  0
VERTEX
  5
41F
  8
RULER
 10
0.1250000000000036
 20
5.124999999999998
 30
0.0
  0
SEQEND
  5
CBC
  8
RULER
  0
POLYLINE
  5
106
  8
RULER
 66
     1
 10
0.0
 20
0.0
 30
0.0
  0
VERTEX
  5
420
  8
RULER
 10
0.0000000000000018
 20
5.374999999999998
 30
0.0
  0
VERTEX
  5
421
  8
RULER
 10
0.1250000000000036
 20
5.374999999999998
 30
0.0
  0
SEQEND
  5
CBD
  8
RULER
  0
POLYLINE
  5
107
  8
RULER
 66
     1
 10
0.0
 20
0.0
 30
0.0
  0
VERTEX
  5
422
  8
RULER
 10
0.0000000000000018
 20
5.624999999999998
 30
0.0
  0
VERTEX
  5
423
  8
RULER
 10
0.1250000000000036
 20
5.624999999999998
 30
0.0
  0
SEQEND
  5
CBE
  8
RULER
  0
POLYLINE
  5
108
  8
RULER
 66
     1
 10
0.0
 20
0.0
 30
0.0
  0
VERTEX
  5
424
  8
RULER
 10
0.0000000000000018
 20
5.874999999999998
 30
0.0
  0
VERTEX
  5
425
  8
RULER
 10
0.1250000000000036
 20
5.874999999999998
 30
0.0
  0
SEQEND
  5
CBF
  8
RULER
  0
POLYLINE
  5
109
  8
RULER
 66
     1
 10
0.0
 20
0.0
 30
0.0
  0
VERTEX
  5
426
  8
RULER
 10
0.0000000000000018
 20
6.124999999999998
 30
0.0
  0
VERTEX
  5
427
  8
RULER
 10
0.1250000000000036
 20
6.124999999999998
 30
0.0
  0
SEQEND
  5
CC0
  8
RULER
  0
POLYLINE
  5
10A
  8
RULER
 66
     1
 10
0.0
 20
0.0
 30
0.0
  0
VERTEX
  5
428
  8
RULER
 10
0.0000000000000036
 20
6.374999999999998
 30
0.0
  0
VERTEX
  5
429
  8
RULER
 10
0.1250000000000053
 20
6.374999999999998
 30
0.0
  0
SEQEND
  5
CC1
  8
RULER
  0
POLYLINE
  5
10B
  8
RULER
 66
     1
 10
0.0
 20
0.0
 30
0.0
  0
VERTEX
  5
42A
  8
RULER
 10
0.0000000000000036
 20
6.624999999999991
 30
0.0
  0
VERTEX
  5
42B
  8
RULER
 10
0.1250000000000053
 20
6.624999999999991
 30
0.0
  0
SEQEND
  5
CC2
  8
RULER
  0
POLYLINE
  5
10C
  8
RULER
 66
     1
 10
0.0
 20
0.0
 30
0.0
  0
VERTEX
  5
42C
  8
RULER
 10
0.0000000000000036
 20
6.874999999999995
 30
0.0
  0
VERTEX
  5
42D
  8
RULER
 10
0.1250000000000053
 20
6.874999999999995
 30
0.0
  0
SEQEND
  5
CC3
  8
RULER
  0
POLYLINE
  5
10D
  8
RULER
 66
     1
 10
0.0
 20
0.0
 30
0.0
  0
VERTEX
  5
42E
  8
RULER
 10
0.0000000000000036
 20
7.124999999999995
 30
0.0
  0
VERTEX
  5
42F
  8
RULER
 10
0.1250000000000053
 20
7.124999999999995
 30
0.0
  0
SEQEND
  5
CC4
  8
RULER
  0
POLYLINE
  5
10E
  8
RULER
 66
     1
 10
0.0
 20
0.0
 30
0.0
  0
VERTEX
  5
430
  8
RULER
 10
0.0000000000000036
 20
7.374999999999995
 30
0.0
  0
VERTEX
  5
431
  8
RULER
 10
0.1250000000000053
 20
7.374999999999995
 30
0.0
  0
SEQEND
  5
CC5
  8
RULER
  0
POLYLINE
  5
10F
  8
RULER
 66
     1
 10
0.0
 20
0.0
 30
0.0
  0
VERTEX
  5
432
  8
RULER
 10
0.0000000000000036
 20
7.624999999999998
 30
0.0
  0
VERTEX
  5
433
  8
RULER
 10
0.1250000000000053
 20
7.624999999999998
 30
0.0
  0
SEQEND
  5
CC6
  8
RULER
  0
POLYLINE
  5
110
  8
RULER
 66
     1
 10
0.0
 20
0.0
 30
0.0
  0
VERTEX
  5
434
  8
RULER
 10
0.0000000000000036
 20
7.874999999999991
 30
0.0
  0
VERTEX
  5
435
  8
RULER
 10
0.1250000000000053
 20
7.874999999999991
 30
0.0
  0
SEQEND
  5
CC7
  8
RULER
  0
POLYLINE
  5
111
  8
RULER
 66
     1
 10
0.0
 20
0.0
 30
0.0
  0
VERTEX
  5
436
  8
RULER
 10
0.0000000000000036
 20
8.124999999999995
 30
0.0
  0
VERTEX
  5
437
  8
RULER
 10
0.1250000000000053
 20
8.124999999999995
 30
0.0
  0
SEQEND
  5
CC8
  8
RULER
  0
POLYLINE
  5
112
  8
RULER
 66
     1
 10
0.0
 20
0.0
 30
0.0
  0
VERTEX
  5
438
  8
RULER
 10
0.0000000000000036
 20
8.374999999999995
 30
0.0
  0
VERTEX
  5
439
  8
RULER
 10
0.1250000000000053
 20
8.374999999999995
 30
0.0
  0
SEQEND
  5
CC9
  8
RULER
  0
POLYLINE
  5
113
  8
RULER
 66
     1
 10
0.0
 20
0.0
 30
0.0
  0
VERTEX
  5
43A
  8
RULER
 10
0.0000000000000036
 20
8.624999999999995
 30
0.0
  0
VERTEX
  5
43B
  8
RULER
 10
0.1250000000000053
 20
8.624999999999995
 30
0.0
  0
SEQEND
  5
CCA
  8
RULER
  0
POLYLINE
  5
114
  8
RULER
 66
     1
 10
0.0
 20
0.0
 30
0.0
  0
VERTEX
  5
43C
  8
RULER
 10
0.0000000000000036
 20
8.874999999999995
 30
0.0
  0
VERTEX
  5
43D
  8
RULER
 10
0.1250000000000053
 20
8.874999999999995
 30
0.0
  0
SEQEND
  5
CCB
  8
RULER
  0
POLYLINE
  5
115
  8
RULER
 66
     1
 10
0.0
 20
0.0
 30
0.0
  0
VERTEX
  5
43E
  8
RULER
 10
0.0000000000000036
 20
9.124999999999991
 30
0.0
  0
VERTEX
  5
43F
  8
RULER
 10
0.1250000000000036
 20
9.124999999999991
 30
0.0
  0
SEQEND
  5
CCC
  8
RULER
  0
POLYLINE
  5
116
  8
RULER
 66
     1
 10
0.0
 20
0.0
 30
0.0
  0
VERTEX
  5
440
  8
RULER
 10
0.0000000000000036
 20
9.374999999999995
 30
0.0
  0
VERTEX
  5
441
  8
RULER
 10
0.1250000000000036
 20
9.374999999999995
 30
0.0
  0
SEQEND
  5
CCD
  8
RULER
  0
POLYLINE
  5
117
  8
RULER
 66
     1
 10
0.0
 20
0.0
 30
0.0
  0
VERTEX
  5
442
  8
RULER
 10
0.0000000000000036
 20
9.624999999999995
 30
0.0
  0
VERTEX
  5
443
  8
RULER
 10
0.1250000000000036
 20
9.624999999999995
 30
0.0
  0
SEQEND
  5
CCE
  8
RULER
  0
POLYLINE
  5
118
  8
RULER
 66
     1
 10
0.0
 20
0.0
 30
0.0
  0
VERTEX
  5
444
  8
RULER
 10
0.0000000000000036
 20
9.874999999999995
 30
0.0
  0
VERTEX
  5
445
  8
RULER
 10
0.1250000000000036
 20
9.874999999999995
 30
0.0
  0
SEQEND
  5
CCF
  8
RULER
  0
POLYLINE
  5
119
  8
RULER
 66
     1
 10
0.0
 20
0.0
 30
0.0
  0
VERTEX
  5
446
  8
RULER
 10
0.0000000000000036
 20
10.125
 30
0.0
  0
VERTEX
  5
447
  8
RULER
 10
0.1250000000000036
 20
10.125
 30
0.0
  0
SEQEND
  5
CD0
  8
RULER
  0
POLYLINE
  5
11A
  8
RULER
 66
     1
 10
0.0
 20
0.0
 30
0.0
  0
VERTEX
  5
448
  8
RULER
 10
0.0000000000000036
 20
10.37499999999999
 30
0.0
  0
VERTEX
  5
449
  8
RULER
 10
0.1250000000000036
 20
10.37499999999999
 30
0.0
  0
SEQEND
  5
CD1
  8
RULER
  0
POLYLINE
  5
11B
  8
RULER
 66
     1
 10
0.0
 20
0.0
 30
0.0
  0
VERTEX
  5
44A
  8
RULER
 10
0.0000000000000036
 20
10.62499999999999
 30
0.0
  0
VERTEX
  5
44B
  8
RULER
 10
0.1250000000000036
 20
10.62499999999999
 30
0.0
  0
SEQEND
  5
CD2
  8
RULER
  0
POLYLINE
  5
11C
  8
RULER
 66
     1
 10
0.0
 20
0.0
 30
0.0
  0
VERTEX
  5
44C
  8
RULER
 10
0.0000000000000036
 20
10.87499999999999
 30
0.0
  0
VERTEX
  5
44D
  8
RULER
 10
0.1250000000000036
 20
10.87499999999999
 30
0.0
  0
SEQEND
  5
CD3
  8
RULER
  0
POLYLINE
  5
11D
  8
RULER
 66
     1
 10
0.0
 20
0.0
 30
0.0
  0
VERTEX
  5
44E
  8
RULER
 10
0.0000000000000036
 20
11.12499999999999
 30
0.0
  0
VERTEX
  5
44F
  8
RULER
 10
0.1250000000000036
 20
11.12499999999999
 30
0.0
  0
SEQEND
  5
CD4
  8
RULER
  0
POLYLINE
  5
11E
  8
RULER
 66
     1
 10
0.0
 20
0.0
 30
0.0
  0
VERTEX
  5
450
  8
RULER
 10
0.0000000000000036
 20
11.375
 30
0.0
  0
VERTEX
  5
451
  8
RULER
 10
0.1250000000000071
 20
11.375
 30
0.0
  0
SEQEND
  5
CD5
  8
RULER
  0
POLYLINE
  5
11F
  8
RULER
 66
     1
 10
0.0
 20
0.0
 30
0.0
  0
VERTEX
  5
452
  8
RULER
 10
0.0
 20
11.62499999999999
 30
0.0
  0
VERTEX
  5
453
  8
RULER
 10
0.1250000000000036
 20
11.62499999999999
 30
0.0
  0
SEQEND
  5
CD6
  8
RULER
  0
POLYLINE
  5
120
  8
RULER
 66
     1
 10
0.0
 20
0.0
 30
0.0
  0
VERTEX
  5
454
  8
RULER
 10
0.0
 20
11.87499999999999
 30
0.0
  0
VERTEX
  5
455
  8
RULER
 10
0.1250000000000036
 20
11.87499999999999
 30
0.0
  0
SEQEND
  5
CD7
  8
RULER
  0
POLYLINE
  5
121
  8
RULER
 66
     1
 10
0.0
 20
0.0
 30
0.0
  0
VERTEX
  5
456
  8
RULER
 10
0.0
 20
12.12499999999999
 30
0.0
  0
VERTEX
  5
457
  8
RULER
 10
0.1250000000000036
 20
12.12499999999999
 30
0.0
  0
SEQEND
  5
CD8
  8
RULER
  0
POLYLINE
  5
122
  8
RULER
 66
     1
 10
0.0
 20
0.0
 30
0.0
  0
VERTEX
  5
458
  8
RULER
 10
0.0
 20
12.37499999999999
 30
0.0
  0
VERTEX
  5
459
  8
RULER
 10
0.1250000000000036
 20
12.37499999999999
 30
0.0
  0
SEQEND
  5
CD9
  8
RULER
  0
POLYLINE
  5
123
  8
RULER
 66
     1
 10
0.0
 20
0.0
 30
0.0
  0
VERTEX
  5
45A
  8
RULER
 10
0.0
 20
12.62499999999999
 30
0.0
  0
VERTEX
  5
45B
  8
RULER
 10
0.1250000000000036
 20
12.62499999999999
 30
0.0
  0
SEQEND
  5
CDA
  8
RULER
  0
POLYLINE
  5
124
  8
RULER
 66
     1
 10
0.0
 20
0.0
 30
0.0
  0
VERTEX
  5
45C
  8
RULER
 10
0.0
 20
12.87499999999999
 30
0.0
  0
VERTEX
  5
45D
  8
RULER
 10
0.1250000000000036
 20
12.87499999999999
 30
0.0
  0
SEQEND
  5
CDB
  8
RULER
  0
POLYLINE
  5
125
  8
RULER
 66
     1
 10
0.0
 20
0.0
 30
0.0
  0
VERTEX
  5
45E
  8
RULER
 10
0.0
 20
13.12499999999999
 30
0.0
  0
VERTEX
  5
45F
  8
RULER
 10
0.1250000000000036
 20
13.12499999999999
 30
0.0
  0
SEQEND
  5
CDC
  8
RULER
  0
POLYLINE
  5
126
  8
RULER
 66
     1
 10
0.0
 20
0.0
 30
0.0
  0
VERTEX
  5
460
  8
RULER
 10
0.0
 20
13.37499999999999
 30
0.0
  0
VERTEX
  5
461
  8
RULER
 10
0.1250000000000036
 20
13.37499999999999
 30
0.0
  0
SEQEND
  5
CDD
  8
RULER
  0
POLYLINE
  5
127
  8
RULER
 66
     1
 10
0.0
 20
0.0
 30
0.0
  0
VERTEX
  5
462
  8
RULER
 10
0.0
 20
13.62499999999999
 30
0.0
  0
VERTEX
  5
463
  8
RULER
 10
0.1250000000000036
 20
13.62499999999999
 30
0.0
  0
SEQEND
  5
CDE
  8
RULER
  0
POLYLINE
  5
128
  8
RULER
 66
     1
 10
0.0
 20
0.0
 30
0.0
  0
VERTEX
  5
464
  8
RULER
 10
0.0
 20
13.87499999999999
 30
0.0
  0
VERTEX
  5
465
  8
RULER
 10
0.1250000000000036
 20
13.87499999999999
 30
0.0
  0
SEQEND
  5
CDF
  8
RULER
  0
POLYLINE
  5
129
  8
RULER
 66
     1
 10
0.0
 20
0.0
 30
0.0
  0
VERTEX
  5
466
  8
RULER
 10
0.0
 20
14.12499999999999
 30
0.0
  0
VERTEX
  5
467
  8
RULER
 10
0.1250000000000036
 20
14.12499999999999
 30
0.0
  0
SEQEND
  5
CE0
  8
RULER
  0
POLYLINE
  5
12A
  8
RULER
 66
     1
 10
0.0
 20
0.0
 30
0.0
  0
VERTEX
  5
468
  8
RULER
 10
0.0
 20
14.37499999999999
 30
0.0
  0
VERTEX
  5
469
  8
RULER
 10
0.1250000000000036
 20
14.37499999999999
 30
0.0
  0
SEQEND
  5
CE1
  8
RULER
  0
POLYLINE
  5
12B
  8
RULER
 66
     1
 10
0.0
 20
0.0
 30
0.0
  0
VERTEX
  5
46A
  8
RULER
 10
0.0
 20
14.62499999999999
 30
0.0
  0
VERTEX
  5
46B
  8
RULER
 10
0.1250000000000036
 20
14.62499999999999
 30
0.0
  0
SEQEND
  5
CE2
  8
RULER
  0
POLYLINE
  5
12C
  8
RULER
 66
     1
 10
0.0
 20
0.0
 30
0.0
  0
VERTEX
  5
46C
  8
RULER
 10
0.0
 20
14.87499999999999
 30
0.0
  0
VERTEX
  5
46D
  8
RULER
 10
0.1250000000000036
 20
14.87499999999999
 30
0.0
  0
SEQEND
  5
CE3
  8
RULER
  0
POLYLINE
  5
12D
  8
RULER
 66
     1
 10
0.0
 20
0.0
 30
0.0
  0
VERTEX
  5
46E
  8
RULER
 10
0.0
 20
15.12499999999999
 30
0.0
  0
VERTEX
  5
46F
  8
RULER
 10
0.1250000000000036
 20
15.12499999999999
 30
0.0
  0
SEQEND
  5
CE4
  8
RULER
  0
POLYLINE
  5
12E
  8
RULER
 66
     1
 10
0.0
 20
0.0
 30
0.0
  0
VERTEX
  5
470
  8
RULER
 10
0.0
 20
15.37499999999999
 30
0.0
  0
VERTEX
  5
471
  8
RULER
 10
0.1250000000000036
 20
15.37499999999999
 30
0.0
  0
SEQEND
  5
CE5
  8
RULER
  0
POLYLINE
  5
12F
  8
RULER
 66
     1
 10
0.0
 20
0.0
 30
0.0
  0
VERTEX
  5
472
  8
RULER
 10
0.0
 20
15.62499999999999
 30
0.0
  0
VERTEX
  5
473
  8
RULER
 10
0.1250000000000036
 20
15.62499999999999
 30
0.0
  0
SEQEND
  5
CE6
  8
RULER
  0
POLYLINE
  5
130
  8
RULER
 66
     1
 10
0.0
 20
0.0
 30
0.0
  0
VERTEX
  5
474
  8
RULER
 10
0.0000000000000036
 20
15.87499999999999
 30
0.0
  0
VERTEX
  5
475
  8
RULER
 10
0.1250000000000036
 20
15.87499999999999
 30
0.0
  0
SEQEND
  5
CE7
  8
RULER
  0
POLYLINE
  5
131
  8
RULER
 66
     1
 10
0.0
 20
0.0
 30
0.0
  0
VERTEX
  5
476
  8
RULER
 10
0.0000000000000036
 20
16.12499999999999
 30
0.0
  0
VERTEX
  5
477
  8
RULER
 10
0.1250000000000036
 20
16.12499999999999
 30
0.0
  0
SEQEND
  5
CE8
  8
RULER
  0
POLYLINE
  5
132
  8
RULER
 66
     1
 10
0.0
 20
0.0
 30
0.0
  0
VERTEX
  5
478
  8
RULER
 10
0.0000000000000018
 20
16.37499999999999
 30
0.0
  0
VERTEX
  5
479
  8
RULER
 10
0.1250000000000036
 20
16.37499999999999
 30
0.0
  0
SEQEND
  5
CE9
  8
RULER
  0
POLYLINE
  5
133
  8
RULER
 66
     1
 10
0.0
 20
0.0
 30
0.0
  0
VERTEX
  5
47A
  8
RULER
 10
0.0000000000000018
 20
16.62499999999999
 30
0.0
  0
VERTEX
  5
47B
  8
RULER
 10
0.1250000000000036
 20
16.62499999999999
 30
0.0
  0
SEQEND
  5
CEA
  8
RULER
  0
POLYLINE
  5
134
  8
RULER
 66
     1
 10
0.0
 20
0.0
 30
0.0
  0
VERTEX
  5
47C
  8
RULER
 10
0.0000000000000018
 20
16.87499999999999
 30
0.0
  0
VERTEX
  5
47D
  8
RULER
 10
0.1250000000000036
 20
16.87499999999999
 30
0.0
  0
SEQEND
  5
CEB
  8
RULER
  0
POLYLINE
  5
135
  8
RULER
 66
     1
 10
0.0
 20
0.0
 30
0.0
  0
VERTEX
  5
47E
  8
RULER
 10
0.0000000000000018
 20
17.12499999999999
 30
0.0
  0
VERTEX
  5
47F
  8
RULER
 10
0.1250000000000036
 20
17.12499999999999
 30
0.0
  0
SEQEND
  5
CEC
  8
RULER
  0
POLYLINE
  5
136
  8
RULER
 66
     1
 10
0.0
 20
0.0
 30
0.0
  0
VERTEX
  5
480
  8
RULER
 10
0.0000000000000018
 20
17.37499999999999
 30
0.0
  0
VERTEX
  5
481
  8
RULER
 10
0.1250000000000036
 20
17.37499999999999
 30
0.0
  0
SEQEND
  5
CED
  8
RULER
  0
POLYLINE
  5
137
  8
RULER
 66
     1
 10
0.0
 20
0.0
 30
0.0
  0
VERTEX
  5
482
  8
RULER
 10
0.0000000000000018
 20
17.62499999999999
 30
0.0
  0
VERTEX
  5
483
  8
RULER
 10
0.1250000000000036
 20
17.62499999999999
 30
0.0
  0
SEQEND
  5
CEE
  8
RULER
  0
POLYLINE
  5
138
  8
RULER
 66
     1
 10
0.0
 20
0.0
 30
0.0
  0
VERTEX
  5
484
  8
RULER
 10
0.0000000000000018
 20
17.87499999999999
 30
0.0
  0
VERTEX
  5
485
  8
RULER
 10
0.1250000000000036
 20
17.87499999999999
 30
0.0
  0
SEQEND
  5
CEF
  8
RULER
  0
POLYLINE
  5
139
  8
RULER
 66
     1
 10
0.0
 20
0.0
 30
0.0
  0
VERTEX
  5
486
  8
RULER
 10
0.0000000000000018
 20
18.12499999999999
 30
0.0
  0
VERTEX
  5
487
  8
RULER
 10
0.1250000000000036
 20
18.12499999999999
 30
0.0
  0
SEQEND
  5
CF0
  8
RULER
  0
POLYLINE
  5
13A
  8
RULER
 66
     1
 10
0.0
 20
0.0
 30
0.0
  0
VERTEX
  5
488
  8
RULER
 10
0.0000000000000018
 20
18.37499999999999
 30
0.0
  0
VERTEX
  5
489
  8
RULER
 10
0.1250000000000036
 20
18.37499999999999
 30
0.0
  0
SEQEND
  5
CF1
  8
RULER
  0
POLYLINE
  5
13B
  8
RULER
 66
     1
 10
0.0
 20
0.0
 30
0.0
  0
VERTEX
  5
48A
  8
RULER
 10
0.0000000000000018
 20
18.62499999999999
 30
0.0
  0
VERTEX
  5
48B
  8
RULER
 10
0.1250000000000036
 20
18.62499999999999
 30
0.0
  0
SEQEND
  5
CF2
  8
RULER
  0
POLYLINE
  5
13C
  8
RULER
 66
     1
 10
0.0
 20
0.0
 30
0.0
  0
VERTEX
  5
48C
  8
RULER
 10
0.0000000000000018
 20
18.87499999999999
 30
0.0
  0
VERTEX
  5
48D
  8
RULER
 10
0.1250000000000036
 20
18.87499999999999
 30
0.0
  0
SEQEND
  5
CF3
  8
RULER
  0
POLYLINE
  5
13D
  8
RULER
 66
     1
 10
0.0
 20
0.0
 30
0.0
  0
VERTEX
  5
48E
  8
RULER
 10
0.0000000000000018
 20
19.12499999999999
 30
0.0
  0
VERTEX
  5
48F
  8
RULER
 10
0.1250000000000036
 20
19.12499999999999
 30
0.0
  0
SEQEND
  5
CF4
  8
RULER
  0
POLYLINE
  5
13E
  8
RULER
 66
     1
 10
0.0
 20
0.0
 30
0.0
  0
VERTEX
  5
490
  8
RULER
 10
0.0000000000000018
 20
19.37499999999999
 30
0.0
  0
VERTEX
  5
491
  8
RULER
 10
0.1250000000000036
 20
19.37499999999999
 30
0.0
  0
SEQEND
  5
CF5
  8
RULER
  0
POLYLINE
  5
13F
  8
RULER
 66
     1
 10
0.0
 20
0.0
 30
0.0
  0
VERTEX
  5
492
  8
RULER
 10
0.0000000000000018
 20
19.62499999999999
 30
0.0
  0
VERTEX
  5
493
  8
RULER
 10
0.1250000000000036
 20
19.62499999999999
 30
0.0
  0
SEQEND
  5
CF6
  8
RULER
  0
POLYLINE
  5
140
  8
RULER
 66
     1
 10
0.0
 20
0.0
 30
0.0
  0
VERTEX
  5
494
  8
RULER
 10
0.0000000000000018
 20
19.87499999999999
 30
0.0
  0
VERTEX
  5
495
  8
RULER
 10
0.1250000000000036
 20
19.87499999999999
 30
0.0
  0
SEQEND
  5
CF7
  8
RULER
  0
POLYLINE
  5
141
  8
RULER
 66
     1
 10
0.0
 20
0.0
 30
0.0
  0
VERTEX
  5
496
  8
RULER
 10
0.0000000000000018
 20
20.12499999999999
 30
0.0
  0
VERTEX
  5
497
  8
RULER
 10
0.1250000000000036
 20
20.12499999999999
 30
0.0
  0
SEQEND
  5
CF8
  8
RULER
  0
POLYLINE
  5
142
  8
RULER
 66
     1
 10
0.0
 20
0.0
 30
0.0
  0
VERTEX
  5
498
  8
RULER
 10
0.0000000000000018
 20
20.37499999999999
 30
0.0
  0
VERTEX
  5
499
  8
RULER
 10
0.1250000000000036
 20
20.37499999999999
 30
0.0
  0
SEQEND
  5
CF9
  8
RULER
  0
POLYLINE
  5
143
  8
RULER
 66
     1
 10
0.0
 20
0.0
 30
0.0
  0
VERTEX
  5
49A
  8
RULER
 10
0.0000000000000036
 20
20.62499999999999
 30
0.0
  0
VERTEX
  5
49B
  8
RULER
 10
0.1250000000000036
 20
20.62499999999999
 30
0.0
  0
SEQEND
  5
CFA
  8
RULER
  0
POLYLINE
  5
144
  8
RULER
 66
     1
 10
0.0
 20
0.0
 30
0.0
  0
VERTEX
  5
49C
  8
RULER
 10
0.0000000000000053
 20
20.87499999999999
 30
0.0
  0
VERTEX
  5
49D
  8
RULER
 10
0.1250000000000053
 20
20.87499999999999
 30
0.0
  0
SEQEND
  5
CFB
  8
RULER
  0
POLYLINE
  5
145
  8
RULER
 66
     1
 10
0.0
 20
0.0
 30
0.0
  0
VERTEX
  5
49E
  8
RULER
 10
0.0000000000000053
 20
21.12499999999999
 30
0.0
  0
VERTEX
  5
49F
  8
RULER
 10
0.1250000000000053
 20
21.12499999999999
 30
0.0
  0
SEQEND
  5
CFC
  8
RULER
  0
POLYLINE
  5
146
  8
RULER
 66
     1
 10
0.0
 20
0.0
 30
0.0
  0
VERTEX
  5
4A0
  8
RULER
 10
0.0000000000000053
 20
21.37499999999999
 30
0.0
  0
VERTEX
  5
4A1
  8
RULER
 10
0.1250000000000053
 20
21.37499999999999
 30
0.0
  0
SEQEND
  5
CFD
  8
RULER
  0
POLYLINE
  5
147
  8
RULER
 66
     1
 10
0.0
 20
0.0
 30
0.0
  0
VERTEX
  5
4A2
  8
RULER
 10
0.0000000000000053
 20
21.62499999999999
 30
0.0
  0
VERTEX
  5
4A3
  8
RULER
 10
0.1250000000000053
 20
21.62499999999999
 30
0.0
  0
SEQEND
  5
CFE
  8
RULER
  0
POLYLINE
  5
148
  8
RULER
 66
     1
 10
0.0
 20
0.0
 30
0.0
  0
VERTEX
  5
4A4
  8
RULER
 10
0.0000000000000053
 20
21.87499999999999
 30
0.0
  0
VERTEX
  5
4A5
  8
RULER
 10
0.1250000000000053
 20
21.87499999999999
 30
0.0
  0
SEQEND
  5
CFF
  8
RULER
  0
POLYLINE
  5
149
  8
RULER
 66
     1
 10
0.0
 20
0.0
 30
0.0
  0
VERTEX
  5
4A6
  8
RULER
 10
0.0000000000000053
 20
22.125
 30
0.0
  0
VERTEX
  5
4A7
  8
RULER
 10
0.1250000000000053
 20
22.125
 30
0.0
  0
SEQEND
  5
D00
  8
RULER
  0
POLYLINE
  5
14A
  8
RULER
 66
     1
 10
0.0
 20
0.0
 30
0.0
  0
VERTEX
  5
4A8
  8
RULER
 10
0.0000000000000053
 20
22.37499999999999
 30
0.0
  0
VERTEX
  5
4A9
  8
RULER
 10
0.1250000000000053
 20
22.37499999999999
 30
0.0
  0
SEQEND
  5
D01
  8
RULER
  0
POLYLINE
  5
14B
  8
RULER
 66
     1
 10
0.0
 20
0.0
 30
0.0
  0
VERTEX
  5
4AA
  8
RULER
 10
0.0000000000000053
 20
22.62499999999999
 30
0.0
  0
VERTEX
  5
4AB
  8
RULER
 10
0.1250000000000053
 20
22.62499999999999
 30
0.0
  0
SEQEND
  5
D02
  8
RULER
  0
POLYLINE
  5
14C
  8
RULER
 66
     1
 10
0.0
 20
0.0
 30
0.0
  0
VERTEX
  5
4AC
  8
RULER
 10
0.0000000000000053
 20
22.87499999999999
 30
0.0
  0
VERTEX
  5
4AD
  8
RULER
 10
0.1250000000000053
 20
22.87499999999999
 30
0.0
  0
SEQEND
  5
D03
  8
RULER
  0
POLYLINE
  5
14D
  8
RULER
 66
     1
 10
0.0
 20
0.0
 30
0.0
  0
VERTEX
  5
4AE
  8
RULER
 10
0.0000000000000053
 20
23.12499999999999
 30
0.0
  0
VERTEX
  5
4AF
  8
RULER
 10
0.1250000000000053
 20
23.12499999999999
 30
0.0
  0
SEQEND
  5
D04
  8
RULER
  0
POLYLINE
  5
14E
  8
RULER
 66
     1
 10
0.0
 20
0.0
 30
0.0
  0
VERTEX
  5
4B0
  8
RULER
 10
0.0000000000000053
 20
23.375
 30
0.0
  0
VERTEX
  5
4B1
  8
RULER
 10
0.1250000000000053
 20
23.375
 30
0.0
  0
SEQEND
  5
D05
  8
RULER
  0
POLYLINE
  5
14F
  8
RULER
 66
     1
 10
0.0
 20
0.0
 30
0.0
  0
VERTEX
  5
4B2
  8
RULER
 10
0.0000000000000053
 20
23.62499999999999
 30
0.0
  0
VERTEX
  5
4B3
  8
RULER
 10
0.1250000000000071
 20
23.62499999999999
 30
0.0
  0
SEQEND
  5
D06
  8
RULER
  0
POLYLINE
  5
150
  8
RULER
 66
     1
 10
0.0
 20
0.0
 30
0.0
  0
VERTEX
  5
4B4
  8
RULER
 10
0.0000000000000053
 20
23.87499999999999
 30
0.0
  0
VERTEX
  5
4B5
  8
RULER
 10
0.1250000000000071
 20
23.87499999999999
 30
0.0
  0
SEQEND
  5
D07
  8
RULER
  0
POLYLINE
  5
151
  8
RULER
 66
     1
 10
0.0
 20
0.0
 30
0.0
  0
VERTEX
  5
4B6
  8
RULER
 10
0.0000000000000053
 20
24.12499999999999
 30
0.0
  0
VERTEX
  5
4B7
  8
RULER
 10
0.1250000000000071
 20
24.12499999999999
 30
0.0
  0
SEQEND
  5
D08
  8
RULER
  0
POLYLINE
  5
152
  8
RULER
 66
     1
 10
0.0
 20
0.0
 30
0.0
  0
VERTEX
  5
4B8
  8
RULER
 10
0.0000000000000053
 20
24.37499999999999
 30
0.0
  0
VERTEX
  5
4B9
  8
RULER
 10
0.1250000000000071
 20
24.37499999999999
 30
0.0
  0
SEQEND
  5
D09
  8
RULER
  0
POLYLINE
  5
153
  8
RULER
 66
     1
 10
0.0
 20
0.0
 30
0.0
  0
VERTEX
  5
4BA
  8
RULER
 10
0.0000000000000053
 20
24.625
 30
0.0
  0
VERTEX
  5
4BB
  8
RULER
 10
0.1250000000000071
 20
24.625
 30
0.0
  0
SEQEND
  5
D0A
  8
RULER
  0
POLYLINE
  5
154
  8
RULER
 66
     1
 10
0.0
 20
0.0
 30
0.0
  0
VERTEX
  5
4BC
  8
RULER
 10
0.0000000000000053
 20
24.875
 30
0.0
  0
VERTEX
  5
4BD
  8
RULER
 10
0.1250000000000071
 20
24.875
 30
0.0
  0
SEQEND
  5
D0B
  8
RULER
  0
POLYLINE
  5
155
  8
RULER
 66
     1
 10
0.0
 20
0.0
 30
0.0
  0
VERTEX
  5
4BE
  8
RULER
 10
0.0000000000000053
 20
25.12499999999999
 30
0.0
  0
VERTEX
  5
4BF
  8
RULER
 10
0.1250000000000071
 20
25.12499999999999
 30
0.0
  0
SEQEND
  5
D0C
  8
RULER
  0
POLYLINE
  5
156
  8
RULER
 66
     1
 10
0.0
 20
0.0
 30
0.0
  0
VERTEX
  5
4C0
  8
RULER
 10
0.0000000000000053
 20
25.37499999999999
 30
0.0
  0
VERTEX
  5
4C1
  8
RULER
 10
0.1250000000000071
 20
25.37499999999999
 30
0.0
  0
SEQEND
  5
D0D
  8
RULER
  0
POLYLINE
  5
157
  8
RULER
 66
     1
 10
0.0
 20
0.0
 30
0.0
  0
VERTEX
  5
4C2
  8
RULER
 10
0.0000000000000053
 20
25.62499999999999
 30
0.0
  0
VERTEX
  5
4C3
  8
RULER
 10
0.1250000000000071
 20
25.62499999999999
 30
0.0
  0
SEQEND
  5
D0E
  8
RULER
  0
POLYLINE
  5
158
  8
RULER
 66
     1
 10
0.0
 20
0.0
 30
0.0
  0
VERTEX
  5
4C4
  8
RULER
 10
0.0000000000000053
 20
25.875
 30
0.0
  0
VERTEX
  5
4C5
  8
RULER
 10
0.1250000000000071
 20
25.875
 30
0.0
  0
SEQEND
  5
D0F
  8
RULER
  0
POLYLINE
  5
159
  8
RULER
 66
     1
 10
0.0
 20
0.0
 30
0.0
  0
VERTEX
  5
4C6
  8
RULER
 10
0.0000000000000036
 20
26.125
 30
0.0
  0
VERTEX
  5
4C7
  8
RULER
 10
0.1250000000000053
 20
26.125
 30
0.0
  0
SEQEND
  5
D10
  8
RULER
  0
POLYLINE
  5
15A
  8
RULER
 66
     1
 10
0.0
 20
0.0
 30
0.0
  0
VERTEX
  5
4C8
  8
RULER
 10
0.0000000000000036
 20
26.375
 30
0.0
  0
VERTEX
  5
4C9
  8
RULER
 10
0.1250000000000053
 20
26.375
 30
0.0
  0
SEQEND
  5
D11
  8
RULER
  0
POLYLINE
  5
15B
  8
RULER
 66
     1
 10
0.0
 20
0.0
 30
0.0
  0
VERTEX
  5
4CA
  8
RULER
 10
0.0000000000000036
 20
26.62499999999999
 30
0.0
  0
VERTEX
  5
4CB
  8
RULER
 10
0.1250000000000053
 20
26.62499999999999
 30
0.0
  0
SEQEND
  5
D12
  8
RULER
  0
POLYLINE
  5
15C
  8
RULER
 66
     1
 10
0.0
 20
0.0
 30
0.0
  0
VERTEX
  5
4CC
  8
RULER
 10
0.0000000000000036
 20
26.87499999999999
 30
0.0
  0
VERTEX
  5
4CD
  8
RULER
 10
0.1250000000000053
 20
26.87499999999999
 30
0.0
  0
SEQEND
  5
D13
  8
RULER
  0
POLYLINE
  5
15D
  8
RULER
 66
     1
 10
0.0
 20
0.0
 30
0.0
  0
VERTEX
  5
4CE
  8
RULER
 10
0.0000000000000036
 20
27.12499999999999
 30
0.0
  0
VERTEX
  5
4CF
  8
RULER
 10
0.1250000000000053
 20
27.12499999999999
 30
0.0
  0
SEQEND
  5
D14
  8
RULER
  0
POLYLINE
  5
15E
  8
RULER
 66
     1
 10
0.0
 20
0.0
 30
0.0
  0
VERTEX
  5
4D0
  8
RULER
 10
0.0000000000000036
 20
27.375
 30
0.0
  0
VERTEX
  5
4D1
  8
RULER
 10
0.1250000000000053
 20
27.375
 30
0.0
  0
SEQEND
  5
D15
  8
RULER
  0
POLYLINE
  5
15F
  8
RULER
 66
     1
 10
0.0
 20
0.0
 30
0.0
  0
VERTEX
  5
4D2
  8
RULER
 10
0.0000000000000036
 20
27.625
 30
0.0
  0
VERTEX
  5
4D3
  8
RULER
 10
0.1250000000000053
 20
27.625
 30
0.0
  0
SEQEND
  5
D16
  8
RULER
  0
POLYLINE
  5
160
  8
RULER
 66
     1
 10
0.0
 20
0.0
 30
0.0
  0
VERTEX
  5
4D4
  8
RULER
 10
0.0000000000000036
 20
27.87499999999999
 30
0.0
  0
VERTEX
  5
4D5
  8
RULER
 10
0.1250000000000053
 20
27.87499999999999
 30
0.0
  0
SEQEND
  5
D17
  8
RULER
  0
POLYLINE
  5
161
  8
RULER
 66
     1
 10
0.0
 20
0.0
 30
0.0
  0
VERTEX
  5
4D6
  8
RULER
 10
0.0000000000000018
 20
28.12499999999999
 30
0.0
  0
VERTEX
  5
4D7
  8
RULER
 10
0.1250000000000036
 20
28.12499999999999
 30
0.0
  0
SEQEND
  5
D18
  8
RULER
  0
POLYLINE
  5
162
  8
RULER
 66
     1
 10
0.0
 20
0.0
 30
0.0
  0
VERTEX
  5
4D8
  8
RULER
 10
0.0000000000000018
 20
28.37499999999999
 30
0.0
  0
VERTEX
  5
4D9
  8
RULER
 10
0.1250000000000036
 20
28.37499999999999
 30
0.0
  0
SEQEND
  5
D19
  8
RULER
  0
POLYLINE
  5
163
  8
RULER
 66
     1
 10
0.0
 20
0.0
 30
0.0
  0
VERTEX
  5
4DA
  8
RULER
 10
0.0000000000000018
 20
28.625
 30
0.0
  0
VERTEX
  5
4DB
  8
RULER
 10
0.1250000000000036
 20
28.625
 30
0.0
  0
SEQEND
  5
D1A
  8
RULER
  0
POLYLINE
  5
164
  8
RULER
 66
     1
 10
0.0
 20
0.0
 30
0.0
  0
VERTEX
  5
4DC
  8
RULER
 10
0.0000000000000018
 20
28.875
 30
0.0
  0
VERTEX
  5
4DD
  8
RULER
 10
0.1250000000000036
 20
28.875
 30
0.0
  0
SEQEND
  5
D1B
  8
RULER
  0
POLYLINE
  5
165
  8
RULER
 66
     1
 10
0.0
 20
0.0
 30
0.0
  0
VERTEX
  5
4DE
  8
RULER
 10
0.0000000000000018
 20
29.12499999999999
 30
0.0
  0
VERTEX
  5
4DF
  8
RULER
 10
0.1250000000000036
 20
29.12499999999999
 30
0.0
  0
SEQEND
  5
D1C
  8
RULER
  0
POLYLINE
  5
166
  8
RULER
 66
     1
 10
0.0
 20
0.0
 30
0.0
  0
VERTEX
  5
4E0
  8
RULER
 10
0.0000000000000018
 20
29.37499999999999
 30
0.0
  0
VERTEX
  5
4E1
  8
RULER
 10
0.1250000000000036
 20
29.37499999999999
 30
0.0
  0
SEQEND
  5
D1D
  8
RULER
  0
POLYLINE
  5
167
  8
RULER
 66
     1
 10
0.0
 20
0.0
 30
0.0
  0
VERTEX
  5
4E2
  8
RULER
 10
0.0000000000000018
 20
29.62499999999999
 30
0.0
  0
VERTEX
  5
4E3
  8
RULER
 10
0.1250000000000036
 20
29.62499999999999
 30
0.0
  0
SEQEND
  5
D1E
  8
RULER
  0
POLYLINE
  5
168
  8
RULER
 66
     1
 10
0.0
 20
0.0
 30
0.0
  0
VERTEX
  5
4E4
  8
RULER
 10
0.0000000000000018
 20
29.875
 30
0.0
  0
VERTEX
  5
4E5
  8
RULER
 10
0.1250000000000036
 20
29.875
 30
0.0
  0
SEQEND
  5
D1F
  8
RULER
  0
POLYLINE
  5
169
  8
RULER
 66
     1
 10
0.0
 20
0.0
 30
0.0
  0
VERTEX
  5
4E6
  8
RULER
 10
0.0000000000000018
 20
30.12499999999999
 30
0.0
  0
VERTEX
  5
4E7
  8
RULER
 10
0.1250000000000036
 20
30.12499999999999
 30
0.0
  0
SEQEND
  5
D20
  8
RULER
  0
POLYLINE
  5
16A
  8
RULER
 66
     1
 10
0.0
 20
0.0
 30
0.0
  0
VERTEX
  5
4E8
  8
RULER
 10
0.0000000000000018
 20
30.37499999999999
 30
0.0
  0
VERTEX
  5
4E9
  8
RULER
 10
0.1250000000000036
 20
30.37499999999999
 30
0.0
  0
SEQEND
  5
D21
  8
RULER
  0
POLYLINE
  5
16B
  8
RULER
 66
     1
 10
0.0
 20
0.0
 30
0.0
  0
VERTEX
  5
4EA
  8
RULER
 10
0.0000000000000018
 20
30.62499999999999
 30
0.0
  0
VERTEX
  5
4EB
  8
RULER
 10
0.1250000000000036
 20
30.62499999999999
 30
0.0
  0
SEQEND
  5
D22
  8
RULER
  0
POLYLINE
  5
16C
  8
RULER
 66
     1
 10
0.0
 20
0.0
 30
0.0
  0
VERTEX
  5
4EC
  8
RULER
 10
0.0000000000000018
 20
30.87499999999999
 30
0.0
  0
VERTEX
  5
4ED
  8
RULER
 10
0.1250000000000053
 20
30.87499999999999
 30
0.0
  0
SEQEND
  5
D23
  8
RULER
  0
POLYLINE
  5
16D
  8
RULER
 66
     1
 10
0.0
 20
0.0
 30
0.0
  0
VERTEX
  5
4EE
  8
RULER
 10
0.0000000000000018
 20
31.125
 30
0.0
  0
VERTEX
  5
4EF
  8
RULER
 10
0.1250000000000053
 20
31.125
 30
0.0
  0
SEQEND
  5
D24
  8
RULER
  0
POLYLINE
  5
16E
  8
RULER
 66
     1
 10
0.0
 20
0.0
 30
0.0
  0
VERTEX
  5
4F0
  8
RULER
 10
0.0000000000000018
 20
31.375
 30
0.0
  0
VERTEX
  5
4F1
  8
RULER
 10
0.1250000000000053
 20
31.375
 30
0.0
  0
SEQEND
  5
D25
  8
RULER
  0
POLYLINE
  5
16F
  8
RULER
 66
     1
 10
0.0
 20
0.0
 30
0.0
  0
VERTEX
  5
4F2
  8
RULER
 10
0.0000000000000018
 20
31.62499999999999
 30
0.0
  0
VERTEX
  5
4F3
  8
RULER
 10
0.1250000000000053
 20
31.62499999999999
 30
0.0
  0
SEQEND
  5
D26
  8
RULER
  0
POLYLINE
  5
170
  8
RULER
 66
     1
 10
0.0
 20
0.0
 30
0.0
  0
VERTEX
  5
4F4
  8
RULER
 10
0.0000000000000018
 20
31.87499999999999
 30
0.0
  0
VERTEX
  5
4F5
  8
RULER
 10
0.1250000000000053
 20
31.87499999999999
 30
0.0
  0
SEQEND
  5
D27
  8
RULER
  0
POLYLINE
  5
171
  8
RULER
 66
     1
 10
0.0
 20
0.0
 30
0.0
  0
VERTEX
  5
4F6
  8
RULER
 10
0.0000000000000018
 20
32.12499999999999
 30
0.0
  0
VERTEX
  5
4F7
  8
RULER
 10
0.1250000000000053
 20
32.12499999999999
 30
0.0
  0
SEQEND
  5
D28
  8
RULER
  0
POLYLINE
  5
172
  8
RULER
 66
     1
 10
0.0
 20
0.0
 30
0.0
  0
VERTEX
  5
4F8
  8
RULER
 10
31.99995129541684
 20
0.0
 30
0.0
  0
VERTEX
  5
4F9
  8
RULER
 10
31.99995129541684
 20
1.000000000000001
 30
0.0
  0
SEQEND
  5
D29
  8
RULER
  0
POLYLINE
  5
173
  8
RULER
 66
     1
 10
0.0
 20
0.0
 30
0.0
  0
VERTEX
  5
4FA
  8
RULER
 10
30.99995129541684
 20
0.0
 30
0.0
  0
VERTEX
  5
4FB
  8
RULER
 10
30.99995129541684
 20
1.000000000000001
 30
0.0
  0
SEQEND
  5
D2A
  8
RULER
  0
POLYLINE
  5
174
  8
RULER
 66
     1
 10
0.0
 20
0.0
 30
0.0
  0
VERTEX
  5
4FC
  8
RULER
 10
29.99995129541684
 20
0.0
 30
0.0
  0
VERTEX
  5
4FD
  8
RULER
 10
29.99995129541684
 20
1.000000000000001
 30
0.0
  0
SEQEND
  5
D2B
  8
RULER
  0
POLYLINE
  5
175
  8
RULER
 66
     1
 10
0.0
 20
0.0
 30
0.0
  0
VERTEX
  5
4FE
  8
RULER
 10
28.99995129541684
 20
0.0000000000000009
 30
0.0
  0
VERTEX
  5
4FF
  8
RULER
 10
28.99995129541684
 20
1.000000000000002
 30
0.0
  0
SEQEND
  5
D2C
  8
RULER
  0
POLYLINE
  5
176
  8
RULER
 66
     1
 10
0.0
 20
0.0
 30
0.0
  0
VERTEX
  5
500
  8
RULER
 10
27.99995129541684
 20
0.0000000000000009
 30
0.0
  0
VERTEX
  5
501
  8
RULER
 10
27.99995129541684
 20
1.000000000000002
 30
0.0
  0
SEQEND
  5
D2D
  8
RULER
  0
POLYLINE
  5
177
  8
RULER
 66
     1
 10
0.0
 20
0.0
 30
0.0
  0
VERTEX
  5
502
  8
RULER
 10
26.99995129541684
 20
0.0000000000000009
 30
0.0
  0
VERTEX
  5
503
  8
RULER
 10
26.99995129541684
 20
1.000000000000002
 30
0.0
  0
SEQEND
  5
D2E
  8
RULER
  0
POLYLINE
  5
178
  8
RULER
 66
     1
 10
0.0
 20
0.0
 30
0.0
  0
VERTEX
  5
504
  8
RULER
 10
25.99995129541684
 20
0.0000000000000009
 30
0.0
  0
VERTEX
  5
505
  8
RULER
 10
25.99995129541684
 20
1.000000000000002
 30
0.0
  0
SEQEND
  5
D2F
  8
RULER
  0
POLYLINE
  5
179
  8
RULER
 66
     1
 10
0.0
 20
0.0
 30
0.0
  0
VERTEX
  5
506
  8
RULER
 10
24.99995129541684
 20
0.0000000000000013
 30
0.0
  0
VERTEX
  5
507
  8
RULER
 10
24.99995129541684
 20
1.000000000000003
 30
0.0
  0
SEQEND
  5
D30
  8
RULER
  0
POLYLINE
  5
17A
  8
RULER
 66
     1
 10
0.0
 20
0.0
 30
0.0
  0
VERTEX
  5
508
  8
RULER
 10
23.99995129541684
 20
0.0000000000000013
 30
0.0
  0
VERTEX
  5
509
  8
RULER
 10
23.99995129541684
 20
1.000000000000003
 30
0.0
  0
SEQEND
  5
D31
  8
RULER
  0
POLYLINE
  5
17B
  8
RULER
 66
     1
 10
0.0
 20
0.0
 30
0.0
  0
VERTEX
  5
50A
  8
RULER
 10
22.99995129541684
 20
0.0000000000000013
 30
0.0
  0
VERTEX
  5
50B
  8
RULER
 10
22.99995129541684
 20
1.000000000000003
 30
0.0
  0
SEQEND
  5
D32
  8
RULER
  0
POLYLINE
  5
17C
  8
RULER
 66
     1
 10
0.0
 20
0.0
 30
0.0
  0
VERTEX
  5
50C
  8
RULER
 10
21.99995129541684
 20
0.0000000000000013
 30
0.0
  0
VERTEX
  5
50D
  8
RULER
 10
21.99995129541684
 20
1.000000000000003
 30
0.0
  0
SEQEND
  5
D33
  8
RULER
  0
POLYLINE
  5
17D
  8
RULER
 66
     1
 10
0.0
 20
0.0
 30
0.0
  0
VERTEX
  5
50E
  8
RULER
 10
20.99995129541684
 20
0.0000000000000013
 30
0.0
  0
VERTEX
  5
50F
  8
RULER
 10
20.99995129541684
 20
1.000000000000003
 30
0.0
  0
SEQEND
  5
D34
  8
RULER
  0
POLYLINE
  5
17E
  8
RULER
 66
     1
 10
0.0
 20
0.0
 30
0.0
  0
VERTEX
  5
510
  8
RULER
 10
19.99995129541684
 20
0.0000000000000018
 30
0.0
  0
VERTEX
  5
511
  8
RULER
 10
19.99995129541684
 20
1.000000000000003
 30
0.0
  0
SEQEND
  5
D35
  8
RULER
  0
POLYLINE
  5
17F
  8
RULER
 66
     1
 10
0.0
 20
0.0
 30
0.0
  0
VERTEX
  5
512
  8
RULER
 10
18.99995129541684
 20
0.0000000000000018
 30
0.0
  0
VERTEX
  5
513
  8
RULER
 10
18.99995129541684
 20
1.000000000000003
 30
0.0
  0
SEQEND
  5
D36
  8
RULER
  0
POLYLINE
  5
180
  8
RULER
 66
     1
 10
0.0
 20
0.0
 30
0.0
  0
VERTEX
  5
514
  8
RULER
 10
17.99995129541684
 20
0.0000000000000018
 30
0.0
  0
VERTEX
  5
515
  8
RULER
 10
17.99995129541684
 20
1.000000000000003
 30
0.0
  0
SEQEND
  5
D37
  8
RULER
  0
POLYLINE
  5
181
  8
RULER
 66
     1
 10
0.0
 20
0.0
 30
0.0
  0
VERTEX
  5
516
  8
RULER
 10
16.99995129541684
 20
0.0000000000000018
 30
0.0
  0
VERTEX
  5
517
  8
RULER
 10
16.99995129541684
 20
1.000000000000003
 30
0.0
  0
SEQEND
  5
D38
  8
RULER
  0
POLYLINE
  5
182
  8
RULER
 66
     1
 10
0.0
 20
0.0
 30
0.0
  0
VERTEX
  5
518
  8
RULER
 10
15.99995129541684
 20
0.0000000000000022
 30
0.0
  0
VERTEX
  5
519
  8
RULER
 10
15.99995129541684
 20
1.000000000000004
 30
0.0
  0
SEQEND
  5
D39
  8
RULER
  0
POLYLINE
  5
183
  8
RULER
 66
     1
 10
0.0
 20
0.0
 30
0.0
  0
VERTEX
  5
51A
  8
RULER
 10
14.99995129541684
 20
0.0000000000000022
 30
0.0
  0
VERTEX
  5
51B
  8
RULER
 10
14.99995129541684
 20
1.000000000000004
 30
0.0
  0
SEQEND
  5
D3A
  8
RULER
  0
POLYLINE
  5
184
  8
RULER
 66
     1
 10
0.0
 20
0.0
 30
0.0
  0
VERTEX
  5
51C
  8
RULER
 10
13.99995129541684
 20
0.0000000000000022
 30
0.0
  0
VERTEX
  5
51D
  8
RULER
 10
13.99995129541684
 20
1.000000000000004
 30
0.0
  0
SEQEND
  5
D3B
  8
RULER
  0
POLYLINE
  5
185
  8
RULER
 66
     1
 10
0.0
 20
0.0
 30
0.0
  0
VERTEX
  5
51E
  8
RULER
 10
12.99995129541684
 20
0.0000000000000022
 30
0.0
  0
VERTEX
  5
51F
  8
RULER
 10
12.99995129541684
 20
1.000000000000004
 30
0.0
  0
SEQEND
  5
D3C
  8
RULER
  0
POLYLINE
  5
186
  8
RULER
 66
     1
 10
0.0
 20
0.0
 30
0.0
  0
VERTEX
  5
520
  8
RULER
 10
11.99995129541684
 20
0.0000000000000022
 30
0.0
  0
VERTEX
  5
521
  8
RULER
 10
11.99995129541684
 20
1.000000000000004
 30
0.0
  0
SEQEND
  5
D3D
  8
RULER
  0
POLYLINE
  5
187
  8
RULER
 66
     1
 10
0.0
 20
0.0
 30
0.0
  0
VERTEX
  5
522
  8
RULER
 10
10.99995129541684
 20
0.0000000000000031
 30
0.0
  0
VERTEX
  5
523
  8
RULER
 10
10.99995129541684
 20
1.000000000000004
 30
0.0
  0
SEQEND
  5
D3E
  8
RULER
  0
POLYLINE
  5
188
  8
RULER
 66
     1
 10
0.0
 20
0.0
 30
0.0
  0
VERTEX
  5
524
  8
RULER
 10
9.999951295416842
 20
0.0000000000000031
 30
0.0
  0
VERTEX
  5
525
  8
RULER
 10
9.999951295416842
 20
1.000000000000004
 30
0.0
  0
SEQEND
  5
D3F
  8
RULER
  0
POLYLINE
  5
189
  8
RULER
 66
     1
 10
0.0
 20
0.0
 30
0.0
  0
VERTEX
  5
526
  8
RULER
 10
8.99995129541684
 20
0.0000000000000031
 30
0.0
  0
VERTEX
  5
527
  8
RULER
 10
8.99995129541684
 20
1.000000000000004
 30
0.0
  0
SEQEND
  5
D40
  8
RULER
  0
POLYLINE
  5
18A
  8
RULER
 66
     1
 10
0.0
 20
0.0
 30
0.0
  0
VERTEX
  5
528
  8
RULER
 10
7.999951295416838
 20
0.0000000000000031
 30
0.0
  0
VERTEX
  5
529
  8
RULER
 10
7.999951295416838
 20
1.000000000000004
 30
0.0
  0
SEQEND
  5
D41
  8
RULER
  0
POLYLINE
  5
18B
  8
RULER
 66
     1
 10
0.0
 20
0.0
 30
0.0
  0
VERTEX
  5
52A
  8
RULER
 10
6.999951295416841
 20
0.0000000000000036
 30
0.0
  0
VERTEX
  5
52B
  8
RULER
 10
6.999951295416841
 20
1.000000000000004
 30
0.0
  0
SEQEND
  5
D42
  8
RULER
  0
POLYLINE
  5
18C
  8
RULER
 66
     1
 10
0.0
 20
0.0
 30
0.0
  0
VERTEX
  5
52C
  8
RULER
 10
5.999951295416841
 20
0.0000000000000036
 30
0.0
  0
VERTEX
  5
52D
  8
RULER
 10
5.999951295416841
 20
1.000000000000004
 30
0.0
  0
SEQEND
  5
D43
  8
RULER
  0
POLYLINE
  5
18D
  8
RULER
 66
     1
 10
0.0
 20
0.0
 30
0.0
  0
VERTEX
  5
52E
  8
RULER
 10
4.99995129541684
 20
0.0000000000000036
 30
0.0
  0
VERTEX
  5
52F
  8
RULER
 10
4.99995129541684
 20
1.000000000000004
 30
0.0
  0
SEQEND
  5
D44
  8
RULER
  0
POLYLINE
  5
18E
  8
RULER
 66
     1
 10
0.0
 20
0.0
 30
0.0
  0
VERTEX
  5
530
  8
RULER
 10
3.999951295416839
 20
0.0000000000000036
 30
0.0
  0
VERTEX
  5
531
  8
RULER
 10
3.999951295416839
 20
1.000000000000004
 30
0.0
  0
SEQEND
  5
D45
  8
RULER
  0
POLYLINE
  5
18F
  8
RULER
 66
     1
 10
0.0
 20
0.0
 30
0.0
  0
VERTEX
  5
532
  8
RULER
 10
2.999951295416842
 20
0.0000000000000036
 30
0.0
  0
VERTEX
  5
533
  8
RULER
 10
2.999951295416842
 20
1.000000000000004
 30
0.0
  0
SEQEND
  5
D46
  8
RULER
  0
POLYLINE
  5
190
  8
RULER
 66
     1
 10
0.0
 20
0.0
 30
0.0
  0
VERTEX
  5
534
  8
RULER
 10
1.999951295416841
 20
0.000000000000004
 30
0.0
  0
VERTEX
  5
535
  8
RULER
 10
1.999951295416841
 20
1.000000000000005
 30
0.0
  0
SEQEND
  5
D47
  8
RULER
  0
POLYLINE
  5
191
  8
RULER
 66
     1
 10
0.0
 20
0.0
 30
0.0
  0
VERTEX
  5
536
  8
RULER
 10
0.9999512954168406
 20
0.000000000000004
 30
0.0
  0
VERTEX
  5
537
  8
RULER
 10
0.9999512954168406
 20
1.000000000000005
 30
0.0
  0
SEQEND
  5
D48
  8
RULER
  0
POLYLINE
  5
192
  8
RULER
 66
     1
 10
0.0
 20
0.0
 30
0.0
  0
VERTEX
  5
538
  8
RULER
 10
-0.0000487045831612
 20
0.000000000000004
 30
0.0
  0
VERTEX
  5
539
  8
RULER
 10
-0.0000487045831612
 20
1.000000000000005
 30
0.0
  0
SEQEND
  5
D49
  8
RULER
  0
POLYLINE
  5
193
  8
RULER
 66
     1
 10
0.0
 20
0.0
 30
0.0
  0
VERTEX
  5
53A
  8
RULER
 10
31.49995129541684
 20
0.0
 30
0.0
  0
VERTEX
  5
53B
  8
RULER
 10
31.49995129541684
 20
0.5000000000000031
 30
0.0
  0
SEQEND
  5
D4A
  8
RULER
  0
POLYLINE
  5
194
  8
RULER
 66
     1
 10
0.0
 20
0.0
 30
0.0
  0
VERTEX
  5
53C
  8
RULER
 10
30.49995129541684
 20
0.0
 30
0.0
  0
VERTEX
  5
53D
  8
RULER
 10
30.49995129541684
 20
0.5000000000000031
 30
0.0
  0
SEQEND
  5
D4B
  8
RULER
  0
POLYLINE
  5
195
  8
RULER
 66
     1
 10
0.0
 20
0.0
 30
0.0
  0
VERTEX
  5
53E
  8
RULER
 10
29.49995129541684
 20
0.0000000000000009
 30
0.0
  0
VERTEX
  5
53F
  8
RULER
 10
29.49995129541684
 20
0.5000000000000036
 30
0.0
  0
SEQEND
  5
D4C
  8
RULER
  0
POLYLINE
  5
196
  8
RULER
 66
     1
 10
0.0
 20
0.0
 30
0.0
  0
VERTEX
  5
540
  8
RULER
 10
28.49995129541684
 20
0.0000000000000009
 30
0.0
  0
VERTEX
  5
541
  8
RULER
 10
28.49995129541684
 20
0.5000000000000036
 30
0.0
  0
SEQEND
  5
D4D
  8
RULER
  0
POLYLINE
  5
197
  8
RULER
 66
     1
 10
0.0
 20
0.0
 30
0.0
  0
VERTEX
  5
542
  8
RULER
 10
27.49995129541684
 20
0.0000000000000009
 30
0.0
  0
VERTEX
  5
543
  8
RULER
 10
27.49995129541684
 20
0.5000000000000036
 30
0.0
  0
SEQEND
  5
D4E
  8
RULER
  0
POLYLINE
  5
198
  8
RULER
 66
     1
 10
0.0
 20
0.0
 30
0.0
  0
VERTEX
  5
544
  8
RULER
 10
26.49995129541684
 20
0.0000000000000009
 30
0.0
  0
VERTEX
  5
545
  8
RULER
 10
26.49995129541684
 20
0.5000000000000036
 30
0.0
  0
SEQEND
  5
D4F
  8
RULER
  0
POLYLINE
  5
199
  8
RULER
 66
     1
 10
0.0
 20
0.0
 30
0.0
  0
VERTEX
  5
546
  8
RULER
 10
25.49995129541684
 20
0.0000000000000009
 30
0.0
  0
VERTEX
  5
547
  8
RULER
 10
25.49995129541684
 20
0.5000000000000036
 30
0.0
  0
SEQEND
  5
D50
  8
RULER
  0
POLYLINE
  5
19A
  8
RULER
 66
     1
 10
0.0
 20
0.0
 30
0.0
  0
VERTEX
  5
548
  8
RULER
 10
24.49995129541684
 20
0.0000000000000013
 30
0.0
  0
VERTEX
  5
549
  8
RULER
 10
24.49995129541684
 20
0.500000000000004
 30
0.0
  0
SEQEND
  5
D51
  8
RULER
  0
POLYLINE
  5
19B
  8
RULER
 66
     1
 10
0.0
 20
0.0
 30
0.0
  0
VERTEX
  5
54A
  8
RULER
 10
23.49995129541684
 20
0.0000000000000013
 30
0.0
  0
VERTEX
  5
54B
  8
RULER
 10
23.49995129541684
 20
0.500000000000004
 30
0.0
  0
SEQEND
  5
D52
  8
RULER
  0
POLYLINE
  5
19C
  8
RULER
 66
     1
 10
0.0
 20
0.0
 30
0.0
  0
VERTEX
  5
54C
  8
RULER
 10
22.49995129541684
 20
0.0000000000000013
 30
0.0
  0
VERTEX
  5
54D
  8
RULER
 10
22.49995129541684
 20
0.500000000000004
 30
0.0
  0
SEQEND
  5
D53
  8
RULER
  0
POLYLINE
  5
19D
  8
RULER
 66
     1
 10
0.0
 20
0.0
 30
0.0
  0
VERTEX
  5
54E
  8
RULER
 10
21.49995129541684
 20
0.0000000000000013
 30
0.0
  0
VERTEX
  5
54F
  8
RULER
 10
21.49995129541684
 20
0.500000000000004
 30
0.0
  0
SEQEND
  5
D54
  8
RULER
  0
POLYLINE
  5
19E
  8
RULER
 66
     1
 10
0.0
 20
0.0
 30
0.0
  0
VERTEX
  5
550
  8
RULER
 10
20.49995129541684
 20
0.0000000000000018
 30
0.0
  0
VERTEX
  5
551
  8
RULER
 10
20.49995129541684
 20
0.5000000000000044
 30
0.0
  0
SEQEND
  5
D55
  8
RULER
  0
POLYLINE
  5
19F
  8
RULER
 66
     1
 10
0.0
 20
0.0
 30
0.0
  0
VERTEX
  5
552
  8
RULER
 10
19.49995129541684
 20
0.0000000000000018
 30
0.0
  0
VERTEX
  5
553
  8
RULER
 10
19.49995129541684
 20
0.5000000000000044
 30
0.0
  0
SEQEND
  5
D56
  8
RULER
  0
POLYLINE
  5
1A0
  8
RULER
 66
     1
 10
0.0
 20
0.0
 30
0.0
  0
VERTEX
  5
554
  8
RULER
 10
18.49995129541684
 20
0.0000000000000018
 30
0.0
  0
VERTEX
  5
555
  8
RULER
 10
18.49995129541684
 20
0.5000000000000044
 30
0.0
  0
SEQEND
  5
D57
  8
RULER
  0
POLYLINE
  5
1A1
  8
RULER
 66
     1
 10
0.0
 20
0.0
 30
0.0
  0
VERTEX
  5
556
  8
RULER
 10
17.49995129541684
 20
0.0000000000000018
 30
0.0
  0
VERTEX
  5
557
  8
RULER
 10
17.49995129541684
 20
0.5000000000000044
 30
0.0
  0
SEQEND
  5
D58
  8
RULER
  0
POLYLINE
  5
1A2
  8
RULER
 66
     1
 10
0.0
 20
0.0
 30
0.0
  0
VERTEX
  5
558
  8
RULER
 10
16.49995129541684
 20
0.0000000000000018
 30
0.0
  0
VERTEX
  5
559
  8
RULER
 10
16.49995129541684
 20
0.5000000000000044
 30
0.0
  0
SEQEND
  5
D59
  8
RULER
  0
POLYLINE
  5
1A3
  8
RULER
 66
     1
 10
0.0
 20
0.0
 30
0.0
  0
VERTEX
  5
55A
  8
RULER
 10
15.49995129541684
 20
0.0000000000000022
 30
0.0
  0
VERTEX
  5
55B
  8
RULER
 10
15.49995129541684
 20
0.5000000000000053
 30
0.0
  0
SEQEND
  5
D5A
  8
RULER
  0
POLYLINE
  5
1A4
  8
RULER
 66
     1
 10
0.0
 20
0.0
 30
0.0
  0
VERTEX
  5
55C
  8
RULER
 10
14.49995129541684
 20
0.0000000000000022
 30
0.0
  0
VERTEX
  5
55D
  8
RULER
 10
14.49995129541684
 20
0.5000000000000053
 30
0.0
  0
SEQEND
  5
D5B
  8
RULER
  0
POLYLINE
  5
1A5
  8
RULER
 66
     1
 10
0.0
 20
0.0
 30
0.0
  0
VERTEX
  5
55E
  8
RULER
 10
13.49995129541684
 20
0.0000000000000022
 30
0.0
  0
VERTEX
  5
55F
  8
RULER
 10
13.49995129541684
 20
0.5000000000000053
 30
0.0
  0
SEQEND
  5
D5C
  8
RULER
  0
POLYLINE
  5
1A6
  8
RULER
 66
     1
 10
0.0
 20
0.0
 30
0.0
  0
VERTEX
  5
560
  8
RULER
 10
12.49995129541684
 20
0.0000000000000022
 30
0.0
  0
VERTEX
  5
561
  8
RULER
 10
12.49995129541684
 20
0.5000000000000053
 30
0.0
  0
SEQEND
  5
D5D
  8
RULER
  0
POLYLINE
  5
1A7
  8
RULER
 66
     1
 10
0.0
 20
0.0
 30
0.0
  0
VERTEX
  5
562
  8
RULER
 10
11.49995129541684
 20
0.0000000000000031
 30
0.0
  0
VERTEX
  5
563
  8
RULER
 10
11.49995129541684
 20
0.5000000000000058
 30
0.0
  0
SEQEND
  5
D5E
  8
RULER
  0
POLYLINE
  5
1A8
  8
RULER
 66
     1
 10
0.0
 20
0.0
 30
0.0
  0
VERTEX
  5
564
  8
RULER
 10
10.49995129541684
 20
0.0000000000000031
 30
0.0
  0
VERTEX
  5
565
  8
RULER
 10
10.49995129541684
 20
0.5000000000000058
 30
0.0
  0
SEQEND
  5
D5F
  8
RULER
  0
POLYLINE
  5
1A9
  8
RULER
 66
     1
 10
0.0
 20
0.0
 30
0.0
  0
VERTEX
  5
566
  8
RULER
 10
9.499951295416842
 20
0.0000000000000031
 30
0.0
  0
VERTEX
  5
567
  8
RULER
 10
9.499951295416842
 20
0.5000000000000058
 30
0.0
  0
SEQEND
  5
D60
  8
RULER
  0
POLYLINE
  5
1AA
  8
RULER
 66
     1
 10
0.0
 20
0.0
 30
0.0
  0
VERTEX
  5
568
  8
RULER
 10
8.499951295416842
 20
0.0000000000000031
 30
0.0
  0
VERTEX
  5
569
  8
RULER
 10
8.499951295416842
 20
0.5000000000000058
 30
0.0
  0
SEQEND
  5
D61
  8
RULER
  0
POLYLINE
  5
1AB
  8
RULER
 66
     1
 10
0.0
 20
0.0
 30
0.0
  0
VERTEX
  5
56A
  8
RULER
 10
7.499951295416841
 20
0.0000000000000031
 30
0.0
  0
VERTEX
  5
56B
  8
RULER
 10
7.499951295416841
 20
0.5000000000000058
 30
0.0
  0
SEQEND
  5
D62
  8
RULER
  0
POLYLINE
  5
1AC
  8
RULER
 66
     1
 10
0.0
 20
0.0
 30
0.0
  0
VERTEX
  5
56C
  8
RULER
 10
6.499951295416839
 20
0.0000000000000036
 30
0.0
  0
VERTEX
  5
56D
  8
RULER
 10
6.499951295416839
 20
0.5000000000000062
 30
0.0
  0
SEQEND
  5
D63
  8
RULER
  0
POLYLINE
  5
1AD
  8
RULER
 66
     1
 10
0.0
 20
0.0
 30
0.0
  0
VERTEX
  5
56E
  8
RULER
 10
5.499951295416842
 20
0.0000000000000036
 30
0.0
  0
VERTEX
  5
56F
  8
RULER
 10
5.499951295416842
 20
0.5000000000000062
 30
0.0
  0
SEQEND
  5
D64
  8
RULER
  0
POLYLINE
  5
1AE
  8
RULER
 66
     1
 10
0.0
 20
0.0
 30
0.0
  0
VERTEX
  5
570
  8
RULER
 10
4.499951295416841
 20
0.0000000000000036
 30
0.0
  0
VERTEX
  5
571
  8
RULER
 10
4.499951295416841
 20
0.5000000000000062
 30
0.0
  0
SEQEND
  5
D65
  8
RULER
  0
POLYLINE
  5
1AF
  8
RULER
 66
     1
 10
0.0
 20
0.0
 30
0.0
  0
VERTEX
  5
572
  8
RULER
 10
3.499951295416841
 20
0.0000000000000036
 30
0.0
  0
VERTEX
  5
573
  8
RULER
 10
3.499951295416841
 20
0.5000000000000062
 30
0.0
  0
SEQEND
  5
D66
  8
RULER
  0
POLYLINE
  5
1B0
  8
RULER
 66
     1
 10
0.0
 20
0.0
 30
0.0
  0
VERTEX
  5
574
  8
RULER
 10
2.49995129541684
 20
0.000000000000004
 30
0.0
  0
VERTEX
  5
575
  8
RULER
 10
2.49995129541684
 20
0.5000000000000067
 30
0.0
  0
SEQEND
  5
D67
  8
RULER
  0
POLYLINE
  5
1B1
  8
RULER
 66
     1
 10
0.0
 20
0.0
 30
0.0
  0
VERTEX
  5
576
  8
RULER
 10
1.499951295416839
 20
0.000000000000004
 30
0.0
  0
VERTEX
  5
577
  8
RULER
 10
1.499951295416839
 20
0.5000000000000067
 30
0.0
  0
SEQEND
  5
D68
  8
RULER
  0
POLYLINE
  5
1B2
  8
RULER
 66
     1
 10
0.0
 20
0.0
 30
0.0
  0
VERTEX
  5
578
  8
RULER
 10
0.4999512954168424
 20
0.000000000000004
 30
0.0
  0
VERTEX
  5
579
  8
RULER
 10
0.4999512954168424
 20
0.5000000000000067
 30
0.0
  0
SEQEND
  5
D69
  8
RULER
  0
POLYLINE
  5
1B3
  8
RULER
 66
     1
 10
0.0
 20
0.0
 30
0.0
  0
VERTEX
  5
57A
  8
RULER
 10
31.74995129541684
 20
0.0
 30
0.0
  0
VERTEX
  5
57B
  8
RULER
 10
31.74995129541684
 20
0.2500000000000036
 30
0.0
  0
SEQEND
  5
D6A
  8
RULER
  0
POLYLINE
  5
1B4
  8
RULER
 66
     1
 10
0.0
 20
0.0
 30
0.0
  0
VERTEX
  5
57C
  8
RULER
 10
31.24995129541684
 20
0.0
 30
0.0
  0
VERTEX
  5
57D
  8
RULER
 10
31.24995129541684
 20
0.2500000000000036
 30
0.0
  0
SEQEND
  5
D6B
  8
RULER
  0
POLYLINE
  5
1B5
  8
RULER
 66
     1
 10
0.0
 20
0.0
 30
0.0
  0
VERTEX
  5
57E
  8
RULER
 10
30.74995129541684
 20
0.0
 30
0.0
  0
VERTEX
  5
57F
  8
RULER
 10
30.74995129541684
 20
0.2500000000000036
 30
0.0
  0
SEQEND
  5
D6C
  8
RULER
  0
POLYLINE
  5
1B6
  8
RULER
 66
     1
 10
0.0
 20
0.0
 30
0.0
  0
VERTEX
  5
580
  8
RULER
 10
30.24995129541684
 20
0.0
 30
0.0
  0
VERTEX
  5
581
  8
RULER
 10
30.24995129541684
 20
0.2500000000000036
 30
0.0
  0
SEQEND
  5
D6D
  8
RULER
  0
POLYLINE
  5
1B7
  8
RULER
 66
     1
 10
0.0
 20
0.0
 30
0.0
  0
VERTEX
  5
582
  8
RULER
 10
29.74995129541684
 20
0.0
 30
0.0
  0
VERTEX
  5
583
  8
RULER
 10
29.74995129541684
 20
0.2500000000000036
 30
0.0
  0
SEQEND
  5
D6E
  8
RULER
  0
POLYLINE
  5
1B8
  8
RULER
 66
     1
 10
0.0
 20
0.0
 30
0.0
  0
VERTEX
  5
584
  8
RULER
 10
29.24995129541684
 20
0.0000000000000009
 30
0.0
  0
VERTEX
  5
585
  8
RULER
 10
29.24995129541684
 20
0.2500000000000044
 30
0.0
  0
SEQEND
  5
D6F
  8
RULER
  0
POLYLINE
  5
1B9
  8
RULER
 66
     1
 10
0.0
 20
0.0
 30
0.0
  0
VERTEX
  5
586
  8
RULER
 10
28.74995129541684
 20
0.0000000000000009
 30
0.0
  0
VERTEX
  5
587
  8
RULER
 10
28.74995129541684
 20
0.2500000000000044
 30
0.0
  0
SEQEND
  5
D70
  8
RULER
  0
POLYLINE
  5
1BA
  8
RULER
 66
     1
 10
0.0
 20
0.0
 30
0.0
  0
VERTEX
  5
588
  8
RULER
 10
28.24995129541684
 20
0.0000000000000009
 30
0.0
  0
VERTEX
  5
589
  8
RULER
 10
28.24995129541684
 20
0.2500000000000044
 30
0.0
  0
SEQEND
  5
D71
  8
RULER
  0
POLYLINE
  5
1BB
  8
RULER
 66
     1
 10
0.0
 20
0.0
 30
0.0
  0
VERTEX
  5
58A
  8
RULER
 10
27.74995129541684
 20
0.0000000000000009
 30
0.0
  0
VERTEX
  5
58B
  8
RULER
 10
27.74995129541684
 20
0.2500000000000044
 30
0.0
  0
SEQEND
  5
D72
  8
RULER
  0
POLYLINE
  5
1BC
  8
RULER
 66
     1
 10
0.0
 20
0.0
 30
0.0
  0
VERTEX
  5
58C
  8
RULER
 10
27.24995129541684
 20
0.0000000000000009
 30
0.0
  0
VERTEX
  5
58D
  8
RULER
 10
27.24995129541684
 20
0.2500000000000044
 30
0.0
  0
SEQEND
  5
D73
  8
RULER
  0
POLYLINE
  5
1BD
  8
RULER
 66
     1
 10
0.0
 20
0.0
 30
0.0
  0
VERTEX
  5
58E
  8
RULER
 10
26.74995129541684
 20
0.0000000000000009
 30
0.0
  0
VERTEX
  5
58F
  8
RULER
 10
26.74995129541684
 20
0.2500000000000044
 30
0.0
  0
SEQEND
  5
D74
  8
RULER
  0
POLYLINE
  5
1BE
  8
RULER
 66
     1
 10
0.0
 20
0.0
 30
0.0
  0
VERTEX
  5
590
  8
RULER
 10
26.24995129541684
 20
0.0000000000000009
 30
0.0
  0
VERTEX
  5
591
  8
RULER
 10
26.24995129541684
 20
0.2500000000000044
 30
0.0
  0
SEQEND
  5
D75
  8
RULER
  0
POLYLINE
  5
1BF
  8
RULER
 66
     1
 10
0.0
 20
0.0
 30
0.0
  0
VERTEX
  5
592
  8
RULER
 10
25.74995129541684
 20
0.0000000000000009
 30
0.0
  0
VERTEX
  5
593
  8
RULER
 10
25.74995129541684
 20
0.2500000000000044
 30
0.0
  0
SEQEND
  5
D76
  8
RULER
  0
POLYLINE
  5
1C0
  8
RULER
 66
     1
 10
0.0
 20
0.0
 30
0.0
  0
VERTEX
  5
594
  8
RULER
 10
25.24995129541684
 20
0.0000000000000009
 30
0.0
  0
VERTEX
  5
595
  8
RULER
 10
25.24995129541684
 20
0.2500000000000044
 30
0.0
  0
SEQEND
  5
D77
  8
RULER
  0
POLYLINE
  5
1C1
  8
RULER
 66
     1
 10
0.0
 20
0.0
 30
0.0
  0
VERTEX
  5
596
  8
RULER
 10
24.74995129541684
 20
0.0000000000000013
 30
0.0
  0
VERTEX
  5
597
  8
RULER
 10
24.74995129541684
 20
0.2500000000000049
 30
0.0
  0
SEQEND
  5
D78
  8
RULER
  0
POLYLINE
  5
1C2
  8
RULER
 66
     1
 10
0.0
 20
0.0
 30
0.0
  0
VERTEX
  5
598
  8
RULER
 10
24.24995129541684
 20
0.0000000000000013
 30
0.0
  0
VERTEX
  5
599
  8
RULER
 10
24.24995129541684
 20
0.2500000000000049
 30
0.0
  0
SEQEND
  5
D79
  8
RULER
  0
POLYLINE
  5
1C3
  8
RULER
 66
     1
 10
0.0
 20
0.0
 30
0.0
  0
VERTEX
  5
59A
  8
RULER
 10
23.74995129541684
 20
0.0000000000000013
 30
0.0
  0
VERTEX
  5
59B
  8
RULER
 10
23.74995129541684
 20
0.2500000000000049
 30
0.0
  0
SEQEND
  5
D7A
  8
RULER
  0
POLYLINE
  5
1C4
  8
RULER
 66
     1
 10
0.0
 20
0.0
 30
0.0
  0
VERTEX
  5
59C
  8
RULER
 10
23.24995129541684
 20
0.0000000000000013
 30
0.0
  0
VERTEX
  5
59D
  8
RULER
 10
23.24995129541684
 20
0.2500000000000049
 30
0.0
  0
SEQEND
  5
D7B
  8
RULER
  0
POLYLINE
  5
1C5
  8
RULER
 66
     1
 10
0.0
 20
0.0
 30
0.0
  0
VERTEX
  5
59E
  8
RULER
 10
22.74995129541684
 20
0.0000000000000013
 30
0.0
  0
VERTEX
  5
59F
  8
RULER
 10
22.74995129541684
 20
0.2500000000000049
 30
0.0
  0
SEQEND
  5
D7C
  8
RULER
  0
POLYLINE
  5
1C6
  8
RULER
 66
     1
 10
0.0
 20
0.0
 30
0.0
  0
VERTEX
  5
5A0
  8
RULER
 10
22.24995129541684
 20
0.0000000000000013
 30
0.0
  0
VERTEX
  5
5A1
  8
RULER
 10
22.24995129541684
 20
0.2500000000000049
 30
0.0
  0
SEQEND
  5
D7D
  8
RULER
  0
POLYLINE
  5
1C7
  8
RULER
 66
     1
 10
0.0
 20
0.0
 30
0.0
  0
VERTEX
  5
5A2
  8
RULER
 10
21.74995129541684
 20
0.0000000000000013
 30
0.0
  0
VERTEX
  5
5A3
  8
RULER
 10
21.74995129541684
 20
0.2500000000000049
 30
0.0
  0
SEQEND
  5
D7E
  8
RULER
  0
POLYLINE
  5
1C8
  8
RULER
 66
     1
 10
0.0
 20
0.0
 30
0.0
  0
VERTEX
  5
5A4
  8
RULER
 10
21.24995129541684
 20
0.0000000000000013
 30
0.0
  0
VERTEX
  5
5A5
  8
RULER
 10
21.24995129541684
 20
0.2500000000000049
 30
0.0
  0
SEQEND
  5
D7F
  8
RULER
  0
POLYLINE
  5
1C9
  8
RULER
 66
     1
 10
0.0
 20
0.0
 30
0.0
  0
VERTEX
  5
5A6
  8
RULER
 10
20.74995129541684
 20
0.0000000000000013
 30
0.0
  0
VERTEX
  5
5A7
  8
RULER
 10
20.74995129541684
 20
0.2500000000000049
 30
0.0
  0
SEQEND
  5
D80
  8
RULER
  0
POLYLINE
  5
1CA
  8
RULER
 66
     1
 10
0.0
 20
0.0
 30
0.0
  0
VERTEX
  5
5A8
  8
RULER
 10
20.24995129541684
 20
0.0000000000000018
 30
0.0
  0
VERTEX
  5
5A9
  8
RULER
 10
20.24995129541684
 20
0.2500000000000053
 30
0.0
  0
SEQEND
  5
D81
  8
RULER
  0
POLYLINE
  5
1CB
  8
RULER
 66
     1
 10
0.0
 20
0.0
 30
0.0
  0
VERTEX
  5
5AA
  8
RULER
 10
19.74995129541684
 20
0.0000000000000018
 30
0.0
  0
VERTEX
  5
5AB
  8
RULER
 10
19.74995129541684
 20
0.2500000000000053
 30
0.0
  0
SEQEND
  5
D82
  8
RULER
  0
POLYLINE
  5
1CC
  8
RULER
 66
     1
 10
0.0
 20
0.0
 30
0.0
  0
VERTEX
  5
5AC
  8
RULER
 10
19.24995129541684
 20
0.0000000000000018
 30
0.0
  0
VERTEX
  5
5AD
  8
RULER
 10
19.24995129541684
 20
0.2500000000000053
 30
0.0
  0
SEQEND
  5
D83
  8
RULER
  0
POLYLINE
  5
1CD
  8
RULER
 66
     1
 10
0.0
 20
0.0
 30
0.0
  0
VERTEX
  5
5AE
  8
RULER
 10
18.74995129541684
 20
0.0000000000000018
 30
0.0
  0
VERTEX
  5
5AF
  8
RULER
 10
18.74995129541684
 20
0.2500000000000053
 30
0.0
  0
SEQEND
  5
D84
  8
RULER
  0
POLYLINE
  5
1CE
  8
RULER
 66
     1
 10
0.0
 20
0.0
 30
0.0
  0
VERTEX
  5
5B0
  8
RULER
 10
18.24995129541684
 20
0.0000000000000018
 30
0.0
  0
VERTEX
  5
5B1
  8
RULER
 10
18.24995129541684
 20
0.2500000000000053
 30
0.0
  0
SEQEND
  5
D85
  8
RULER
  0
POLYLINE
  5
1CF
  8
RULER
 66
     1
 10
0.0
 20
0.0
 30
0.0
  0
VERTEX
  5
5B2
  8
RULER
 10
17.74995129541684
 20
0.0000000000000018
 30
0.0
  0
VERTEX
  5
5B3
  8
RULER
 10
17.74995129541684
 20
0.2500000000000053
 30
0.0
  0
SEQEND
  5
D86
  8
RULER
  0
POLYLINE
  5
1D0
  8
RULER
 66
     1
 10
0.0
 20
0.0
 30
0.0
  0
VERTEX
  5
5B4
  8
RULER
 10
17.24995129541684
 20
0.0000000000000018
 30
0.0
  0
VERTEX
  5
5B5
  8
RULER
 10
17.24995129541684
 20
0.2500000000000053
 30
0.0
  0
SEQEND
  5
D87
  8
RULER
  0
POLYLINE
  5
1D1
  8
RULER
 66
     1
 10
0.0
 20
0.0
 30
0.0
  0
VERTEX
  5
5B6
  8
RULER
 10
16.74995129541684
 20
0.0000000000000018
 30
0.0
  0
VERTEX
  5
5B7
  8
RULER
 10
16.74995129541684
 20
0.2500000000000053
 30
0.0
  0
SEQEND
  5
D88
  8
RULER
  0
POLYLINE
  5
1D2
  8
RULER
 66
     1
 10
0.0
 20
0.0
 30
0.0
  0
VERTEX
  5
5B8
  8
RULER
 10
16.24995129541684
 20
0.0000000000000018
 30
0.0
  0
VERTEX
  5
5B9
  8
RULER
 10
16.24995129541684
 20
0.2500000000000053
 30
0.0
  0
SEQEND
  5
D89
  8
RULER
  0
POLYLINE
  5
1D3
  8
RULER
 66
     1
 10
0.0
 20
0.0
 30
0.0
  0
VERTEX
  5
5BA
  8
RULER
 10
15.74995129541684
 20
0.0000000000000022
 30
0.0
  0
VERTEX
  5
5BB
  8
RULER
 10
15.74995129541684
 20
0.2500000000000058
 30
0.0
  0
SEQEND
  5
D8A
  8
RULER
  0
POLYLINE
  5
1D4
  8
RULER
 66
     1
 10
0.0
 20
0.0
 30
0.0
  0
VERTEX
  5
5BC
  8
RULER
 10
15.24995129541684
 20
0.0000000000000022
 30
0.0
  0
VERTEX
  5
5BD
  8
RULER
 10
15.24995129541684
 20
0.2500000000000058
 30
0.0
  0
SEQEND
  5
D8B
  8
RULER
  0
POLYLINE
  5
1D5
  8
RULER
 66
     1
 10
0.0
 20
0.0
 30
0.0
  0
VERTEX
  5
5BE
  8
RULER
 10
14.74995129541684
 20
0.0000000000000022
 30
0.0
  0
VERTEX
  5
5BF
  8
RULER
 10
14.74995129541684
 20
0.2500000000000058
 30
0.0
  0
SEQEND
  5
D8C
  8
RULER
  0
POLYLINE
  5
1D6
  8
RULER
 66
     1
 10
0.0
 20
0.0
 30
0.0
  0
VERTEX
  5
5C0
  8
RULER
 10
14.24995129541684
 20
0.0000000000000022
 30
0.0
  0
VERTEX
  5
5C1
  8
RULER
 10
14.24995129541684
 20
0.2500000000000058
 30
0.0
  0
SEQEND
  5
D8D
  8
RULER
  0
POLYLINE
  5
1D7
  8
RULER
 66
     1
 10
0.0
 20
0.0
 30
0.0
  0
VERTEX
  5
5C2
  8
RULER
 10
13.74995129541684
 20
0.0000000000000022
 30
0.0
  0
VERTEX
  5
5C3
  8
RULER
 10
13.74995129541684
 20
0.2500000000000058
 30
0.0
  0
SEQEND
  5
D8E
  8
RULER
  0
POLYLINE
  5
1D8
  8
RULER
 66
     1
 10
0.0
 20
0.0
 30
0.0
  0
VERTEX
  5
5C4
  8
RULER
 10
13.24995129541684
 20
0.0000000000000022
 30
0.0
  0
VERTEX
  5
5C5
  8
RULER
 10
13.24995129541684
 20
0.2500000000000058
 30
0.0
  0
SEQEND
  5
D8F
  8
RULER
  0
POLYLINE
  5
1D9
  8
RULER
 66
     1
 10
0.0
 20
0.0
 30
0.0
  0
VERTEX
  5
5C6
  8
RULER
 10
12.74995129541684
 20
0.0000000000000022
 30
0.0
  0
VERTEX
  5
5C7
  8
RULER
 10
12.74995129541684
 20
0.2500000000000058
 30
0.0
  0
SEQEND
  5
D90
  8
RULER
  0
POLYLINE
  5
1DA
  8
RULER
 66
     1
 10
0.0
 20
0.0
 30
0.0
  0
VERTEX
  5
5C8
  8
RULER
 10
12.24995129541684
 20
0.0000000000000022
 30
0.0
  0
VERTEX
  5
5C9
  8
RULER
 10
12.24995129541684
 20
0.2500000000000058
 30
0.0
  0
SEQEND
  5
D91
  8
RULER
  0
POLYLINE
  5
1DB
  8
RULER
 66
     1
 10
0.0
 20
0.0
 30
0.0
  0
VERTEX
  5
5CA
  8
RULER
 10
11.74995129541684
 20
0.0000000000000022
 30
0.0
  0
VERTEX
  5
5CB
  8
RULER
 10
11.74995129541684
 20
0.2500000000000058
 30
0.0
  0
SEQEND
  5
D92
  8
RULER
  0
POLYLINE
  5
1DC
  8
RULER
 66
     1
 10
0.0
 20
0.0
 30
0.0
  0
VERTEX
  5
5CC
  8
RULER
 10
11.24995129541684
 20
0.0000000000000031
 30
0.0
  0
VERTEX
  5
5CD
  8
RULER
 10
11.24995129541684
 20
0.2500000000000067
 30
0.0
  0
SEQEND
  5
D93
  8
RULER
  0
POLYLINE
  5
1DD
  8
RULER
 66
     1
 10
0.0
 20
0.0
 30
0.0
  0
VERTEX
  5
5CE
  8
RULER
 10
10.74995129541684
 20
0.0000000000000031
 30
0.0
  0
VERTEX
  5
5CF
  8
RULER
 10
10.74995129541684
 20
0.2500000000000067
 30
0.0
  0
SEQEND
  5
D94
  8
RULER
  0
POLYLINE
  5
1DE
  8
RULER
 66
     1
 10
0.0
 20
0.0
 30
0.0
  0
VERTEX
  5
5D0
  8
RULER
 10
10.24995129541684
 20
0.0000000000000031
 30
0.0
  0
VERTEX
  5
5D1
  8
RULER
 10
10.24995129541684
 20
0.2500000000000067
 30
0.0
  0
SEQEND
  5
D95
  8
RULER
  0
POLYLINE
  5
1DF
  8
RULER
 66
     1
 10
0.0
 20
0.0
 30
0.0
  0
VERTEX
  5
5D2
  8
RULER
 10
9.749951295416842
 20
0.0000000000000031
 30
0.0
  0
VERTEX
  5
5D3
  8
RULER
 10
9.749951295416842
 20
0.2500000000000067
 30
0.0
  0
SEQEND
  5
D96
  8
RULER
  0
POLYLINE
  5
1E0
  8
RULER
 66
     1
 10
0.0
 20
0.0
 30
0.0
  0
VERTEX
  5
5D4
  8
RULER
 10
9.249951295416839
 20
0.0000000000000031
 30
0.0
  0
VERTEX
  5
5D5
  8
RULER
 10
9.249951295416839
 20
0.2500000000000067
 30
0.0
  0
SEQEND
  5
D97
  8
RULER
  0
POLYLINE
  5
1E1
  8
RULER
 66
     1
 10
0.0
 20
0.0
 30
0.0
  0
VERTEX
  5
5D6
  8
RULER
 10
8.74995129541684
 20
0.0000000000000031
 30
0.0
  0
VERTEX
  5
5D7
  8
RULER
 10
8.74995129541684
 20
0.2500000000000067
 30
0.0
  0
SEQEND
  5
D98
  8
RULER
  0
POLYLINE
  5
1E2
  8
RULER
 66
     1
 10
0.0
 20
0.0
 30
0.0
  0
VERTEX
  5
5D8
  8
RULER
 10
8.249951295416842
 20
0.0000000000000031
 30
0.0
  0
VERTEX
  5
5D9
  8
RULER
 10
8.249951295416842
 20
0.2500000000000067
 30
0.0
  0
SEQEND
  5
D99
  8
RULER
  0
POLYLINE
  5
1E3
  8
RULER
 66
     1
 10
0.0
 20
0.0
 30
0.0
  0
VERTEX
  5
5DA
  8
RULER
 10
7.74995129541684
 20
0.0000000000000031
 30
0.0
  0
VERTEX
  5
5DB
  8
RULER
 10
7.74995129541684
 20
0.2500000000000067
 30
0.0
  0
SEQEND
  5
D9A
  8
RULER
  0
POLYLINE
  5
1E4
  8
RULER
 66
     1
 10
0.0
 20
0.0
 30
0.0
  0
VERTEX
  5
5DC
  8
RULER
 10
7.249951295416841
 20
0.0000000000000031
 30
0.0
  0
VERTEX
  5
5DD
  8
RULER
 10
7.249951295416841
 20
0.2500000000000067
 30
0.0
  0
SEQEND
  5
D9B
  8
RULER
  0
POLYLINE
  5
1E5
  8
RULER
 66
     1
 10
0.0
 20
0.0
 30
0.0
  0
VERTEX
  5
5DE
  8
RULER
 10
6.749951295416838
 20
0.0000000000000036
 30
0.0
  0
VERTEX
  5
5DF
  8
RULER
 10
6.749951295416838
 20
0.2500000000000071
 30
0.0
  0
SEQEND
  5
D9C
  8
RULER
  0
POLYLINE
  5
1E6
  8
RULER
 66
     1
 10
0.0
 20
0.0
 30
0.0
  0
VERTEX
  5
5E0
  8
RULER
 10
6.24995129541684
 20
0.0000000000000036
 30
0.0
  0
VERTEX
  5
5E1
  8
RULER
 10
6.24995129541684
 20
0.2500000000000071
 30
0.0
  0
SEQEND
  5
D9D
  8
RULER
  0
POLYLINE
  5
1E7
  8
RULER
 66
     1
 10
0.0
 20
0.0
 30
0.0
  0
VERTEX
  5
5E2
  8
RULER
 10
5.749951295416841
 20
0.0000000000000036
 30
0.0
  0
VERTEX
  5
5E3
  8
RULER
 10
5.749951295416841
 20
0.2500000000000071
 30
0.0
  0
SEQEND
  5
D9E
  8
RULER
  0
POLYLINE
  5
1E8
  8
RULER
 66
     1
 10
0.0
 20
0.0
 30
0.0
  0
VERTEX
  5
5E4
  8
RULER
 10
5.249951295416839
 20
0.0000000000000036
 30
0.0
  0
VERTEX
  5
5E5
  8
RULER
 10
5.249951295416839
 20
0.2500000000000071
 30
0.0
  0
SEQEND
  5
D9F
  8
RULER
  0
POLYLINE
  5
1E9
  8
RULER
 66
     1
 10
0.0
 20
0.0
 30
0.0
  0
VERTEX
  5
5E6
  8
RULER
 10
4.749951295416841
 20
0.0000000000000036
 30
0.0
  0
VERTEX
  5
5E7
  8
RULER
 10
4.749951295416841
 20
0.2500000000000071
 30
0.0
  0
SEQEND
  5
DA0
  8
RULER
  0
POLYLINE
  5
1EA
  8
RULER
 66
     1
 10
0.0
 20
0.0
 30
0.0
  0
VERTEX
  5
5E8
  8
RULER
 10
4.249951295416842
 20
0.0000000000000036
 30
0.0
  0
VERTEX
  5
5E9
  8
RULER
 10
4.249951295416842
 20
0.2500000000000071
 30
0.0
  0
SEQEND
  5
DA1
  8
RULER
  0
POLYLINE
  5
1EB
  8
RULER
 66
     1
 10
0.0
 20
0.0
 30
0.0
  0
VERTEX
  5
5EA
  8
RULER
 10
3.749951295416841
 20
0.0000000000000036
 30
0.0
  0
VERTEX
  5
5EB
  8
RULER
 10
3.749951295416841
 20
0.2500000000000071
 30
0.0
  0
SEQEND
  5
DA2
  8
RULER
  0
POLYLINE
  5
1EC
  8
RULER
 66
     1
 10
0.0
 20
0.0
 30
0.0
  0
VERTEX
  5
5EC
  8
RULER
 10
3.249951295416841
 20
0.0000000000000036
 30
0.0
  0
VERTEX
  5
5ED
  8
RULER
 10
3.249951295416841
 20
0.2500000000000071
 30
0.0
  0
SEQEND
  5
DA3
  8
RULER
  0
POLYLINE
  5
1ED
  8
RULER
 66
     1
 10
0.0
 20
0.0
 30
0.0
  0
VERTEX
  5
5EE
  8
RULER
 10
2.749951295416839
 20
0.0000000000000036
 30
0.0
  0
VERTEX
  5
5EF
  8
RULER
 10
2.749951295416839
 20
0.2500000000000071
 30
0.0
  0
SEQEND
  5
DA4
  8
RULER
  0
POLYLINE
  5
1EE
  8
RULER
 66
     1
 10
0.0
 20
0.0
 30
0.0
  0
VERTEX
  5
5F0
  8
RULER
 10
2.249951295416841
 20
0.000000000000004
 30
0.0
  0
VERTEX
  5
5F1
  8
RULER
 10
2.249951295416841
 20
0.2500000000000075
 30
0.0
  0
SEQEND
  5
DA5
  8
RULER
  0
POLYLINE
  5
1EF
  8
RULER
 66
     1
 10
0.0
 20
0.0
 30
0.0
  0
VERTEX
  5
5F2
  8
RULER
 10
1.749951295416842
 20
0.000000000000004
 30
0.0
  0
VERTEX
  5
5F3
  8
RULER
 10
1.749951295416842
 20
0.2500000000000075
 30
0.0
  0
SEQEND
  5
DA6
  8
RULER
  0
POLYLINE
  5
1F0
  8
RULER
 66
     1
 10
0.0
 20
0.0
 30
0.0
  0
VERTEX
  5
5F4
  8
RULER
 10
1.249951295416839
 20
0.000000000000004
 30
0.0
  0
VERTEX
  5
5F5
  8
RULER
 10
1.249951295416839
 20
0.2500000000000075
 30
0.0
  0
SEQEND
  5
DA7
  8
RULER
  0
POLYLINE
  5
1F1
  8
RULER
 66
     1
 10
0.0
 20
0.0
 30
0.0
  0
VERTEX
  5
5F6
  8
RULER
 10
0.7499512954168406
 20
0.000000000000004
 30
0.0
  0
VERTEX
  5
5F7
  8
RULER
 10
0.7499512954168406
 20
0.2500000000000075
 30
0.0
  0
SEQEND
  5
DA8
  8
RULER
  0
POLYLINE
  5
1F2
  8
RULER
 66
     1
 10
0.0
 20
0.0
 30
0.0
  0
VERTEX
  5
5F8
  8
RULER
 10
0.2499512954168388
 20
0.000000000000004
 30
0.0
  0
VERTEX
  5
5F9
  8
RULER
 10
0.2499512954168388
 20
0.2500000000000075
 30
0.0
  0
SEQEND
  5
DA9
  8
RULER
  0
POLYLINE
  5
1F3
  8
RULER
 66
     1
 10
0.0
 20
0.0
 30
0.0
  0
VERTEX
  5
5FA
  8
RULER
 10
31.87495129541684
 20
0.0
 30
0.0
  0
VERTEX
  5
5FB
  8
RULER
 10
31.87495129541684
 20
0.1250000000000018
 30
0.0
  0
SEQEND
  5
DAA
  8
RULER
  0
POLYLINE
  5
1F4
  8
RULER
 66
     1
 10
0.0
 20
0.0
 30
0.0
  0
VERTEX
  5
5FC
  8
RULER
 10
31.62495129541684
 20
0.0
 30
0.0
  0
VERTEX
  5
5FD
  8
RULER
 10
31.62495129541684
 20
0.1250000000000018
 30
0.0
  0
SEQEND
  5
DAB
  8
RULER
  0
POLYLINE
  5
1F5
  8
RULER
 66
     1
 10
0.0
 20
0.0
 30
0.0
  0
VERTEX
  5
5FE
  8
RULER
 10
31.37495129541684
 20
0.0
 30
0.0
  0
VERTEX
  5
5FF
  8
RULER
 10
31.37495129541684
 20
0.1250000000000018
 30
0.0
  0
SEQEND
  5
DAC
  8
RULER
  0
POLYLINE
  5
1F6
  8
RULER
 66
     1
 10
0.0
 20
0.0
 30
0.0
  0
VERTEX
  5
600
  8
RULER
 10
31.12495129541684
 20
0.0
 30
0.0
  0
VERTEX
  5
601
  8
RULER
 10
31.12495129541684
 20
0.1250000000000018
 30
0.0
  0
SEQEND
  5
DAD
  8
RULER
  0
POLYLINE
  5
1F7
  8
RULER
 66
     1
 10
0.0
 20
0.0
 30
0.0
  0
VERTEX
  5
602
  8
RULER
 10
30.87495129541684
 20
0.0
 30
0.0
  0
VERTEX
  5
603
  8
RULER
 10
30.87495129541684
 20
0.1250000000000018
 30
0.0
  0
SEQEND
  5
DAE
  8
RULER
  0
POLYLINE
  5
1F8
  8
RULER
 66
     1
 10
0.0
 20
0.0
 30
0.0
  0
VERTEX
  5
604
  8
RULER
 10
30.62495129541684
 20
0.0
 30
0.0
  0
VERTEX
  5
605
  8
RULER
 10
30.62495129541684
 20
0.1250000000000018
 30
0.0
  0
SEQEND
  5
DAF
  8
RULER
  0
POLYLINE
  5
1F9
  8
RULER
 66
     1
 10
0.0
 20
0.0
 30
0.0
  0
VERTEX
  5
606
  8
RULER
 10
30.37495129541684
 20
0.0
 30
0.0
  0
VERTEX
  5
607
  8
RULER
 10
30.37495129541684
 20
0.1250000000000018
 30
0.0
  0
SEQEND
  5
DB0
  8
RULER
  0
POLYLINE
  5
1FA
  8
RULER
 66
     1
 10
0.0
 20
0.0
 30
0.0
  0
VERTEX
  5
608
  8
RULER
 10
30.12495129541684
 20
0.0
 30
0.0
  0
VERTEX
  5
609
  8
RULER
 10
30.12495129541684
 20
0.1250000000000018
 30
0.0
  0
SEQEND
  5
DB1
  8
RULER
  0
POLYLINE
  5
1FB
  8
RULER
 66
     1
 10
0.0
 20
0.0
 30
0.0
  0
VERTEX
  5
60A
  8
RULER
 10
29.87495129541684
 20
0.0
 30
0.0
  0
VERTEX
  5
60B
  8
RULER
 10
29.87495129541684
 20
0.1250000000000018
 30
0.0
  0
SEQEND
  5
DB2
  8
RULER
  0
POLYLINE
  5
1FC
  8
RULER
 66
     1
 10
0.0
 20
0.0
 30
0.0
  0
VERTEX
  5
60C
  8
RULER
 10
29.62495129541684
 20
0.0000000000000009
 30
0.0
  0
VERTEX
  5
60D
  8
RULER
 10
29.62495129541684
 20
0.1250000000000027
 30
0.0
  0
SEQEND
  5
DB3
  8
RULER
  0
POLYLINE
  5
1FD
  8
RULER
 66
     1
 10
0.0
 20
0.0
 30
0.0
  0
VERTEX
  5
60E
  8
RULER
 10
29.37495129541684
 20
0.0000000000000009
 30
0.0
  0
VERTEX
  5
60F
  8
RULER
 10
29.37495129541684
 20
0.1250000000000027
 30
0.0
  0
SEQEND
  5
DB4
  8
RULER
  0
POLYLINE
  5
1FE
  8
RULER
 66
     1
 10
0.0
 20
0.0
 30
0.0
  0
VERTEX
  5
610
  8
RULER
 10
29.12495129541684
 20
0.0000000000000009
 30
0.0
  0
VERTEX
  5
611
  8
RULER
 10
29.12495129541684
 20
0.1250000000000027
 30
0.0
  0
SEQEND
  5
DB5
  8
RULER
  0
POLYLINE
  5
1FF
  8
RULER
 66
     1
 10
0.0
 20
0.0
 30
0.0
  0
VERTEX
  5
612
  8
RULER
 10
28.87495129541684
 20
0.0000000000000009
 30
0.0
  0
VERTEX
  5
613
  8
RULER
 10
28.87495129541684
 20
0.1250000000000027
 30
0.0
  0
SEQEND
  5
DB6
  8
RULER
  0
POLYLINE
  5
200
  8
RULER
 66
     1
 10
0.0
 20
0.0
 30
0.0
  0
VERTEX
  5
614
  8
RULER
 10
28.62495129541684
 20
0.0000000000000009
 30
0.0
  0
VERTEX
  5
615
  8
RULER
 10
28.62495129541684
 20
0.1250000000000027
 30
0.0
  0
SEQEND
  5
DB7
  8
RULER
  0
POLYLINE
  5
201
  8
RULER
 66
     1
 10
0.0
 20
0.0
 30
0.0
  0
VERTEX
  5
616
  8
RULER
 10
28.37495129541684
 20
0.0000000000000009
 30
0.0
  0
VERTEX
  5
617
  8
RULER
 10
28.37495129541684
 20
0.1250000000000027
 30
0.0
  0
SEQEND
  5
DB8
  8
RULER
  0
POLYLINE
  5
202
  8
RULER
 66
     1
 10
0.0
 20
0.0
 30
0.0
  0
VERTEX
  5
618
  8
RULER
 10
28.12495129541684
 20
0.0000000000000009
 30
0.0
  0
VERTEX
  5
619
  8
RULER
 10
28.12495129541684
 20
0.1250000000000027
 30
0.0
  0
SEQEND
  5
DB9
  8
RULER
  0
POLYLINE
  5
203
  8
RULER
 66
     1
 10
0.0
 20
0.0
 30
0.0
  0
VERTEX
  5
61A
  8
RULER
 10
27.87495129541684
 20
0.0000000000000009
 30
0.0
  0
VERTEX
  5
61B
  8
RULER
 10
27.87495129541684
 20
0.1250000000000027
 30
0.0
  0
SEQEND
  5
DBA
  8
RULER
  0
POLYLINE
  5
204
  8
RULER
 66
     1
 10
0.0
 20
0.0
 30
0.0
  0
VERTEX
  5
61C
  8
RULER
 10
27.62495129541684
 20
0.0000000000000009
 30
0.0
  0
VERTEX
  5
61D
  8
RULER
 10
27.62495129541684
 20
0.1250000000000027
 30
0.0
  0
SEQEND
  5
DBB
  8
RULER
  0
POLYLINE
  5
205
  8
RULER
 66
     1
 10
0.0
 20
0.0
 30
0.0
  0
VERTEX
  5
61E
  8
RULER
 10
27.37495129541684
 20
0.0000000000000009
 30
0.0
  0
VERTEX
  5
61F
  8
RULER
 10
27.37495129541684
 20
0.1250000000000027
 30
0.0
  0
SEQEND
  5
DBC
  8
RULER
  0
POLYLINE
  5
206
  8
RULER
 66
     1
 10
0.0
 20
0.0
 30
0.0
  0
VERTEX
  5
620
  8
RULER
 10
27.12495129541684
 20
0.0000000000000009
 30
0.0
  0
VERTEX
  5
621
  8
RULER
 10
27.12495129541684
 20
0.1250000000000027
 30
0.0
  0
SEQEND
  5
DBD
  8
RULER
  0
POLYLINE
  5
207
  8
RULER
 66
     1
 10
0.0
 20
0.0
 30
0.0
  0
VERTEX
  5
622
  8
RULER
 10
26.87495129541684
 20
0.0000000000000009
 30
0.0
  0
VERTEX
  5
623
  8
RULER
 10
26.87495129541684
 20
0.1250000000000027
 30
0.0
  0
SEQEND
  5
DBE
  8
RULER
  0
POLYLINE
  5
208
  8
RULER
 66
     1
 10
0.0
 20
0.0
 30
0.0
  0
VERTEX
  5
624
  8
RULER
 10
26.62495129541684
 20
0.0000000000000009
 30
0.0
  0
VERTEX
  5
625
  8
RULER
 10
26.62495129541684
 20
0.1250000000000027
 30
0.0
  0
SEQEND
  5
DBF
  8
RULER
  0
POLYLINE
  5
209
  8
RULER
 66
     1
 10
0.0
 20
0.0
 30
0.0
  0
VERTEX
  5
626
  8
RULER
 10
26.37495129541684
 20
0.0000000000000009
 30
0.0
  0
VERTEX
  5
627
  8
RULER
 10
26.37495129541684
 20
0.1250000000000027
 30
0.0
  0
SEQEND
  5
DC0
  8
RULER
  0
POLYLINE
  5
20A
  8
RULER
 66
     1
 10
0.0
 20
0.0
 30
0.0
  0
VERTEX
  5
628
  8
RULER
 10
26.12495129541684
 20
0.0000000000000009
 30
0.0
  0
VERTEX
  5
629
  8
RULER
 10
26.12495129541684
 20
0.1250000000000027
 30
0.0
  0
SEQEND
  5
DC1
  8
RULER
  0
POLYLINE
  5
20B
  8
RULER
 66
     1
 10
0.0
 20
0.0
 30
0.0
  0
VERTEX
  5
62A
  8
RULER
 10
25.87495129541684
 20
0.0000000000000009
 30
0.0
  0
VERTEX
  5
62B
  8
RULER
 10
25.87495129541684
 20
0.1250000000000027
 30
0.0
  0
SEQEND
  5
DC2
  8
RULER
  0
POLYLINE
  5
20C
  8
RULER
 66
     1
 10
0.0
 20
0.0
 30
0.0
  0
VERTEX
  5
62C
  8
RULER
 10
25.62495129541684
 20
0.0000000000000009
 30
0.0
  0
VERTEX
  5
62D
  8
RULER
 10
25.62495129541684
 20
0.1250000000000027
 30
0.0
  0
SEQEND
  5
DC3
  8
RULER
  0
POLYLINE
  5
20D
  8
RULER
 66
     1
 10
0.0
 20
0.0
 30
0.0
  0
VERTEX
  5
62E
  8
RULER
 10
25.37495129541684
 20
0.0000000000000009
 30
0.0
  0
VERTEX
  5
62F
  8
RULER
 10
25.37495129541684
 20
0.1250000000000027
 30
0.0
  0
SEQEND
  5
DC4
  8
RULER
  0
POLYLINE
  5
20E
  8
RULER
 66
     1
 10
0.0
 20
0.0
 30
0.0
  0
VERTEX
  5
630
  8
RULER
 10
25.12495129541684
 20
0.0000000000000013
 30
0.0
  0
VERTEX
  5
631
  8
RULER
 10
25.12495129541684
 20
0.1250000000000031
 30
0.0
  0
SEQEND
  5
DC5
  8
RULER
  0
POLYLINE
  5
20F
  8
RULER
 66
     1
 10
0.0
 20
0.0
 30
0.0
  0
VERTEX
  5
632
  8
RULER
 10
24.87495129541684
 20
0.0000000000000013
 30
0.0
  0
VERTEX
  5
633
  8
RULER
 10
24.87495129541684
 20
0.1250000000000031
 30
0.0
  0
SEQEND
  5
DC6
  8
RULER
  0
POLYLINE
  5
210
  8
RULER
 66
     1
 10
0.0
 20
0.0
 30
0.0
  0
VERTEX
  5
634
  8
RULER
 10
24.62495129541684
 20
0.0000000000000013
 30
0.0
  0
VERTEX
  5
635
  8
RULER
 10
24.62495129541684
 20
0.1250000000000031
 30
0.0
  0
SEQEND
  5
DC7
  8
RULER
  0
POLYLINE
  5
211
  8
RULER
 66
     1
 10
0.0
 20
0.0
 30
0.0
  0
VERTEX
  5
636
  8
RULER
 10
24.37495129541684
 20
0.0000000000000013
 30
0.0
  0
VERTEX
  5
637
  8
RULER
 10
24.37495129541684
 20
0.1250000000000031
 30
0.0
  0
SEQEND
  5
DC8
  8
RULER
  0
POLYLINE
  5
212
  8
RULER
 66
     1
 10
0.0
 20
0.0
 30
0.0
  0
VERTEX
  5
638
  8
RULER
 10
24.12495129541684
 20
0.0000000000000013
 30
0.0
  0
VERTEX
  5
639
  8
RULER
 10
24.12495129541684
 20
0.1250000000000031
 30
0.0
  0
SEQEND
  5
DC9
  8
RULER
  0
POLYLINE
  5
213
  8
RULER
 66
     1
 10
0.0
 20
0.0
 30
0.0
  0
VERTEX
  5
63A
  8
RULER
 10
23.87495129541684
 20
0.0000000000000013
 30
0.0
  0
VERTEX
  5
63B
  8
RULER
 10
23.87495129541684
 20
0.1250000000000031
 30
0.0
  0
SEQEND
  5
DCA
  8
RULER
  0
POLYLINE
  5
214
  8
RULER
 66
     1
 10
0.0
 20
0.0
 30
0.0
  0
VERTEX
  5
63C
  8
RULER
 10
23.62495129541684
 20
0.0000000000000013
 30
0.0
  0
VERTEX
  5
63D
  8
RULER
 10
23.62495129541684
 20
0.1250000000000031
 30
0.0
  0
SEQEND
  5
DCB
  8
RULER
  0
POLYLINE
  5
215
  8
RULER
 66
     1
 10
0.0
 20
0.0
 30
0.0
  0
VERTEX
  5
63E
  8
RULER
 10
23.37495129541684
 20
0.0000000000000013
 30
0.0
  0
VERTEX
  5
63F
  8
RULER
 10
23.37495129541684
 20
0.1250000000000031
 30
0.0
  0
SEQEND
  5
DCC
  8
RULER
  0
POLYLINE
  5
216
  8
RULER
 66
     1
 10
0.0
 20
0.0
 30
0.0
  0
VERTEX
  5
640
  8
RULER
 10
23.12495129541684
 20
0.0000000000000013
 30
0.0
  0
VERTEX
  5
641
  8
RULER
 10
23.12495129541684
 20
0.1250000000000031
 30
0.0
  0
SEQEND
  5
DCD
  8
RULER
  0
POLYLINE
  5
217
  8
RULER
 66
     1
 10
0.0
 20
0.0
 30
0.0
  0
VERTEX
  5
642
  8
RULER
 10
22.87495129541684
 20
0.0000000000000013
 30
0.0
  0
VERTEX
  5
643
  8
RULER
 10
22.87495129541684
 20
0.1250000000000031
 30
0.0
  0
SEQEND
  5
DCE
  8
RULER
  0
POLYLINE
  5
218
  8
RULER
 66
     1
 10
0.0
 20
0.0
 30
0.0
  0
VERTEX
  5
644
  8
RULER
 10
22.62495129541684
 20
0.0000000000000013
 30
0.0
  0
VERTEX
  5
645
  8
RULER
 10
22.62495129541684
 20
0.1250000000000031
 30
0.0
  0
SEQEND
  5
DCF
  8
RULER
  0
POLYLINE
  5
219
  8
RULER
 66
     1
 10
0.0
 20
0.0
 30
0.0
  0
VERTEX
  5
646
  8
RULER
 10
22.37495129541684
 20
0.0000000000000013
 30
0.0
  0
VERTEX
  5
647
  8
RULER
 10
22.37495129541684
 20
0.1250000000000031
 30
0.0
  0
SEQEND
  5
DD0
  8
RULER
  0
POLYLINE
  5
21A
  8
RULER
 66
     1
 10
0.0
 20
0.0
 30
0.0
  0
VERTEX
  5
648
  8
RULER
 10
22.12495129541684
 20
0.0000000000000013
 30
0.0
  0
VERTEX
  5
649
  8
RULER
 10
22.12495129541684
 20
0.1250000000000031
 30
0.0
  0
SEQEND
  5
DD1
  8
RULER
  0
POLYLINE
  5
21B
  8
RULER
 66
     1
 10
0.0
 20
0.0
 30
0.0
  0
VERTEX
  5
64A
  8
RULER
 10
21.87495129541684
 20
0.0000000000000013
 30
0.0
  0
VERTEX
  5
64B
  8
RULER
 10
21.87495129541684
 20
0.1250000000000031
 30
0.0
  0
SEQEND
  5
DD2
  8
RULER
  0
POLYLINE
  5
21C
  8
RULER
 66
     1
 10
0.0
 20
0.0
 30
0.0
  0
VERTEX
  5
64C
  8
RULER
 10
21.62495129541684
 20
0.0000000000000013
 30
0.0
  0
VERTEX
  5
64D
  8
RULER
 10
21.62495129541684
 20
0.1250000000000031
 30
0.0
  0
SEQEND
  5
DD3
  8
RULER
  0
POLYLINE
  5
21D
  8
RULER
 66
     1
 10
0.0
 20
0.0
 30
0.0
  0
VERTEX
  5
64E
  8
RULER
 10
21.37495129541684
 20
0.0000000000000013
 30
0.0
  0
VERTEX
  5
64F
  8
RULER
 10
21.37495129541684
 20
0.1250000000000031
 30
0.0
  0
SEQEND
  5
DD4
  8
RULER
  0
POLYLINE
  5
21E
  8
RULER
 66
     1
 10
0.0
 20
0.0
 30
0.0
  0
VERTEX
  5
650
  8
RULER
 10
21.12495129541684
 20
0.0000000000000013
 30
0.0
  0
VERTEX
  5
651
  8
RULER
 10
21.12495129541684
 20
0.1250000000000031
 30
0.0
  0
SEQEND
  5
DD5
  8
RULER
  0
POLYLINE
  5
21F
  8
RULER
 66
     1
 10
0.0
 20
0.0
 30
0.0
  0
VERTEX
  5
652
  8
RULER
 10
20.87495129541684
 20
0.0000000000000013
 30
0.0
  0
VERTEX
  5
653
  8
RULER
 10
20.87495129541684
 20
0.1250000000000031
 30
0.0
  0
SEQEND
  5
DD6
  8
RULER
  0
POLYLINE
  5
220
  8
RULER
 66
     1
 10
0.0
 20
0.0
 30
0.0
  0
VERTEX
  5
654
  8
RULER
 10
20.62495129541684
 20
0.0000000000000018
 30
0.0
  0
VERTEX
  5
655
  8
RULER
 10
20.62495129541684
 20
0.1250000000000036
 30
0.0
  0
SEQEND
  5
DD7
  8
RULER
  0
POLYLINE
  5
221
  8
RULER
 66
     1
 10
0.0
 20
0.0
 30
0.0
  0
VERTEX
  5
656
  8
RULER
 10
20.37495129541684
 20
0.0000000000000018
 30
0.0
  0
VERTEX
  5
657
  8
RULER
 10
20.37495129541684
 20
0.1250000000000036
 30
0.0
  0
SEQEND
  5
DD8
  8
RULER
  0
POLYLINE
  5
222
  8
RULER
 66
     1
 10
0.0
 20
0.0
 30
0.0
  0
VERTEX
  5
658
  8
RULER
 10
20.12495129541684
 20
0.0000000000000018
 30
0.0
  0
VERTEX
  5
659
  8
RULER
 10
20.12495129541684
 20
0.1250000000000036
 30
0.0
  0
SEQEND
  5
DD9
  8
RULER
  0
POLYLINE
  5
223
  8
RULER
 66
     1
 10
0.0
 20
0.0
 30
0.0
  0
VERTEX
  5
65A
  8
RULER
 10
19.87495129541684
 20
0.0000000000000018
 30
0.0
  0
VERTEX
  5
65B
  8
RULER
 10
19.87495129541684
 20
0.1250000000000036
 30
0.0
  0
SEQEND
  5
DDA
  8
RULER
  0
POLYLINE
  5
224
  8
RULER
 66
     1
 10
0.0
 20
0.0
 30
0.0
  0
VERTEX
  5
65C
  8
RULER
 10
19.62495129541684
 20
0.0000000000000018
 30
0.0
  0
VERTEX
  5
65D
  8
RULER
 10
19.62495129541684
 20
0.1250000000000036
 30
0.0
  0
SEQEND
  5
DDB
  8
RULER
  0
POLYLINE
  5
225
  8
RULER
 66
     1
 10
0.0
 20
0.0
 30
0.0
  0
VERTEX
  5
65E
  8
RULER
 10
19.37495129541684
 20
0.0000000000000018
 30
0.0
  0
VERTEX
  5
65F
  8
RULER
 10
19.37495129541684
 20
0.1250000000000036
 30
0.0
  0
SEQEND
  5
DDC
  8
RULER
  0
POLYLINE
  5
226
  8
RULER
 66
     1
 10
0.0
 20
0.0
 30
0.0
  0
VERTEX
  5
660
  8
RULER
 10
19.12495129541684
 20
0.0000000000000018
 30
0.0
  0
VERTEX
  5
661
  8
RULER
 10
19.12495129541684
 20
0.1250000000000036
 30
0.0
  0
SEQEND
  5
DDD
  8
RULER
  0
POLYLINE
  5
227
  8
RULER
 66
     1
 10
0.0
 20
0.0
 30
0.0
  0
VERTEX
  5
662
  8
RULER
 10
18.87495129541684
 20
0.0000000000000018
 30
0.0
  0
VERTEX
  5
663
  8
RULER
 10
18.87495129541684
 20
0.1250000000000036
 30
0.0
  0
SEQEND
  5
DDE
  8
RULER
  0
POLYLINE
  5
228
  8
RULER
 66
     1
 10
0.0
 20
0.0
 30
0.0
  0
VERTEX
  5
664
  8
RULER
 10
18.62495129541684
 20
0.0000000000000018
 30
0.0
  0
VERTEX
  5
665
  8
RULER
 10
18.62495129541684
 20
0.1250000000000036
 30
0.0
  0
SEQEND
  5
DDF
  8
RULER
  0
POLYLINE
  5
229
  8
RULER
 66
     1
 10
0.0
 20
0.0
 30
0.0
  0
VERTEX
  5
666
  8
RULER
 10
18.37495129541684
 20
0.0000000000000018
 30
0.0
  0
VERTEX
  5
667
  8
RULER
 10
18.37495129541684
 20
0.1250000000000036
 30
0.0
  0
SEQEND
  5
DE0
  8
RULER
  0
POLYLINE
  5
22A
  8
RULER
 66
     1
 10
0.0
 20
0.0
 30
0.0
  0
VERTEX
  5
668
  8
RULER
 10
18.12495129541684
 20
0.0000000000000018
 30
0.0
  0
VERTEX
  5
669
  8
RULER
 10
18.12495129541684
 20
0.1250000000000036
 30
0.0
  0
SEQEND
  5
DE1
  8
RULER
  0
POLYLINE
  5
22B
  8
RULER
 66
     1
 10
0.0
 20
0.0
 30
0.0
  0
VERTEX
  5
66A
  8
RULER
 10
17.87495129541684
 20
0.0000000000000018
 30
0.0
  0
VERTEX
  5
66B
  8
RULER
 10
17.87495129541684
 20
0.1250000000000036
 30
0.0
  0
SEQEND
  5
DE2
  8
RULER
  0
POLYLINE
  5
22C
  8
RULER
 66
     1
 10
0.0
 20
0.0
 30
0.0
  0
VERTEX
  5
66C
  8
RULER
 10
17.62495129541684
 20
0.0000000000000018
 30
0.0
  0
VERTEX
  5
66D
  8
RULER
 10
17.62495129541684
 20
0.1250000000000036
 30
0.0
  0
SEQEND
  5
DE3
  8
RULER
  0
POLYLINE
  5
22D
  8
RULER
 66
     1
 10
0.0
 20
0.0
 30
0.0
  0
VERTEX
  5
66E
  8
RULER
 10
17.37495129541684
 20
0.0000000000000018
 30
0.0
  0
VERTEX
  5
66F
  8
RULER
 10
17.37495129541684
 20
0.1250000000000036
 30
0.0
  0
SEQEND
  5
DE4
  8
RULER
  0
POLYLINE
  5
22E
  8
RULER
 66
     1
 10
0.0
 20
0.0
 30
0.0
  0
VERTEX
  5
670
  8
RULER
 10
17.12495129541684
 20
0.0000000000000018
 30
0.0
  0
VERTEX
  5
671
  8
RULER
 10
17.12495129541684
 20
0.1250000000000036
 30
0.0
  0
SEQEND
  5
DE5
  8
RULER
  0
POLYLINE
  5
22F
  8
RULER
 66
     1
 10
0.0
 20
0.0
 30
0.0
  0
VERTEX
  5
672
  8
RULER
 10
16.87495129541684
 20
0.0000000000000018
 30
0.0
  0
VERTEX
  5
673
  8
RULER
 10
16.87495129541684
 20
0.1250000000000036
 30
0.0
  0
SEQEND
  5
DE6
  8
RULER
  0
POLYLINE
  5
230
  8
RULER
 66
     1
 10
0.0
 20
0.0
 30
0.0
  0
VERTEX
  5
674
  8
RULER
 10
16.62495129541684
 20
0.0000000000000018
 30
0.0
  0
VERTEX
  5
675
  8
RULER
 10
16.62495129541684
 20
0.1250000000000036
 30
0.0
  0
SEQEND
  5
DE7
  8
RULER
  0
POLYLINE
  5
231
  8
RULER
 66
     1
 10
0.0
 20
0.0
 30
0.0
  0
VERTEX
  5
676
  8
RULER
 10
16.37495129541684
 20
0.0000000000000018
 30
0.0
  0
VERTEX
  5
677
  8
RULER
 10
16.37495129541684
 20
0.1250000000000036
 30
0.0
  0
SEQEND
  5
DE8
  8
RULER
  0
POLYLINE
  5
232
  8
RULER
 66
     1
 10
0.0
 20
0.0
 30
0.0
  0
VERTEX
  5
678
  8
RULER
 10
16.12495129541684
 20
0.0000000000000022
 30
0.0
  0
VERTEX
  5
679
  8
RULER
 10
16.12495129541684
 20
0.125000000000004
 30
0.0
  0
SEQEND
  5
DE9
  8
RULER
  0
POLYLINE
  5
233
  8
RULER
 66
     1
 10
0.0
 20
0.0
 30
0.0
  0
VERTEX
  5
67A
  8
RULER
 10
15.87495129541684
 20
0.0000000000000022
 30
0.0
  0
VERTEX
  5
67B
  8
RULER
 10
15.87495129541684
 20
0.125000000000004
 30
0.0
  0
SEQEND
  5
DEA
  8
RULER
  0
POLYLINE
  5
234
  8
RULER
 66
     1
 10
0.0
 20
0.0
 30
0.0
  0
VERTEX
  5
67C
  8
RULER
 10
15.62495129541684
 20
0.0000000000000022
 30
0.0
  0
VERTEX
  5
67D
  8
RULER
 10
15.62495129541684
 20
0.125000000000004
 30
0.0
  0
SEQEND
  5
DEB
  8
RULER
  0
POLYLINE
  5
235
  8
RULER
 66
     1
 10
0.0
 20
0.0
 30
0.0
  0
VERTEX
  5
67E
  8
RULER
 10
15.37495129541684
 20
0.0000000000000022
 30
0.0
  0
VERTEX
  5
67F
  8
RULER
 10
15.37495129541684
 20
0.125000000000004
 30
0.0
  0
SEQEND
  5
DEC
  8
RULER
  0
POLYLINE
  5
236
  8
RULER
 66
     1
 10
0.0
 20
0.0
 30
0.0
  0
VERTEX
  5
680
  8
RULER
 10
15.12495129541684
 20
0.0000000000000022
 30
0.0
  0
VERTEX
  5
681
  8
RULER
 10
15.12495129541684
 20
0.125000000000004
 30
0.0
  0
SEQEND
  5
DED
  8
RULER
  0
POLYLINE
  5
237
  8
RULER
 66
     1
 10
0.0
 20
0.0
 30
0.0
  0
VERTEX
  5
682
  8
RULER
 10
14.87495129541684
 20
0.0000000000000022
 30
0.0
  0
VERTEX
  5
683
  8
RULER
 10
14.87495129541684
 20
0.125000000000004
 30
0.0
  0
SEQEND
  5
DEE
  8
RULER
  0
POLYLINE
  5
238
  8
RULER
 66
     1
 10
0.0
 20
0.0
 30
0.0
  0
VERTEX
  5
684
  8
RULER
 10
14.62495129541684
 20
0.0000000000000022
 30
0.0
  0
VERTEX
  5
685
  8
RULER
 10
14.62495129541684
 20
0.125000000000004
 30
0.0
  0
SEQEND
  5
DEF
  8
RULER
  0
POLYLINE
  5
239
  8
RULER
 66
     1
 10
0.0
 20
0.0
 30
0.0
  0
VERTEX
  5
686
  8
RULER
 10
14.37495129541684
 20
0.0000000000000022
 30
0.0
  0
VERTEX
  5
687
  8
RULER
 10
14.37495129541684
 20
0.125000000000004
 30
0.0
  0
SEQEND
  5
DF0
  8
RULER
  0
POLYLINE
  5
23A
  8
RULER
 66
     1
 10
0.0
 20
0.0
 30
0.0
  0
VERTEX
  5
688
  8
RULER
 10
14.12495129541684
 20
0.0000000000000022
 30
0.0
  0
VERTEX
  5
689
  8
RULER
 10
14.12495129541684
 20
0.125000000000004
 30
0.0
  0
SEQEND
  5
DF1
  8
RULER
  0
POLYLINE
  5
23B
  8
RULER
 66
     1
 10
0.0
 20
0.0
 30
0.0
  0
VERTEX
  5
68A
  8
RULER
 10
13.87495129541684
 20
0.0000000000000022
 30
0.0
  0
VERTEX
  5
68B
  8
RULER
 10
13.87495129541684
 20
0.125000000000004
 30
0.0
  0
SEQEND
  5
DF2
  8
RULER
  0
POLYLINE
  5
23C
  8
RULER
 66
     1
 10
0.0
 20
0.0
 30
0.0
  0
VERTEX
  5
68C
  8
RULER
 10
13.62495129541684
 20
0.0000000000000022
 30
0.0
  0
VERTEX
  5
68D
  8
RULER
 10
13.62495129541684
 20
0.125000000000004
 30
0.0
  0
SEQEND
  5
DF3
  8
RULER
  0
POLYLINE
  5
23D
  8
RULER
 66
     1
 10
0.0
 20
0.0
 30
0.0
  0
VERTEX
  5
68E
  8
RULER
 10
13.37495129541684
 20
0.0000000000000022
 30
0.0
  0
VERTEX
  5
68F
  8
RULER
 10
13.37495129541684
 20
0.125000000000004
 30
0.0
  0
SEQEND
  5
DF4
  8
RULER
  0
POLYLINE
  5
23E
  8
RULER
 66
     1
 10
0.0
 20
0.0
 30
0.0
  0
VERTEX
  5
690
  8
RULER
 10
13.12495129541684
 20
0.0000000000000022
 30
0.0
  0
VERTEX
  5
691
  8
RULER
 10
13.12495129541684
 20
0.125000000000004
 30
0.0
  0
SEQEND
  5
DF5
  8
RULER
  0
POLYLINE
  5
23F
  8
RULER
 66
     1
 10
0.0
 20
0.0
 30
0.0
  0
VERTEX
  5
692
  8
RULER
 10
12.87495129541684
 20
0.0000000000000022
 30
0.0
  0
VERTEX
  5
693
  8
RULER
 10
12.87495129541684
 20
0.125000000000004
 30
0.0
  0
SEQEND
  5
DF6
  8
RULER
  0
POLYLINE
  5
240
  8
RULER
 66
     1
 10
0.0
 20
0.0
 30
0.0
  0
VERTEX
  5
694
  8
RULER
 10
12.62495129541684
 20
0.0000000000000022
 30
0.0
  0
VERTEX
  5
695
  8
RULER
 10
12.62495129541684
 20
0.125000000000004
 30
0.0
  0
SEQEND
  5
DF7
  8
RULER
  0
POLYLINE
  5
241
  8
RULER
 66
     1
 10
0.0
 20
0.0
 30
0.0
  0
VERTEX
  5
696
  8
RULER
 10
12.37495129541684
 20
0.0000000000000022
 30
0.0
  0
VERTEX
  5
697
  8
RULER
 10
12.37495129541684
 20
0.125000000000004
 30
0.0
  0
SEQEND
  5
DF8
  8
RULER
  0
POLYLINE
  5
242
  8
RULER
 66
     1
 10
0.0
 20
0.0
 30
0.0
  0
VERTEX
  5
698
  8
RULER
 10
12.12495129541684
 20
0.0000000000000022
 30
0.0
  0
VERTEX
  5
699
  8
RULER
 10
12.12495129541684
 20
0.125000000000004
 30
0.0
  0
SEQEND
  5
DF9
  8
RULER
  0
POLYLINE
  5
243
  8
RULER
 66
     1
 10
0.0
 20
0.0
 30
0.0
  0
VERTEX
  5
69A
  8
RULER
 10
11.87495129541684
 20
0.0000000000000022
 30
0.0
  0
VERTEX
  5
69B
  8
RULER
 10
11.87495129541684
 20
0.125000000000004
 30
0.0
  0
SEQEND
  5
DFA
  8
RULER
  0
POLYLINE
  5
244
  8
RULER
 66
     1
 10
0.0
 20
0.0
 30
0.0
  0
VERTEX
  5
69C
  8
RULER
 10
11.62495129541684
 20
0.0000000000000022
 30
0.0
  0
VERTEX
  5
69D
  8
RULER
 10
11.62495129541684
 20
0.125000000000004
 30
0.0
  0
SEQEND
  5
DFB
  8
RULER
  0
POLYLINE
  5
245
  8
RULER
 66
     1
 10
0.0
 20
0.0
 30
0.0
  0
VERTEX
  5
69E
  8
RULER
 10
11.37495129541684
 20
0.0000000000000031
 30
0.0
  0
VERTEX
  5
69F
  8
RULER
 10
11.37495129541684
 20
0.1250000000000049
 30
0.0
  0
SEQEND
  5
DFC
  8
RULER
  0
POLYLINE
  5
246
  8
RULER
 66
     1
 10
0.0
 20
0.0
 30
0.0
  0
VERTEX
  5
6A0
  8
RULER
 10
11.12495129541684
 20
0.0000000000000031
 30
0.0
  0
VERTEX
  5
6A1
  8
RULER
 10
11.12495129541684
 20
0.1250000000000049
 30
0.0
  0
SEQEND
  5
DFD
  8
RULER
  0
POLYLINE
  5
247
  8
RULER
 66
     1
 10
0.0
 20
0.0
 30
0.0
  0
VERTEX
  5
6A2
  8
RULER
 10
10.87495129541684
 20
0.0000000000000031
 30
0.0
  0
VERTEX
  5
6A3
  8
RULER
 10
10.87495129541684
 20
0.1250000000000049
 30
0.0
  0
SEQEND
  5
DFE
  8
RULER
  0
POLYLINE
  5
248
  8
RULER
 66
     1
 10
0.0
 20
0.0
 30
0.0
  0
VERTEX
  5
6A4
  8
RULER
 10
10.62495129541684
 20
0.0000000000000031
 30
0.0
  0
VERTEX
  5
6A5
  8
RULER
 10
10.62495129541684
 20
0.1250000000000049
 30
0.0
  0
SEQEND
  5
DFF
  8
RULER
  0
POLYLINE
  5
249
  8
RULER
 66
     1
 10
0.0
 20
0.0
 30
0.0
  0
VERTEX
  5
6A6
  8
RULER
 10
10.37495129541684
 20
0.0000000000000031
 30
0.0
  0
VERTEX
  5
6A7
  8
RULER
 10
10.37495129541684
 20
0.1250000000000049
 30
0.0
  0
SEQEND
  5
E00
  8
RULER
  0
POLYLINE
  5
24A
  8
RULER
 66
     1
 10
0.0
 20
0.0
 30
0.0
  0
VERTEX
  5
6A8
  8
RULER
 10
10.12495129541684
 20
0.0000000000000031
 30
0.0
  0
VERTEX
  5
6A9
  8
RULER
 10
10.12495129541684
 20
0.1250000000000049
 30
0.0
  0
SEQEND
  5
E01
  8
RULER
  0
POLYLINE
  5
24B
  8
RULER
 66
     1
 10
0.0
 20
0.0
 30
0.0
  0
VERTEX
  5
6AA
  8
RULER
 10
9.874951295416839
 20
0.0000000000000031
 30
0.0
  0
VERTEX
  5
6AB
  8
RULER
 10
9.874951295416839
 20
0.1250000000000049
 30
0.0
  0
SEQEND
  5
E02
  8
RULER
  0
POLYLINE
  5
24C
  8
RULER
 66
     1
 10
0.0
 20
0.0
 30
0.0
  0
VERTEX
  5
6AC
  8
RULER
 10
9.62495129541684
 20
0.0000000000000031
 30
0.0
  0
VERTEX
  5
6AD
  8
RULER
 10
9.62495129541684
 20
0.1250000000000049
 30
0.0
  0
SEQEND
  5
E03
  8
RULER
  0
POLYLINE
  5
24D
  8
RULER
 66
     1
 10
0.0
 20
0.0
 30
0.0
  0
VERTEX
  5
6AE
  8
RULER
 10
9.37495129541684
 20
0.0000000000000031
 30
0.0
  0
VERTEX
  5
6AF
  8
RULER
 10
9.37495129541684
 20
0.1250000000000049
 30
0.0
  0
SEQEND
  5
E04
  8
RULER
  0
POLYLINE
  5
24E
  8
RULER
 66
     1
 10
0.0
 20
0.0
 30
0.0
  0
VERTEX
  5
6B0
  8
RULER
 10
9.124951295416842
 20
0.0000000000000031
 30
0.0
  0
VERTEX
  5
6B1
  8
RULER
 10
9.124951295416842
 20
0.1250000000000049
 30
0.0
  0
SEQEND
  5
E05
  8
RULER
  0
POLYLINE
  5
24F
  8
RULER
 66
     1
 10
0.0
 20
0.0
 30
0.0
  0
VERTEX
  5
6B2
  8
RULER
 10
8.874951295416842
 20
0.0000000000000031
 30
0.0
  0
VERTEX
  5
6B3
  8
RULER
 10
8.874951295416842
 20
0.1250000000000049
 30
0.0
  0
SEQEND
  5
E06
  8
RULER
  0
POLYLINE
  5
250
  8
RULER
 66
     1
 10
0.0
 20
0.0
 30
0.0
  0
VERTEX
  5
6B4
  8
RULER
 10
8.624951295416839
 20
0.0000000000000031
 30
0.0
  0
VERTEX
  5
6B5
  8
RULER
 10
8.624951295416839
 20
0.1250000000000049
 30
0.0
  0
SEQEND
  5
E07
  8
RULER
  0
POLYLINE
  5
251
  8
RULER
 66
     1
 10
0.0
 20
0.0
 30
0.0
  0
VERTEX
  5
6B6
  8
RULER
 10
8.37495129541684
 20
0.0000000000000031
 30
0.0
  0
VERTEX
  5
6B7
  8
RULER
 10
8.37495129541684
 20
0.1250000000000049
 30
0.0
  0
SEQEND
  5
E08
  8
RULER
  0
POLYLINE
  5
252
  8
RULER
 66
     1
 10
0.0
 20
0.0
 30
0.0
  0
VERTEX
  5
6B8
  8
RULER
 10
8.12495129541684
 20
0.0000000000000031
 30
0.0
  0
VERTEX
  5
6B9
  8
RULER
 10
8.12495129541684
 20
0.1250000000000049
 30
0.0
  0
SEQEND
  5
E09
  8
RULER
  0
POLYLINE
  5
253
  8
RULER
 66
     1
 10
0.0
 20
0.0
 30
0.0
  0
VERTEX
  5
6BA
  8
RULER
 10
7.874951295416841
 20
0.0000000000000031
 30
0.0
  0
VERTEX
  5
6BB
  8
RULER
 10
7.874951295416841
 20
0.1250000000000049
 30
0.0
  0
SEQEND
  5
E0A
  8
RULER
  0
POLYLINE
  5
254
  8
RULER
 66
     1
 10
0.0
 20
0.0
 30
0.0
  0
VERTEX
  5
6BC
  8
RULER
 10
7.624951295416842
 20
0.0000000000000031
 30
0.0
  0
VERTEX
  5
6BD
  8
RULER
 10
7.624951295416842
 20
0.1250000000000049
 30
0.0
  0
SEQEND
  5
E0B
  8
RULER
  0
POLYLINE
  5
255
  8
RULER
 66
     1
 10
0.0
 20
0.0
 30
0.0
  0
VERTEX
  5
6BE
  8
RULER
 10
7.374951295416838
 20
0.0000000000000031
 30
0.0
  0
VERTEX
  5
6BF
  8
RULER
 10
7.374951295416838
 20
0.1250000000000049
 30
0.0
  0
SEQEND
  5
E0C
  8
RULER
  0
POLYLINE
  5
256
  8
RULER
 66
     1
 10
0.0
 20
0.0
 30
0.0
  0
VERTEX
  5
6C0
  8
RULER
 10
7.124951295416839
 20
0.0000000000000031
 30
0.0
  0
VERTEX
  5
6C1
  8
RULER
 10
7.124951295416839
 20
0.1250000000000049
 30
0.0
  0
SEQEND
  5
E0D
  8
RULER
  0
POLYLINE
  5
257
  8
RULER
 66
     1
 10
0.0
 20
0.0
 30
0.0
  0
VERTEX
  5
6C2
  8
RULER
 10
6.87495129541684
 20
0.0000000000000036
 30
0.0
  0
VERTEX
  5
6C3
  8
RULER
 10
6.87495129541684
 20
0.1250000000000053
 30
0.0
  0
SEQEND
  5
E0E
  8
RULER
  0
POLYLINE
  5
258
  8
RULER
 66
     1
 10
0.0
 20
0.0
 30
0.0
  0
VERTEX
  5
6C4
  8
RULER
 10
6.624951295416841
 20
0.0000000000000036
 30
0.0
  0
VERTEX
  5
6C5
  8
RULER
 10
6.624951295416841
 20
0.1250000000000053
 30
0.0
  0
SEQEND
  5
E0F
  8
RULER
  0
POLYLINE
  5
259
  8
RULER
 66
     1
 10
0.0
 20
0.0
 30
0.0
  0
VERTEX
  5
6C6
  8
RULER
 10
6.374951295416841
 20
0.0000000000000036
 30
0.0
  0
VERTEX
  5
6C7
  8
RULER
 10
6.374951295416841
 20
0.1250000000000053
 30
0.0
  0
SEQEND
  5
E10
  8
RULER
  0
POLYLINE
  5
25A
  8
RULER
 66
     1
 10
0.0
 20
0.0
 30
0.0
  0
VERTEX
  5
6C8
  8
RULER
 10
6.124951295416838
 20
0.0000000000000036
 30
0.0
  0
VERTEX
  5
6C9
  8
RULER
 10
6.124951295416838
 20
0.1250000000000053
 30
0.0
  0
SEQEND
  5
E11
  8
RULER
  0
POLYLINE
  5
25B
  8
RULER
 66
     1
 10
0.0
 20
0.0
 30
0.0
  0
VERTEX
  5
6CA
  8
RULER
 10
5.874951295416839
 20
0.0000000000000036
 30
0.0
  0
VERTEX
  5
6CB
  8
RULER
 10
5.874951295416839
 20
0.1250000000000053
 30
0.0
  0
SEQEND
  5
E12
  8
RULER
  0
POLYLINE
  5
25C
  8
RULER
 66
     1
 10
0.0
 20
0.0
 30
0.0
  0
VERTEX
  5
6CC
  8
RULER
 10
5.62495129541684
 20
0.0000000000000036
 30
0.0
  0
VERTEX
  5
6CD
  8
RULER
 10
5.62495129541684
 20
0.1250000000000053
 30
0.0
  0
SEQEND
  5
E13
  8
RULER
  0
POLYLINE
  5
25D
  8
RULER
 66
     1
 10
0.0
 20
0.0
 30
0.0
  0
VERTEX
  5
6CE
  8
RULER
 10
5.374951295416841
 20
0.0000000000000036
 30
0.0
  0
VERTEX
  5
6CF
  8
RULER
 10
5.374951295416841
 20
0.1250000000000053
 30
0.0
  0
SEQEND
  5
E14
  8
RULER
  0
POLYLINE
  5
25E
  8
RULER
 66
     1
 10
0.0
 20
0.0
 30
0.0
  0
VERTEX
  5
6D0
  8
RULER
 10
5.124951295416841
 20
0.0000000000000036
 30
0.0
  0
VERTEX
  5
6D1
  8
RULER
 10
5.124951295416841
 20
0.1250000000000053
 30
0.0
  0
SEQEND
  5
E15
  8
RULER
  0
POLYLINE
  5
25F
  8
RULER
 66
     1
 10
0.0
 20
0.0
 30
0.0
  0
VERTEX
  5
6D2
  8
RULER
 10
4.874951295416842
 20
0.0000000000000036
 30
0.0
  0
VERTEX
  5
6D3
  8
RULER
 10
4.874951295416842
 20
0.1250000000000053
 30
0.0
  0
SEQEND
  5
E16
  8
RULER
  0
POLYLINE
  5
260
  8
RULER
 66
     1
 10
0.0
 20
0.0
 30
0.0
  0
VERTEX
  5
6D4
  8
RULER
 10
4.624951295416839
 20
0.0000000000000036
 30
0.0
  0
VERTEX
  5
6D5
  8
RULER
 10
4.624951295416839
 20
0.1250000000000053
 30
0.0
  0
SEQEND
  5
E17
  8
RULER
  0
POLYLINE
  5
261
  8
RULER
 66
     1
 10
0.0
 20
0.0
 30
0.0
  0
VERTEX
  5
6D6
  8
RULER
 10
4.37495129541684
 20
0.0000000000000036
 30
0.0
  0
VERTEX
  5
6D7
  8
RULER
 10
4.37495129541684
 20
0.1250000000000053
 30
0.0
  0
SEQEND
  5
E18
  8
RULER
  0
POLYLINE
  5
262
  8
RULER
 66
     1
 10
0.0
 20
0.0
 30
0.0
  0
VERTEX
  5
6D8
  8
RULER
 10
4.124951295416841
 20
0.0000000000000036
 30
0.0
  0
VERTEX
  5
6D9
  8
RULER
 10
4.124951295416841
 20
0.1250000000000053
 30
0.0
  0
SEQEND
  5
E19
  8
RULER
  0
POLYLINE
  5
263
  8
RULER
 66
     1
 10
0.0
 20
0.0
 30
0.0
  0
VERTEX
  5
6DA
  8
RULER
 10
3.874951295416842
 20
0.0000000000000036
 30
0.0
  0
VERTEX
  5
6DB
  8
RULER
 10
3.874951295416842
 20
0.1250000000000053
 30
0.0
  0
SEQEND
  5
E1A
  8
RULER
  0
POLYLINE
  5
264
  8
RULER
 66
     1
 10
0.0
 20
0.0
 30
0.0
  0
VERTEX
  5
6DC
  8
RULER
 10
3.624951295416842
 20
0.0000000000000036
 30
0.0
  0
VERTEX
  5
6DD
  8
RULER
 10
3.624951295416842
 20
0.1250000000000053
 30
0.0
  0
SEQEND
  5
E1B
  8
RULER
  0
POLYLINE
  5
265
  8
RULER
 66
     1
 10
0.0
 20
0.0
 30
0.0
  0
VERTEX
  5
6DE
  8
RULER
 10
3.374951295416839
 20
0.0000000000000036
 30
0.0
  0
VERTEX
  5
6DF
  8
RULER
 10
3.374951295416839
 20
0.1250000000000053
 30
0.0
  0
SEQEND
  5
E1C
  8
RULER
  0
POLYLINE
  5
266
  8
RULER
 66
     1
 10
0.0
 20
0.0
 30
0.0
  0
VERTEX
  5
6E0
  8
RULER
 10
3.12495129541684
 20
0.0000000000000036
 30
0.0
  0
VERTEX
  5
6E1
  8
RULER
 10
3.12495129541684
 20
0.1250000000000053
 30
0.0
  0
SEQEND
  5
E1D
  8
RULER
  0
POLYLINE
  5
267
  8
RULER
 66
     1
 10
0.0
 20
0.0
 30
0.0
  0
VERTEX
  5
6E2
  8
RULER
 10
2.874951295416841
 20
0.0000000000000036
 30
0.0
  0
VERTEX
  5
6E3
  8
RULER
 10
2.874951295416841
 20
0.1250000000000053
 30
0.0
  0
SEQEND
  5
E1E
  8
RULER
  0
POLYLINE
  5
268
  8
RULER
 66
     1
 10
0.0
 20
0.0
 30
0.0
  0
VERTEX
  5
6E4
  8
RULER
 10
2.624951295416841
 20
0.0000000000000036
 30
0.0
  0
VERTEX
  5
6E5
  8
RULER
 10
2.624951295416841
 20
0.1250000000000053
 30
0.0
  0
SEQEND
  5
E1F
  8
RULER
  0
POLYLINE
  5
269
  8
RULER
 66
     1
 10
0.0
 20
0.0
 30
0.0
  0
VERTEX
  5
6E6
  8
RULER
 10
2.374951295416842
 20
0.000000000000004
 30
0.0
  0
VERTEX
  5
6E7
  8
RULER
 10
2.374951295416842
 20
0.1250000000000058
 30
0.0
  0
SEQEND
  5
E20
  8
RULER
  0
POLYLINE
  5
26A
  8
RULER
 66
     1
 10
0.0
 20
0.0
 30
0.0
  0
VERTEX
  5
6E8
  8
RULER
 10
2.124951295416839
 20
0.000000000000004
 30
0.0
  0
VERTEX
  5
6E9
  8
RULER
 10
2.124951295416839
 20
0.1250000000000058
 30
0.0
  0
SEQEND
  5
E21
  8
RULER
  0
POLYLINE
  5
26B
  8
RULER
 66
     1
 10
0.0
 20
0.0
 30
0.0
  0
VERTEX
  5
6EA
  8
RULER
 10
1.87495129541684
 20
0.000000000000004
 30
0.0
  0
VERTEX
  5
6EB
  8
RULER
 10
1.87495129541684
 20
0.1250000000000058
 30
0.0
  0
SEQEND
  5
E22
  8
RULER
  0
POLYLINE
  5
26C
  8
RULER
 66
     1
 10
0.0
 20
0.0
 30
0.0
  0
VERTEX
  5
6EC
  8
RULER
 10
1.624951295416841
 20
0.000000000000004
 30
0.0
  0
VERTEX
  5
6ED
  8
RULER
 10
1.624951295416841
 20
0.1250000000000058
 30
0.0
  0
SEQEND
  5
E23
  8
RULER
  0
POLYLINE
  5
26D
  8
RULER
 66
     1
 10
0.0
 20
0.0
 30
0.0
  0
VERTEX
  5
6EE
  8
RULER
 10
1.374951295416841
 20
0.000000000000004
 30
0.0
  0
VERTEX
  5
6EF
  8
RULER
 10
1.374951295416841
 20
0.1250000000000058
 30
0.0
  0
SEQEND
  5
E24
  8
RULER
  0
POLYLINE
  5
26E
  8
RULER
 66
     1
 10
0.0
 20
0.0
 30
0.0
  0
VERTEX
  5
6F0
  8
RULER
 10
1.124951295416842
 20
0.000000000000004
 30
0.0
  0
VERTEX
  5
6F1
  8
RULER
 10
1.124951295416842
 20
0.1250000000000058
 30
0.0
  0
SEQEND
  5
E25
  8
RULER
  0
POLYLINE
  5
26F
  8
RULER
 66
     1
 10
0.0
 20
0.0
 30
0.0
  0
VERTEX
  5
6F2
  8
RULER
 10
0.8749512954168388
 20
0.000000000000004
 30
0.0
  0
VERTEX
  5
6F3
  8
RULER
 10
0.8749512954168388
 20
0.1250000000000058
 30
0.0
  0
SEQEND
  5
E26
  8
RULER
  0
POLYLINE
  5
270
  8
RULER
 66
     1
 10
0.0
 20
0.0
 30
0.0
  0
VERTEX
  5
6F4
  8
RULER
 10
0.6249512954168388
 20
0.000000000000004
 30
0.0
  0
VERTEX
  5
6F5
  8
RULER
 10
0.6249512954168388
 20
0.1250000000000058
 30
0.0
  0
SEQEND
  5
E27
  8
RULER
  0
POLYLINE
  5
271
  8
RULER
 66
     1
 10
0.0
 20
0.0
 30
0.0
  0
VERTEX
  5
6F6
  8
RULER
 10
0.3749512954168406
 20
0.000000000000004
 30
0.0
  0
VERTEX
  5
6F7
  8
RULER
 10
0.3749512954168406
 20
0.1250000000000058
 30
0.0
  0
SEQEND
  5
E28
  8
RULER
  0
POLYLINE
  5
272
  8
RULER
 66
     1
 10
0.0
 20
0.0
 30
0.0
  0
VERTEX
  5
6F8
  8
RULER
 10
0.1249512954168406
 20
0.000000000000004
 30
0.0
  0
VERTEX
  5
6F9
  8
RULER
 10
0.1249512954168406
 20
0.1250000000000058
 30
0.0
  0
SEQEND
  5
E29
  8
RULER
  0
POLYLINE
  5
273
  8
RULER
 66
     1
 10
0.0
 20
0.0
 30
0.0
  0
VERTEX
  5
6FA
  8
RULER
 10
-0.1250487045831576
 20
0.000000000000004
 30
0.0
  0
VERTEX
  5
6FB
  8
RULER
 10
-0.1250487045831576
 20
0.1250000000000058
 30
0.0
  0
SEQEND
  5
E2A
  8
RULER
  0
POLYLINE
  5
274
  8
RULER
 66
     1
 10
0.0
 20
0.0
 30
0.0
  0
VERTEX
  5
6FC
  8
RULER
 10
2.070651937392548
 20
1.158804692479476
 30
0.0
 42
-0.4238676972146167
  0
VERTEX
  5
6FD
  8
RULER
 10
2.145651937392548
 20
1.236304692479476
 30
0.0
 42
-0.4139114804918755
  0
VERTEX
  5
6FE
  8
RULER
 10
2.220651937392548
 20
1.161304692479476
 30
0.0
 42
-0.1946370063820205
  0
VERTEX
  5
6FF
  8
RULER
 10
2.198151937392548
 20
1.108804692479476
 30
0.0
  0
VERTEX
  5
700
  8
RULER
 10
2.073151937392548
 20
0.9838046924794761
 30
0.0
  0
VERTEX
  5
701
  8
RULER
 10
2.233151937392548
 20
0.9838046924794761
 30
0.0
  0
SEQEND
  5
E2B
  8
RULER
  0
POLYLINE
  5
275
  8
RULER
 66
     1
 10
0.0
 20
0.0
 30
0.0
  0
VERTEX
  5
702
  8
RULER
 10
3.083151937392548
 20
1.173804692479476
 30
0.0
 42
-0.4548493327042687
  0
VERTEX
  5
703
  8
RULER
 10
3.138151937392548
 20
1.236804692479476
 30
0.0
 42
-0.4114350750726344
  0
VERTEX
  5
704
  8
RULER
 10
3.193151937392548
 20
1.181304692479476
 30
0.0
  0
VERTEX
  5
705
  8
RULER
 10
3.193151937392548
 20
1.173804692479476
 30
0.0
 42
-0.4121212121212124
  0
VERTEX
  5
706
  8
RULER
 10
3.138151937392548
 20
1.118804692479476
 30
0.0
  0
VERTEX
  5
707
  8
RULER
 10
3.125651937392548
 20
1.118804692479476
 30
0.0
  0
VERTEX
  5
708
  8
RULER
 10
3.140651937392548
 20
1.118804692479476
 30
0.0
 42
-0.4142857142857143
  0
VERTEX
  5
709
  8
RULER
 10
3.210651937392548
 20
1.048804692479476
 30
0.0
 42
-0.9462693881493045
  0
VERTEX
  5
70A
  8
RULER
 10
3.070651937392548
 20
1.046304692479476
 30
0.0
  0
SEQEND
  5
E2C
  8
RULER
  0
POLYLINE
  5
276
  8
RULER
 66
     1
 10
0.0
 20
0.0
 30
0.0
  0
VERTEX
  5
70B
  8
RULER
 10
4.248151937392548
 20
1.028804692479476
 30
0.0
  0
VERTEX
  5
70C
  8
RULER
 10
4.070651937392548
 20
1.028804692479476
 30
0.0
  0
VERTEX
  5
70D
  8
RULER
 10
4.210651937392548
 20
1.233804692479476
 30
0.0
  0
VERTEX
  5
70E
  8
RULER
 10
4.210651937392548
 20
0.9838046924794761
 30
0.0
  0
SEQEND
  5
E2D
  8
RULER
  0
POLYLINE
  5
277
  8
RULER
 66
     1
 10
0.0
 20
0.0
 30
0.0
  0
VERTEX
  5
70F
  8
RULER
 10
5.070651937392548
 20
1.061304692479476
 30
0.0
 42
0.8576084699939476
  0
VERTEX
  5
710
  8
RULER
 10
5.237818604059215
 20
1.043804692479476
 30
0.0
 42
0.8394311096568591
  0
VERTEX
  5
711
  8
RULER
 10
5.085651937392548
 20
1.113804692479476
 30
0.0
  0
VERTEX
  5
712
  8
RULER
 10
5.105651937392548
 20
1.233804692479476
 30
0.0
  0
VERTEX
  5
713
  8
RULER
 10
5.223151937392548
 20
1.233804692479476
 30
0.0
  0
SEQEND
  5
E2E
  8
RULER
  0
POLYLINE
  5
278
  8
RULER
 66
     1
 10
0.0
 20
0.0
 30
0.0
 70
     1
  0
VERTEX
  5
714
  8
RULER
 10
6.155800327276616
 20
0.9813046924794762
 30
0.0
  0
VERTEX
  5
715
  8
RULER
 10
6.164491083507461
 20
0.9817435378974197
 30
0.0
  0
VERTEX
  5
716
  8
RULER
 10
6.172930792021022
 20
0.9830315903731324
 30
0.0
  0
VERTEX
  5
717
  8
RULER
 10
6.181076727150121
 20
0.9851261242394367
 30
0.0
  0
VERTEX
  5
718
  8
RULER
 10
6.188886163227579
 20
0.9879844138291549
 30
0.0
  0
VERTEX
  5
719
  8
RULER
 10
6.196316374586221
 20
0.99156373347511
 30
0.0
  0
VERTEX
  5
71A
  8
RULER
 10
6.20332463555887
 20
0.9958213575101238
 30
0.0
  0
VERTEX
  5
71B
  8
RULER
 10
6.209868220478345
 20
1.00071456026702
 30
0.0
  0
VERTEX
  5
71C
  8
RULER
 10
6.215904403677472
 20
1.006200616078619
 30
0.0
  0
VERTEX
  5
71D
  8
RULER
 10
6.221390459489072
 20
1.012236799277746
 30
0.0
  0
VERTEX
  5
71E
  8
RULER
 10
6.226283662245967
 20
1.018780384197222
 30
0.0
  0
VERTEX
  5
71F
  8
RULER
 10
6.230541286280982
 20
1.02578864516987
 30
0.0
  0
VERTEX
  5
720
  8
RULER
 10
6.234120605926937
 20
1.033218856528512
 30
0.0
  0
VERTEX
  5
721
  8
RULER
 10
6.236978895516656
 20
1.041028292605971
 30
0.0
  0
VERTEX
  5
722
  8
RULER
 10
6.23907342938296
 20
1.04917422773507
 30
0.0
  0
VERTEX
  5
723
  8
RULER
 10
6.240361481858672
 20
1.057613936248631
 30
0.0
  0
VERTEX
  5
724
  8
RULER
 10
6.240800327276616
 20
1.066304692479476
 30
0.0
  0
VERTEX
  5
725
  8
RULER
 10
6.240361481858672
 20
1.074995448710322
 30
0.0
  0
VERTEX
  5
726
  8
RULER
 10
6.23907342938296
 20
1.083435157223882
 30
0.0
  0
VERTEX
  5
727
  8
RULER
 10
6.236978895516656
 20
1.091581092352981
 30
0.0
  0
VERTEX
  5
728
  8
RULER
 10
6.234120605926937
 20
1.09939052843044
 30
0.0
  0
VERTEX
  5
729
  8
RULER
 10
6.230541286280982
 20
1.106820739789082
 30
0.0
  0
VERTEX
  5
72A
  8
RULER
 10
6.226283662245967
 20
1.11382900076173
 30
0.0
  0
VERTEX
  5
72B
  8
RULER
 10
6.221390459489072
 20
1.120372585681206
 30
0.0
  0
VERTEX
  5
72C
  8
RULER
 10
6.215904403677472
 20
1.126408768880333
 30
0.0
  0
VERTEX
  5
72D
  8
RULER
 10
6.209868220478345
 20
1.131894824691933
 30
0.0
  0
VERTEX
  5
72E
  8
RULER
 10
6.20332463555887
 20
1.136788027448828
 30
0.0
  0
VERTEX
  5
72F
  8
RULER
 10
6.196316374586221
 20
1.141045651483843
 30
0.0
  0
VERTEX
  5
730
  8
RULER
 10
6.188886163227579
 20
1.144624971129797
 30
0.0
  0
VERTEX
  5
731
  8
RULER
 10
6.181076727150121
 20
1.147483260719516
 30
0.0
  0
VERTEX
  5
732
  8
RULER
 10
6.172930792021022
 20
1.14957779458582
 30
0.0
  0
VERTEX
  5
733
  8
RULER
 10
6.164491083507461
 20
1.150865847061532
 30
0.0
  0
VERTEX
  5
734
  8
RULER
 10
6.155800327276616
 20
1.151304692479476
 30
0.0
  0
VERTEX
  5
735
  8
RULER
 10
6.14710957104577
 20
1.150865847061532
 30
0.0
  0
VERTEX
  5
736
  8
RULER
 10
6.138669862532209
 20
1.14957779458582
 30
0.0
  0
VERTEX
  5
737
  8
RULER
 10
6.130523927403111
 20
1.147483260719516
 30
0.0
  0
VERTEX
  5
738
  8
RULER
 10
6.122714491325651
 20
1.144624971129797
 30
0.0
  0
VERTEX
  5
739
  8
RULER
 10
6.115284279967009
 20
1.141045651483843
 30
0.0
  0
VERTEX
  5
73A
  8
RULER
 10
6.108276018994362
 20
1.136788027448828
 30
0.0
  0
VERTEX
  5
73B
  8
RULER
 10
6.101732434074885
 20
1.131894824691933
 30
0.0
  0
VERTEX
  5
73C
  8
RULER
 10
6.095696250875758
 20
1.126408768880333
 30
0.0
  0
VERTEX
  5
73D
  8
RULER
 10
6.090210195064158
 20
1.120372585681206
 30
0.0
  0
VERTEX
  5
73E
  8
RULER
 10
6.085316992307263
 20
1.11382900076173
 30
0.0
  0
VERTEX
  5
73F
  8
RULER
 10
6.081059368272248
 20
1.106820739789082
 30
0.0
  0
VERTEX
  5
740
  8
RULER
 10
6.077480048626294
 20
1.09939052843044
 30
0.0
  0
VERTEX
  5
741
  8
RULER
 10
6.074621759036575
 20
1.091581092352981
 30
0.0
  0
VERTEX
  5
742
  8
RULER
 10
6.072527225170272
 20
1.083435157223882
 30
0.0
  0
VERTEX
  5
743
  8
RULER
 10
6.071239172694559
 20
1.074995448710322
 30
0.0
  0
VERTEX
  5
744
  8
RULER
 10
6.070800327276615
 20
1.066304692479476
 30
0.0
  0
VERTEX
  5
745
  8
RULER
 10
6.071239172694559
 20
1.057613936248631
 30
0.0
  0
VERTEX
  5
746
  8
RULER
 10
6.072527225170272
 20
1.04917422773507
 30
0.0
  0
VERTEX
  5
747
  8
RULER
 10
6.074621759036575
 20
1.041028292605971
 30
0.0
  0
VERTEX
  5
748
  8
RULER
 10
6.077480048626294
 20
1.033218856528512
 30
0.0
  0
VERTEX
  5
749
  8
RULER
 10
6.081059368272248
 20
1.02578864516987
 30
0.0
  0
VERTEX
  5
74A
  8
RULER
 10
6.085316992307263
 20
1.018780384197222
 30
0.0
  0
VERTEX
  5
74B
  8
RULER
 10
6.090210195064158
 20
1.012236799277746
 30
0.0
  0
VERTEX
  5
74C
  8
RULER
 10
6.095696250875758
 20
1.006200616078619
 30
0.0
  0
VERTEX
  5
74D
  8
RULER
 10
6.101732434074885
 20
1.00071456026702
 30
0.0
  0
VERTEX
  5
74E
  8
RULER
 10
6.108276018994362
 20
0.9958213575101238
 30
0.0
  0
VERTEX
  5
74F
  8
RULER
 10
6.115284279967009
 20
0.99156373347511
 30
0.0
  0
VERTEX
  5
750
  8
RULER
 10
6.122714491325651
 20
0.9879844138291549
 30
0.0
  0
VERTEX
  5
751
  8
RULER
 10
6.130523927403111
 20
0.9851261242394367
 30
0.0
  0
VERTEX
  5
752
  8
RULER
 10
6.138669862532209
 20
0.9830315903731324
 30
0.0
  0
VERTEX
  5
753
  8
RULER
 10
6.14710957104577
 20
0.9817435378974197
 30
0.0
  0
SEQEND
  5
E2F
  8
RULER
  0
POLYLINE
  5
279
  8
RULER
 66
     1
 10
0.0
 20
0.0
 30
0.0
  0
VERTEX
  5
754
  8
RULER
 10
6.155800327276616
 20
0.9813046924794762
 30
0.0
 42
-0.5862971619980313
  0
VERTEX
  5
755
  8
RULER
 10
6.083300327276615
 20
1.111304692479476
 30
0.0
  0
VERTEX
  5
756
  8
RULER
 10
6.165800327276616
 20
1.236304692479476
 30
0.0
  0
SEQEND
  5
E30
  8
RULER
  0
POLYLINE
  5
27A
  8
RULER
 66
     1
 10
0.0
 20
0.0
 30
0.0
  0
VERTEX
  5
757
  8
RULER
 10
7.070651937392547
 20
1.233804692479476
 30
0.0
  0
VERTEX
  5
758
  8
RULER
 10
7.210651937392548
 20
1.233804692479476
 30
0.0
  0
VERTEX
  5
759
  8
RULER
 10
7.100651937392548
 20
0.9838046924794761
 30
0.0
  0
SEQEND
  5
E31
  8
RULER
  0
POLYLINE
  5
27B
  8
RULER
 66
     1
 10
0.0
 20
0.0
 30
0.0
 70
     1
  0
VERTEX
  5
75A
  8
RULER
 10
8.140651937392548
 20
1.126304692479476
 30
0.0
  0
VERTEX
  5
75B
  8
RULER
 10
8.135028506890235
 20
1.126588651279322
 30
0.0
  0
VERTEX
  5
75C
  8
RULER
 10
8.12956751902852
 20
1.127422096998901
 30
0.0
  0
VERTEX
  5
75D
  8
RULER
 10
8.124296619827339
 20
1.128777383618274
 30
0.0
  0
VERTEX
  5
75E
  8
RULER
 10
8.11924345530663
 20
1.130626865117504
 30
0.0
  0
VERTEX
  5
75F
  8
RULER
 10
8.114435671486333
 20
1.132942895476651
 30
0.0
  0
VERTEX
  5
760
  8
RULER
 10
8.109900914386385
 20
1.135697828675778
 30
0.0
  0
VERTEX
  5
761
  8
RULER
 10
8.105666830026724
 20
1.138864018694945
 30
0.0
  0
VERTEX
  5
762
  8
RULER
 10
8.101761064427288
 20
1.142413819514216
 30
0.0
  0
VERTEX
  5
763
  8
RULER
 10
8.098211263608018
 20
1.146319585113651
 30
0.0
  0
VERTEX
  5
764
  8
RULER
 10
8.09504507358885
 20
1.150553669473312
 30
0.0
  0
VERTEX
  5
765
  8
RULER
 10
8.092290140389723
 20
1.15508842657326
 30
0.0
  0
VERTEX
  5
766
  8
RULER
 10
8.089974110030575
 20
1.159896210393558
 30
0.0
  0
VERTEX
  5
767
  8
RULER
 10
8.088124628531345
 20
1.164949374914267
 30
0.0
  0
VERTEX
  5
768
  8
RULER
 10
8.086769341911971
 20
1.170220274115449
 30
0.0
  0
VERTEX
  5
769
  8
RULER
 10
8.085935896192392
 20
1.175681261977164
 30
0.0
  0
VERTEX
  5
76A
  8
RULER
 10
8.085651937392548
 20
1.181304692479476
 30
0.0
  0
VERTEX
  5
76B
  8
RULER
 10
8.085935896192392
 20
1.186928122981788
 30
0.0
  0
VERTEX
  5
76C
  8
RULER
 10
8.086769341911971
 20
1.192389110843504
 30
0.0
  0
VERTEX
  5
76D
  8
RULER
 10
8.088124628531345
 20
1.197660010044685
 30
0.0
  0
VERTEX
  5
76E
  8
RULER
 10
8.089974110030575
 20
1.202713174565394
 30
0.0
  0
VERTEX
  5
76F
  8
RULER
 10
8.092290140389723
 20
1.207520958385692
 30
0.0
  0
VERTEX
  5
770
  8
RULER
 10
8.09504507358885
 20
1.21205571548564
 30
0.0
  0
VERTEX
  5
771
  8
RULER
 10
8.098211263608018
 20
1.216289799845302
 30
0.0
  0
VERTEX
  5
772
  8
RULER
 10
8.101761064427288
 20
1.220195565444736
 30
0.0
  0
VERTEX
  5
773
  8
RULER
 10
8.105666830026724
 20
1.223745366264007
 30
0.0
  0
VERTEX
  5
774
  8
RULER
 10
8.109900914386385
 20
1.226911556283174
 30
0.0
  0
VERTEX
  5
775
  8
RULER
 10
8.114435671486333
 20
1.229666489482301
 30
0.0
  0
VERTEX
  5
776
  8
RULER
 10
8.11924345530663
 20
1.231982519841448
 30
0.0
  0
VERTEX
  5
777
  8
RULER
 10
8.124296619827339
 20
1.233832001340678
 30
0.0
  0
VERTEX
  5
778
  8
RULER
 10
8.12956751902852
 20
1.235187287960051
 30
0.0
  0
VERTEX
  5
779
  8
RULER
 10
8.135028506890235
 20
1.23602073367963
 30
0.0
  0
VERTEX
  5
77A
  8
RULER
 10
8.140651937392548
 20
1.236304692479476
 30
0.0
  0
VERTEX
  5
77B
  8
RULER
 10
8.14627536789486
 20
1.23602073367963
 30
0.0
  0
VERTEX
  5
77C
  8
RULER
 10
8.151736355756576
 20
1.235187287960051
 30
0.0
  0
VERTEX
  5
77D
  8
RULER
 10
8.157007254957756
 20
1.233832001340678
 30
0.0
  0
VERTEX
  5
77E
  8
RULER
 10
8.162060419478465
 20
1.231982519841448
 30
0.0
  0
VERTEX
  5
77F
  8
RULER
 10
8.166868203298762
 20
1.229666489482301
 30
0.0
  0
VERTEX
  5
780
  8
RULER
 10
8.17140296039871
 20
1.226911556283174
 30
0.0
  0
VERTEX
  5
781
  8
RULER
 10
8.175637044758371
 20
1.223745366264007
 30
0.0
  0
VERTEX
  5
782
  8
RULER
 10
8.179542810357807
 20
1.220195565444736
 30
0.0
  0
VERTEX
  5
783
  8
RULER
 10
8.183092611177077
 20
1.216289799845302
 30
0.0
  0
VERTEX
  5
784
  8
RULER
 10
8.186258801196246
 20
1.21205571548564
 30
0.0
  0
VERTEX
  5
785
  8
RULER
 10
8.189013734395372
 20
1.207520958385692
 30
0.0
  0
VERTEX
  5
786
  8
RULER
 10
8.19132976475452
 20
1.202713174565394
 30
0.0
  0
VERTEX
  5
787
  8
RULER
 10
8.19317924625375
 20
1.197660010044685
 30
0.0
  0
VERTEX
  5
788
  8
RULER
 10
8.194534532873124
 20
1.192389110843504
 30
0.0
  0
VERTEX
  5
789
  8
RULER
 10
8.195367978592703
 20
1.186928122981788
 30
0.0
  0
VERTEX
  5
78A
  8
RULER
 10
8.195651937392547
 20
1.181304692479476
 30
0.0
  0
VERTEX
  5
78B
  8
RULER
 10
8.195367978592703
 20
1.175681261977164
 30
0.0
  0
VERTEX
  5
78C
  8
RULER
 10
8.194534532873124
 20
1.170220274115449
 30
0.0
  0
VERTEX
  5
78D
  8
RULER
 10
8.19317924625375
 20
1.164949374914267
 30
0.0
  0
VERTEX
  5
78E
  8
RULER
 10
8.19132976475452
 20
1.159896210393558
 30
0.0
  0
VERTEX
  5
78F
  8
RULER
 10
8.189013734395372
 20
1.15508842657326
 30
0.0
  0
VERTEX
  5
790
  8
RULER
 10
8.186258801196246
 20
1.150553669473312
 30
0.0
  0
VERTEX
  5
791
  8
RULER
 10
8.183092611177077
 20
1.146319585113651
 30
0.0
  0
VERTEX
  5
792
  8
RULER
 10
8.179542810357807
 20
1.142413819514216
 30
0.0
  0
VERTEX
  5
793
  8
RULER
 10
8.175637044758371
 20
1.138864018694945
 30
0.0
  0
VERTEX
  5
794
  8
RULER
 10
8.17140296039871
 20
1.135697828675778
 30
0.0
  0
VERTEX
  5
795
  8
RULER
 10
8.166868203298762
 20
1.132942895476651
 30
0.0
  0
VERTEX
  5
796
  8
RULER
 10
8.162060419478465
 20
1.130626865117504
 30
0.0
  0
VERTEX
  5
797
  8
RULER
 10
8.157007254957756
 20
1.128777383618274
 30
0.0
  0
VERTEX
  5
798
  8
RULER
 10
8.151736355756576
 20
1.127422096998901
 30
0.0
  0
VERTEX
  5
799
  8
RULER
 10
8.14627536789486
 20
1.126588651279322
 30
0.0
  0
SEQEND
  5
E32
  8
RULER
  0
POLYLINE
  5
27C
  8
RULER
 66
     1
 10
0.0
 20
0.0
 30
0.0
 70
     1
  0
VERTEX
  5
79A
  8
RULER
 10
8.140651937392548
 20
1.126304692479476
 30
0.0
 42
-0.4142857142857143
  0
VERTEX
  5
79B
  8
RULER
 10
8.210651937392548
 20
1.056304692479476
 30
0.0
  0
VERTEX
  5
79C
  8
RULER
 10
8.210651937392548
 20
1.051304692479476
 30
0.0
 42
-1.0
  0
VERTEX
  5
79D
  8
RULER
 10
8.070651937392547
 20
1.051304692479476
 30
0.0
  0
VERTEX
  5
79E
  8
RULER
 10
8.070651937392547
 20
1.056304692479476
 30
0.0
 42
-0.4142857142857144
  0
SEQEND
  5
E33
  8
RULER
  0
POLYLINE
  5
27D
  8
RULER
 66
     1
 10
0.0
 20
0.0
 30
0.0
  0
VERTEX
  5
79F
  8
RULER
 10
9.145651937392548
 20
0.9838046924794761
 30
0.0
  0
VERTEX
  5
7A0
  8
RULER
 10
9.228151937392548
 20
1.108804692479476
 30
0.0
 42
0.1380051253523702
  0
VERTEX
  5
7A1
  8
RULER
 10
9.240651937392549
 20
1.151304692479476
 30
0.0
 42
1.0
  0
VERTEX
  5
7A2
  8
RULER
 10
9.070651937392547
 20
1.151304692479476
 30
0.0
 42
0.7699957824736615
  0
VERTEX
  5
7A3
  8
RULER
 10
9.228151937392548
 20
1.108804692479476
 30
0.0
  0
SEQEND
  5
E34
  8
RULER
  0
POLYLINE
  5
27E
  8
RULER
 66
     1
 10
0.0
 20
0.0
 30
0.0
  0
VERTEX
  5
7A4
  8
RULER
 10
10.07065193739255
 20
1.233804692479476
 30
0.0
  0
VERTEX
  5
7A5
  8
RULER
 10
10.13815193739255
 20
1.233804692479476
 30
0.0
  0
VERTEX
  5
7A6
  8
RULER
 10
10.13815193739255
 20
0.9838046924794761
 30
0.0
  0
SEQEND
  5
E35
  8
RULER
  0
POLYLINE
  5
27F
  8
RULER
 66
     1
 10
0.0
 20
0.0
 30
0.0
 70
     1
  0
VERTEX
  5
7A7
  8
RULER
 10
10.31315193739255
 20
0.9813046924794762
 30
0.0
  0
VERTEX
  5
7A8
  8
RULER
 10
10.31565193739255
 20
0.9813046924794762
 30
0.0
 42
0.4133333333333333
  0
VERTEX
  5
7A9
  8
RULER
 10
10.44065193739255
 20
1.106304692479476
 30
0.0
  0
VERTEX
  5
7AA
  8
RULER
 10
10.44065193739255
 20
1.108804692479476
 30
0.0
 42
0.4133333333333333
  0
VERTEX
  5
7AB
  8
RULER
 10
10.31565193739255
 20
1.233804692479476
 30
0.0
  0
VERTEX
  5
7AC
  8
RULER
 10
10.31315193739255
 20
1.233804692479476
 30
0.0
 42
0.4133333333333333
  0
VERTEX
  5
7AD
  8
RULER
 10
10.18815193739255
 20
1.108804692479476
 30
0.0
  0
VERTEX
  5
7AE
  8
RULER
 10
10.18815193739255
 20
1.106304692479476
 30
0.0
 42
0.4133333333333333
  0
SEQEND
  5
E36
  8
RULER
  0
POLYLINE
  5
280
  8
RULER
 66
     1
 10
0.0
 20
0.0
 30
0.0
  0
VERTEX
  5
7AF
  8
RULER
 10
11.07065193739255
 20
1.233804692479476
 30
0.0
  0
VERTEX
  5
7B0
  8
RULER
 10
11.13815193739255
 20
1.233804692479476
 30
0.0
  0
VERTEX
  5
7B1
  8
RULER
 10
11.13815193739255
 20
0.9838046924794761
 30
0.0
  0
SEQEND
  5
E37
  8
RULER
  0
POLYLINE
  5
281
  8
RULER
 66
     1
 10
0.0
 20
0.0
 30
0.0
  0
VERTEX
  5
7B2
  8
RULER
 10
11.18815193739255
 20
1.233804692479476
 30
0.0
  0
VERTEX
  5
7B3
  8
RULER
 10
11.25565193739255
 20
1.233804692479476
 30
0.0
  0
VERTEX
  5
7B4
  8
RULER
 10
11.25565193739255
 20
0.9838046924794761
 30
0.0
  0
SEQEND
  5
E38
  8
RULER
  0
POLYLINE
  5
282
  8
RULER
 66
     1
 10
0.0
 20
0.0
 30
0.0
  0
VERTEX
  5
7B5
  8
RULER
 10
12.07065193739255
 20
1.233804692479476
 30
0.0
  0
VERTEX
  5
7B6
  8
RULER
 10
12.13815193739255
 20
1.233804692479476
 30
0.0
  0
VERTEX
  5
7B7
  8
RULER
 10
12.13815193739255
 20
0.9838046924794761
 30
0.0
  0
SEQEND
  5
E39
  8
RULER
  0
POLYLINE
  5
283
  8
RULER
 66
     1
 10
0.0
 20
0.0
 30
0.0
  0
VERTEX
  5
7B8
  8
RULER
 10
12.18815193739255
 20
1.158804692479476
 30
0.0
 42
-0.4238676972146167
  0
VERTEX
  5
7B9
  8
RULER
 10
12.26315193739255
 20
1.236304692479476
 30
0.0
 42
-0.4139114804918755
  0
VERTEX
  5
7BA
  8
RULER
 10
12.33815193739255
 20
1.161304692479476
 30
0.0
 42
-0.1946370063820205
  0
VERTEX
  5
7BB
  8
RULER
 10
12.31565193739255
 20
1.108804692479476
 30
0.0
  0
VERTEX
  5
7BC
  8
RULER
 10
12.19065193739255
 20
0.9838046924794761
 30
0.0
  0
VERTEX
  5
7BD
  8
RULER
 10
12.35065193739255
 20
0.9838046924794761
 30
0.0
  0
SEQEND
  5
E3A
  8
RULER
  0
POLYLINE
  5
284
  8
RULER
 66
     1
 10
0.0
 20
0.0
 30
0.0
  0
VERTEX
  5
7BE
  8
RULER
 10
13.07065193739255
 20
1.233804692479476
 30
0.0
  0
VERTEX
  5
7BF
  8
RULER
 10
13.13815193739255
 20
1.233804692479476
 30
0.0
  0
VERTEX
  5
7C0
  8
RULER
 10
13.13815193739255
 20
0.9838046924794761
 30
0.0
  0
SEQEND
  5
E3B
  8
RULER
  0
POLYLINE
  5
285
  8
RULER
 66
     1
 10
0.0
 20
0.0
 30
0.0
  0
VERTEX
  5
7C1
  8
RULER
 10
13.20048527072588
 20
1.173804692479476
 30
0.0
 42
-0.4548493327042687
  0
VERTEX
  5
7C2
  8
RULER
 10
13.25548527072588
 20
1.236804692479476
 30
0.0
 42
-0.4114350750726344
  0
VERTEX
  5
7C3
  8
RULER
 10
13.31048527072588
 20
1.181304692479476
 30
0.0
  0
VERTEX
  5
7C4
  8
RULER
 10
13.31048527072588
 20
1.173804692479476
 30
0.0
 42
-0.4121212121212124
  0
VERTEX
  5
7C5
  8
RULER
 10
13.25548527072588
 20
1.118804692479476
 30
0.0
  0
VERTEX
  5
7C6
  8
RULER
 10
13.24298527072588
 20
1.118804692479476
 30
0.0
  0
VERTEX
  5
7C7
  8
RULER
 10
13.25798527072588
 20
1.118804692479476
 30
0.0
 42
-0.4142857142857143
  0
VERTEX
  5
7C8
  8
RULER
 10
13.32798527072588
 20
1.048804692479476
 30
0.0
 42
-0.9462693881493045
  0
VERTEX
  5
7C9
  8
RULER
 10
13.18798527072588
 20
1.046304692479476
 30
0.0
  0
SEQEND
  5
E3C
  8
RULER
  0
POLYLINE
  5
286
  8
RULER
 66
     1
 10
0.0
 20
0.0
 30
0.0
  0
VERTEX
  5
7CA
  8
RULER
 10
14.07065193739255
 20
1.233804692479476
 30
0.0
  0
VERTEX
  5
7CB
  8
RULER
 10
14.13815193739255
 20
1.233804692479476
 30
0.0
  0
VERTEX
  5
7CC
  8
RULER
 10
14.13815193739255
 20
0.9838046924794761
 30
0.0
  0
SEQEND
  5
E3D
  8
RULER
  0
POLYLINE
  5
287
  8
RULER
 66
     1
 10
0.0
 20
0.0
 30
0.0
  0
VERTEX
  5
7CD
  8
RULER
 10
14.36565193739255
 20
1.028804692479476
 30
0.0
  0
VERTEX
  5
7CE
  8
RULER
 10
14.18815193739255
 20
1.028804692479476
 30
0.0
  0
VERTEX
  5
7CF
  8
RULER
 10
14.32815193739255
 20
1.233804692479476
 30
0.0
  0
VERTEX
  5
7D0
  8
RULER
 10
14.32815193739255
 20
0.9838046924794761
 30
0.0
  0
SEQEND
  5
E3E
  8
RULER
  0
POLYLINE
  5
288
  8
RULER
 66
     1
 10
0.0
 20
0.0
 30
0.0
  0
VERTEX
  5
7D1
  8
RULER
 10
15.07065193739255
 20
1.233804692479476
 30
0.0
  0
VERTEX
  5
7D2
  8
RULER
 10
15.13815193739255
 20
1.233804692479476
 30
0.0
  0
VERTEX
  5
7D3
  8
RULER
 10
15.13815193739255
 20
0.9838046924794761
 30
0.0
  0
SEQEND
  5
E3F
  8
RULER
  0
POLYLINE
  5
289
  8
RULER
 66
     1
 10
0.0
 20
0.0
 30
0.0
  0
VERTEX
  5
7D4
  8
RULER
 10
15.17315193739255
 20
1.061304692479476
 30
0.0
 42
0.8576084699939476
  0
VERTEX
  5
7D5
  8
RULER
 10
15.34031860405921
 20
1.043804692479476
 30
0.0
 42
0.8394311096568591
  0
VERTEX
  5
7D6
  8
RULER
 10
15.18815193739255
 20
1.113804692479476
 30
0.0
  0
VERTEX
  5
7D7
  8
RULER
 10
15.20815193739255
 20
1.233804692479476
 30
0.0
  0
VERTEX
  5
7D8
  8
RULER
 10
15.32565193739255
 20
1.233804692479476
 30
0.0
  0
SEQEND
  5
E40
  8
RULER
  0
POLYLINE
  5
28A
  8
RULER
 66
     1
 10
0.0
 20
0.0
 30
0.0
  0
VERTEX
  5
7D9
  8
RULER
 10
16.07065193739255
 20
1.233804692479476
 30
0.0
  0
VERTEX
  5
7DA
  8
RULER
 10
16.13815193739255
 20
1.233804692479476
 30
0.0
  0
VERTEX
  5
7DB
  8
RULER
 10
16.13815193739255
 20
0.9838046924794761
 30
0.0
  0
SEQEND
  5
E41
  8
RULER
  0
POLYLINE
  5
28B
  8
RULER
 66
     1
 10
0.0
 20
0.0
 30
0.0
 70
     1
  0
VERTEX
  5
7DC
  8
RULER
 10
16.27315193739255
 20
0.9813046924794762
 30
0.0
  0
VERTEX
  5
7DD
  8
RULER
 10
16.2818426936234
 20
0.9817435378974197
 30
0.0
  0
VERTEX
  5
7DE
  8
RULER
 10
16.29028240213695
 20
0.9830315903731324
 30
0.0
  0
VERTEX
  5
7DF
  8
RULER
 10
16.29842833726605
 20
0.9851261242394367
 30
0.0
  0
VERTEX
  5
7E0
  8
RULER
 10
16.30623777334351
 20
0.9879844138291549
 30
0.0
  0
VERTEX
  5
7E1
  8
RULER
 10
16.31366798470215
 20
0.99156373347511
 30
0.0
  0
VERTEX
  5
7E2
  8
RULER
 10
16.3206762456748
 20
0.9958213575101238
 30
0.0
  0
VERTEX
  5
7E3
  8
RULER
 10
16.32721983059428
 20
1.00071456026702
 30
0.0
  0
VERTEX
  5
7E4
  8
RULER
 10
16.3332560137934
 20
1.006200616078619
 30
0.0
  0
VERTEX
  5
7E5
  8
RULER
 10
16.338742069605
 20
1.012236799277746
 30
0.0
  0
VERTEX
  5
7E6
  8
RULER
 10
16.3436352723619
 20
1.018780384197222
 30
0.0
  0
VERTEX
  5
7E7
  8
RULER
 10
16.34789289639691
 20
1.02578864516987
 30
0.0
  0
VERTEX
  5
7E8
  8
RULER
 10
16.35147221604287
 20
1.033218856528512
 30
0.0
  0
VERTEX
  5
7E9
  8
RULER
 10
16.35433050563259
 20
1.041028292605971
 30
0.0
  0
VERTEX
  5
7EA
  8
RULER
 10
16.35642503949889
 20
1.04917422773507
 30
0.0
  0
VERTEX
  5
7EB
  8
RULER
 10
16.3577130919746
 20
1.057613936248631
 30
0.0
  0
VERTEX
  5
7EC
  8
RULER
 10
16.35815193739255
 20
1.066304692479476
 30
0.0
  0
VERTEX
  5
7ED
  8
RULER
 10
16.3577130919746
 20
1.074995448710322
 30
0.0
  0
VERTEX
  5
7EE
  8
RULER
 10
16.35642503949889
 20
1.083435157223882
 30
0.0
  0
VERTEX
  5
7EF
  8
RULER
 10
16.35433050563259
 20
1.091581092352981
 30
0.0
  0
VERTEX
  5
7F0
  8
RULER
 10
16.35147221604287
 20
1.09939052843044
 30
0.0
  0
VERTEX
  5
7F1
  8
RULER
 10
16.34789289639691
 20
1.106820739789082
 30
0.0
  0
VERTEX
  5
7F2
  8
RULER
 10
16.3436352723619
 20
1.11382900076173
 30
0.0
  0
VERTEX
  5
7F3
  8
RULER
 10
16.338742069605
 20
1.120372585681206
 30
0.0
  0
VERTEX
  5
7F4
  8
RULER
 10
16.3332560137934
 20
1.126408768880333
 30
0.0
  0
VERTEX
  5
7F5
  8
RULER
 10
16.32721983059428
 20
1.131894824691933
 30
0.0
  0
VERTEX
  5
7F6
  8
RULER
 10
16.3206762456748
 20
1.136788027448828
 30
0.0
  0
VERTEX
  5
7F7
  8
RULER
 10
16.31366798470215
 20
1.141045651483843
 30
0.0
  0
VERTEX
  5
7F8
  8
RULER
 10
16.30623777334351
 20
1.144624971129797
 30
0.0
  0
VERTEX
  5
7F9
  8
RULER
 10
16.29842833726605
 20
1.147483260719516
 30
0.0
  0
VERTEX
  5
7FA
  8
RULER
 10
16.29028240213695
 20
1.14957779458582
 30
0.0
  0
VERTEX
  5
7FB
  8
RULER
 10
16.2818426936234
 20
1.150865847061532
 30
0.0
  0
VERTEX
  5
7FC
  8
RULER
 10
16.27315193739255
 20
1.151304692479476
 30
0.0
  0
VERTEX
  5
7FD
  8
RULER
 10
16.2644611811617
 20
1.150865847061532
 30
0.0
  0
VERTEX
  5
7FE
  8
RULER
 10
16.25602147264814
 20
1.14957779458582
 30
0.0
  0
VERTEX
  5
7FF
  8
RULER
 10
16.24787553751904
 20
1.147483260719516
 30
0.0
  0
VERTEX
  5
800
  8
RULER
 10
16.24006610144158
 20
1.144624971129797
 30
0.0
  0
VERTEX
  5
801
  8
RULER
 10
16.23263589008294
 20
1.141045651483843
 30
0.0
  0
VERTEX
  5
802
  8
RULER
 10
16.22562762911029
 20
1.136788027448828
 30
0.0
  0
VERTEX
  5
803
  8
RULER
 10
16.21908404419082
 20
1.131894824691933
 30
0.0
  0
VERTEX
  5
804
  8
RULER
 10
16.21304786099169
 20
1.126408768880333
 30
0.0
  0
VERTEX
  5
805
  8
RULER
 10
16.20756180518009
 20
1.120372585681206
 30
0.0
  0
VERTEX
  5
806
  8
RULER
 10
16.20266860242319
 20
1.11382900076173
 30
0.0
  0
VERTEX
  5
807
  8
RULER
 10
16.19841097838818
 20
1.106820739789082
 30
0.0
  0
VERTEX
  5
808
  8
RULER
 10
16.19483165874223
 20
1.09939052843044
 30
0.0
  0
VERTEX
  5
809
  8
RULER
 10
16.19197336915251
 20
1.091581092352981
 30
0.0
  0
VERTEX
  5
80A
  8
RULER
 10
16.1898788352862
 20
1.083435157223882
 30
0.0
  0
VERTEX
  5
80B
  8
RULER
 10
16.18859078281049
 20
1.074995448710322
 30
0.0
  0
VERTEX
  5
80C
  8
RULER
 10
16.18815193739255
 20
1.066304692479476
 30
0.0
  0
VERTEX
  5
80D
  8
RULER
 10
16.18859078281049
 20
1.057613936248631
 30
0.0
  0
VERTEX
  5
80E
  8
RULER
 10
16.1898788352862
 20
1.04917422773507
 30
0.0
  0
VERTEX
  5
80F
  8
RULER
 10
16.19197336915251
 20
1.041028292605971
 30
0.0
  0
VERTEX
  5
810
  8
RULER
 10
16.19483165874223
 20
1.033218856528512
 30
0.0
  0
VERTEX
  5
811
  8
RULER
 10
16.19841097838818
 20
1.02578864516987
 30
0.0
  0
VERTEX
  5
812
  8
RULER
 10
16.20266860242319
 20
1.018780384197222
 30
0.0
  0
VERTEX
  5
813
  8
RULER
 10
16.20756180518009
 20
1.012236799277746
 30
0.0
  0
VERTEX
  5
814
  8
RULER
 10
16.21304786099169
 20
1.006200616078619
 30
0.0
  0
VERTEX
  5
815
  8
RULER
 10
16.21908404419082
 20
1.00071456026702
 30
0.0
  0
VERTEX
  5
816
  8
RULER
 10
16.22562762911029
 20
0.9958213575101238
 30
0.0
  0
VERTEX
  5
817
  8
RULER
 10
16.23263589008294
 20
0.99156373347511
 30
0.0
  0
VERTEX
  5
818
  8
RULER
 10
16.24006610144158
 20
0.9879844138291549
 30
0.0
  0
VERTEX
  5
819
  8
RULER
 10
16.24787553751904
 20
0.9851261242394367
 30
0.0
  0
VERTEX
  5
81A
  8
RULER
 10
16.25602147264814
 20
0.9830315903731324
 30
0.0
  0
VERTEX
  5
81B
  8
RULER
 10
16.2644611811617
 20
0.9817435378974197
 30
0.0
  0
SEQEND
  5
E42
  8
RULER
  0
POLYLINE
  5
28C
  8
RULER
 66
     1
 10
0.0
 20
0.0
 30
0.0
  0
VERTEX
  5
81C
  8
RULER
 10
16.27315193739255
 20
0.9813046924794762
 30
0.0
 42
-0.5862971619980313
  0
VERTEX
  5
81D
  8
RULER
 10
16.20065193739255
 20
1.111304692479476
 30
0.0
  0
VERTEX
  5
81E
  8
RULER
 10
16.28315193739255
 20
1.236304692479476
 30
0.0
  0
SEQEND
  5
E43
  8
RULER
  0
POLYLINE
  5
28D
  8
RULER
 66
     1
 10
0.0
 20
0.0
 30
0.0
  0
VERTEX
  5
81F
  8
RULER
 10
17.07065193739255
 20
1.233804692479476
 30
0.0
  0
VERTEX
  5
820
  8
RULER
 10
17.13815193739255
 20
1.233804692479476
 30
0.0
  0
VERTEX
  5
821
  8
RULER
 10
17.13815193739255
 20
0.9838046924794761
 30
0.0
  0
SEQEND
  5
E44
  8
RULER
  0
POLYLINE
  5
28E
  8
RULER
 66
     1
 10
0.0
 20
0.0
 30
0.0
  0
VERTEX
  5
822
  8
RULER
 10
17.18815193739255
 20
1.233804692479476
 30
0.0
  0
VERTEX
  5
823
  8
RULER
 10
17.32815193739255
 20
1.233804692479476
 30
0.0
  0
VERTEX
  5
824
  8
RULER
 10
17.21815193739255
 20
0.9838046924794761
 30
0.0
  0
SEQEND
  5
E45
  8
RULER
  0
POLYLINE
  5
28F
  8
RULER
 66
     1
 10
0.0
 20
0.0
 30
0.0
  0
VERTEX
  5
825
  8
RULER
 10
18.07065193739255
 20
1.233804692479476
 30
0.0
  0
VERTEX
  5
826
  8
RULER
 10
18.13815193739255
 20
1.233804692479476
 30
0.0
  0
VERTEX
  5
827
  8
RULER
 10
18.13815193739255
 20
0.9838046924794761
 30
0.0
  0
SEQEND
  5
E46
  8
RULER
  0
POLYLINE
  5
290
  8
RULER
 66
     1
 10
0.0
 20
0.0
 30
0.0
 70
     1
  0
VERTEX
  5
828
  8
RULER
 10
18.25815193739255
 20
1.126304692479476
 30
0.0
  0
VERTEX
  5
829
  8
RULER
 10
18.25252850689024
 20
1.126588651279322
 30
0.0
  0
VERTEX
  5
82A
  8
RULER
 10
18.24706751902852
 20
1.127422096998901
 30
0.0
  0
VERTEX
  5
82B
  8
RULER
 10
18.24179661982734
 20
1.128777383618274
 30
0.0
  0
VERTEX
  5
82C
  8
RULER
 10
18.23674345530663
 20
1.130626865117504
 30
0.0
  0
VERTEX
  5
82D
  8
RULER
 10
18.23193567148633
 20
1.132942895476651
 30
0.0
  0
VERTEX
  5
82E
  8
RULER
 10
18.22740091438638
 20
1.135697828675778
 30
0.0
  0
VERTEX
  5
82F
  8
RULER
 10
18.22316683002672
 20
1.138864018694945
 30
0.0
  0
VERTEX
  5
830
  8
RULER
 10
18.21926106442729
 20
1.142413819514216
 30
0.0
  0
VERTEX
  5
831
  8
RULER
 10
18.21571126360802
 20
1.146319585113651
 30
0.0
  0
VERTEX
  5
832
  8
RULER
 10
18.21254507358885
 20
1.150553669473312
 30
0.0
  0
VERTEX
  5
833
  8
RULER
 10
18.20979014038972
 20
1.15508842657326
 30
0.0
  0
VERTEX
  5
834
  8
RULER
 10
18.20747411003057
 20
1.159896210393558
 30
0.0
  0
VERTEX
  5
835
  8
RULER
 10
18.20562462853135
 20
1.164949374914267
 30
0.0
  0
VERTEX
  5
836
  8
RULER
 10
18.20426934191197
 20
1.170220274115449
 30
0.0
  0
VERTEX
  5
837
  8
RULER
 10
18.20343589619239
 20
1.175681261977164
 30
0.0
  0
VERTEX
  5
838
  8
RULER
 10
18.20315193739255
 20
1.181304692479476
 30
0.0
  0
VERTEX
  5
839
  8
RULER
 10
18.20343589619239
 20
1.186928122981788
 30
0.0
  0
VERTEX
  5
83A
  8
RULER
 10
18.20426934191197
 20
1.192389110843504
 30
0.0
  0
VERTEX
  5
83B
  8
RULER
 10
18.20562462853135
 20
1.197660010044685
 30
0.0
  0
VERTEX
  5
83C
  8
RULER
 10
18.20747411003057
 20
1.202713174565394
 30
0.0
  0
VERTEX
  5
83D
  8
RULER
 10
18.20979014038972
 20
1.207520958385692
 30
0.0
  0
VERTEX
  5
83E
  8
RULER
 10
18.21254507358885
 20
1.21205571548564
 30
0.0
  0
VERTEX
  5
83F
  8
RULER
 10
18.21571126360802
 20
1.216289799845302
 30
0.0
  0
VERTEX
  5
840
  8
RULER
 10
18.21926106442729
 20
1.220195565444736
 30
0.0
  0
VERTEX
  5
841
  8
RULER
 10
18.22316683002672
 20
1.223745366264007
 30
0.0
  0
VERTEX
  5
842
  8
RULER
 10
18.22740091438638
 20
1.226911556283174
 30
0.0
  0
VERTEX
  5
843
  8
RULER
 10
18.23193567148633
 20
1.229666489482301
 30
0.0
  0
VERTEX
  5
844
  8
RULER
 10
18.23674345530663
 20
1.231982519841448
 30
0.0
  0
VERTEX
  5
845
  8
RULER
 10
18.24179661982734
 20
1.233832001340678
 30
0.0
  0
VERTEX
  5
846
  8
RULER
 10
18.24706751902852
 20
1.235187287960051
 30
0.0
  0
VERTEX
  5
847
  8
RULER
 10
18.25252850689024
 20
1.23602073367963
 30
0.0
  0
VERTEX
  5
848
  8
RULER
 10
18.25815193739255
 20
1.236304692479476
 30
0.0
  0
VERTEX
  5
849
  8
RULER
 10
18.26377536789486
 20
1.23602073367963
 30
0.0
  0
VERTEX
  5
84A
  8
RULER
 10
18.26923635575658
 20
1.235187287960051
 30
0.0
  0
VERTEX
  5
84B
  8
RULER
 10
18.27450725495776
 20
1.233832001340678
 30
0.0
  0
VERTEX
  5
84C
  8
RULER
 10
18.27956041947846
 20
1.231982519841448
 30
0.0
  0
VERTEX
  5
84D
  8
RULER
 10
18.28436820329877
 20
1.229666489482301
 30
0.0
  0
VERTEX
  5
84E
  8
RULER
 10
18.28890296039872
 20
1.226911556283174
 30
0.0
  0
VERTEX
  5
84F
  8
RULER
 10
18.29313704475837
 20
1.223745366264007
 30
0.0
  0
VERTEX
  5
850
  8
RULER
 10
18.29704281035781
 20
1.220195565444736
 30
0.0
  0
VERTEX
  5
851
  8
RULER
 10
18.30059261117708
 20
1.216289799845302
 30
0.0
  0
VERTEX
  5
852
  8
RULER
 10
18.30375880119625
 20
1.21205571548564
 30
0.0
  0
VERTEX
  5
853
  8
RULER
 10
18.30651373439537
 20
1.207520958385692
 30
0.0
  0
VERTEX
  5
854
  8
RULER
 10
18.30882976475452
 20
1.202713174565394
 30
0.0
  0
VERTEX
  5
855
  8
RULER
 10
18.31067924625375
 20
1.197660010044685
 30
0.0
  0
VERTEX
  5
856
  8
RULER
 10
18.31203453287312
 20
1.192389110843504
 30
0.0
  0
VERTEX
  5
857
  8
RULER
 10
18.3128679785927
 20
1.186928122981788
 30
0.0
  0
VERTEX
  5
858
  8
RULER
 10
18.31315193739255
 20
1.181304692479476
 30
0.0
  0
VERTEX
  5
859
  8
RULER
 10
18.3128679785927
 20
1.175681261977164
 30
0.0
  0
VERTEX
  5
85A
  8
RULER
 10
18.31203453287312
 20
1.170220274115449
 30
0.0
  0
VERTEX
  5
85B
  8
RULER
 10
18.31067924625375
 20
1.164949374914267
 30
0.0
  0
VERTEX
  5
85C
  8
RULER
 10
18.30882976475452
 20
1.159896210393558
 30
0.0
  0
VERTEX
  5
85D
  8
RULER
 10
18.30651373439537
 20
1.15508842657326
 30
0.0
  0
VERTEX
  5
85E
  8
RULER
 10
18.30375880119625
 20
1.150553669473312
 30
0.0
  0
VERTEX
  5
85F
  8
RULER
 10
18.30059261117708
 20
1.146319585113651
 30
0.0
  0
VERTEX
  5
860
  8
RULER
 10
18.29704281035781
 20
1.142413819514216
 30
0.0
  0
VERTEX
  5
861
  8
RULER
 10
18.29313704475837
 20
1.138864018694945
 30
0.0
  0
VERTEX
  5
862
  8
RULER
 10
18.28890296039872
 20
1.135697828675778
 30
0.0
  0
VERTEX
  5
863
  8
RULER
 10
18.28436820329877
 20
1.132942895476651
 30
0.0
  0
VERTEX
  5
864
  8
RULER
 10
18.27956041947846
 20
1.130626865117504
 30
0.0
  0
VERTEX
  5
865
  8
RULER
 10
18.27450725495776
 20
1.128777383618274
 30
0.0
  0
VERTEX
  5
866
  8
RULER
 10
18.26923635575658
 20
1.127422096998901
 30
0.0
  0
VERTEX
  5
867
  8
RULER
 10
18.26377536789486
 20
1.126588651279322
 30
0.0
  0
SEQEND
  5
E47
  8
RULER
  0
POLYLINE
  5
291
  8
RULER
 66
     1
 10
0.0
 20
0.0
 30
0.0
 70
     1
  0
VERTEX
  5
868
  8
RULER
 10
18.25815193739255
 20
1.126304692479476
 30
0.0
 42
-0.4142857142857143
  0
VERTEX
  5
869
  8
RULER
 10
18.32815193739255
 20
1.056304692479476
 30
0.0
  0
VERTEX
  5
86A
  8
RULER
 10
18.32815193739255
 20
1.051304692479476
 30
0.0
 42
-1.0
  0
VERTEX
  5
86B
  8
RULER
 10
18.18815193739255
 20
1.051304692479476
 30
0.0
  0
VERTEX
  5
86C
  8
RULER
 10
18.18815193739255
 20
1.056304692479476
 30
0.0
 42
-0.4142857142857144
  0
SEQEND
  5
E48
  8
RULER
  0
POLYLINE
  5
292
  8
RULER
 66
     1
 10
0.0
 20
0.0
 30
0.0
  0
VERTEX
  5
86D
  8
RULER
 10
19.07065193739255
 20
1.233804692479476
 30
0.0
  0
VERTEX
  5
86E
  8
RULER
 10
19.13815193739255
 20
1.233804692479476
 30
0.0
  0
VERTEX
  5
86F
  8
RULER
 10
19.13815193739255
 20
0.9838046924794761
 30
0.0
  0
SEQEND
  5
E49
  8
RULER
  0
POLYLINE
  5
293
  8
RULER
 66
     1
 10
0.0
 20
0.0
 30
0.0
  0
VERTEX
  5
870
  8
RULER
 10
19.26315193739255
 20
0.9838046924794761
 30
0.0
  0
VERTEX
  5
871
  8
RULER
 10
19.34565193739255
 20
1.108804692479476
 30
0.0
 42
0.1380051253523702
  0
VERTEX
  5
872
  8
RULER
 10
19.35815193739255
 20
1.151304692479476
 30
0.0
 42
1.0
  0
VERTEX
  5
873
  8
RULER
 10
19.18815193739255
 20
1.151304692479476
 30
0.0
 42
0.7699957824736615
  0
VERTEX
  5
874
  8
RULER
 10
19.34565193739255
 20
1.108804692479476
 30
0.0
  0
SEQEND
  5
E4A
  8
RULER
  0
POLYLINE
  5
294
  8
RULER
 66
     1
 10
0.0
 20
0.0
 30
0.0
  0
VERTEX
  5
875
  8
RULER
 10
20.07065193739255
 20
1.158804692479476
 30
0.0
 42
-0.4238676972146167
  0
VERTEX
  5
876
  8
RULER
 10
20.14565193739255
 20
1.236304692479476
 30
0.0
 42
-0.4139114804918755
  0
VERTEX
  5
877
  8
RULER
 10
20.22065193739255
 20
1.161304692479476
 30
0.0
 42
-0.1946370063820205
  0
VERTEX
  5
878
  8
RULER
 10
20.19815193739255
 20
1.108804692479476
 30
0.0
  0
VERTEX
  5
879
  8
RULER
 10
20.07315193739255
 20
0.9838046924794761
 30
0.0
  0
VERTEX
  5
87A
  8
RULER
 10
20.23315193739255
 20
0.9838046924794761
 30
0.0
  0
SEQEND
  5
E4B
  8
RULER
  0
POLYLINE
  5
295
  8
RULER
 66
     1
 10
0.0
 20
0.0
 30
0.0
 70
     1
  0
VERTEX
  5
87B
  8
RULER
 10
20.40815193739255
 20
0.9813046924794762
 30
0.0
  0
VERTEX
  5
87C
  8
RULER
 10
20.41065193739255
 20
0.9813046924794762
 30
0.0
 42
0.4133333333333333
  0
VERTEX
  5
87D
  8
RULER
 10
20.53565193739255
 20
1.106304692479476
 30
0.0
  0
VERTEX
  5
87E
  8
RULER
 10
20.53565193739255
 20
1.108804692479476
 30
0.0
 42
0.4133333333333333
  0
VERTEX
  5
87F
  8
RULER
 10
20.41065193739255
 20
1.233804692479476
 30
0.0
  0
VERTEX
  5
880
  8
RULER
 10
20.40815193739255
 20
1.233804692479476
 30
0.0
 42
0.4133333333333333
  0
VERTEX
  5
881
  8
RULER
 10
20.28315193739255
 20
1.108804692479476
 30
0.0
  0
VERTEX
  5
882
  8
RULER
 10
20.28315193739255
 20
1.106304692479476
 30
0.0
 42
0.4133333333333333
  0
SEQEND
  5
E4C
  8
RULER
  0
POLYLINE
  5
296
  8
RULER
 66
     1
 10
0.0
 20
0.0
 30
0.0
  0
VERTEX
  5
883
  8
RULER
 10
21.07065193739255
 20
1.158804692479476
 30
0.0
 42
-0.4238676972146167
  0
VERTEX
  5
884
  8
RULER
 10
21.14565193739255
 20
1.236304692479476
 30
0.0
 42
-0.4139114804918755
  0
VERTEX
  5
885
  8
RULER
 10
21.22065193739255
 20
1.161304692479476
 30
0.0
 42
-0.1946370063820205
  0
VERTEX
  5
886
  8
RULER
 10
21.19815193739255
 20
1.108804692479476
 30
0.0
  0
VERTEX
  5
887
  8
RULER
 10
21.07315193739255
 20
0.9838046924794761
 30
0.0
  0
VERTEX
  5
888
  8
RULER
 10
21.23315193739255
 20
0.9838046924794761
 30
0.0
  0
SEQEND
  5
E4D
  8
RULER
  0
POLYLINE
  5
297
  8
RULER
 66
     1
 10
0.0
 20
0.0
 30
0.0
  0
VERTEX
  5
889
  8
RULER
 10
21.28315193739255
 20
1.233804692479476
 30
0.0
  0
VERTEX
  5
88A
  8
RULER
 10
21.35065193739255
 20
1.233804692479476
 30
0.0
  0
VERTEX
  5
88B
  8
RULER
 10
21.35065193739255
 20
0.9838046924794761
 30
0.0
  0
SEQEND
  5
E4E
  8
RULER
  0
POLYLINE
  5
298
  8
RULER
 66
     1
 10
0.0
 20
0.0
 30
0.0
  0
VERTEX
  5
88C
  8
RULER
 10
22.07065193739255
 20
1.158804692479476
 30
0.0
 42
-0.4238676972146167
  0
VERTEX
  5
88D
  8
RULER
 10
22.14565193739255
 20
1.236304692479476
 30
0.0
 42
-0.4139114804918755
  0
VERTEX
  5
88E
  8
RULER
 10
22.22065193739255
 20
1.161304692479476
 30
0.0
 42
-0.1946370063820205
  0
VERTEX
  5
88F
  8
RULER
 10
22.19815193739255
 20
1.108804692479476
 30
0.0
  0
VERTEX
  5
890
  8
RULER
 10
22.07315193739255
 20
0.9838046924794761
 30
0.0
  0
VERTEX
  5
891
  8
RULER
 10
22.23315193739255
 20
0.9838046924794761
 30
0.0
  0
SEQEND
  5
E4F
  8
RULER
  0
POLYLINE
  5
299
  8
RULER
 66
     1
 10
0.0
 20
0.0
 30
0.0
  0
VERTEX
  5
892
  8
RULER
 10
22.28315193739255
 20
1.158804692479476
 30
0.0
 42
-0.4238676972146167
  0
VERTEX
  5
893
  8
RULER
 10
22.35815193739255
 20
1.236304692479476
 30
0.0
 42
-0.4139114804918755
  0
VERTEX
  5
894
  8
RULER
 10
22.43315193739255
 20
1.161304692479476
 30
0.0
 42
-0.1946370063820205
  0
VERTEX
  5
895
  8
RULER
 10
22.41065193739255
 20
1.108804692479476
 30
0.0
  0
VERTEX
  5
896
  8
RULER
 10
22.28565193739255
 20
0.9838046924794761
 30
0.0
  0
VERTEX
  5
897
  8
RULER
 10
22.44565193739255
 20
0.9838046924794761
 30
0.0
  0
SEQEND
  5
E50
  8
RULER
  0
POLYLINE
  5
29A
  8
RULER
 66
     1
 10
0.0
 20
0.0
 30
0.0
  0
VERTEX
  5
898
  8
RULER
 10
23.07065193739255
 20
1.158804692479476
 30
0.0
 42
-0.4238676972146167
  0
VERTEX
  5
899
  8
RULER
 10
23.14565193739255
 20
1.236304692479476
 30
0.0
 42
-0.4139114804918755
  0
VERTEX
  5
89A
  8
RULER
 10
23.22065193739255
 20
1.161304692479476
 30
0.0
 42
-0.1946370063820205
  0
VERTEX
  5
89B
  8
RULER
 10
23.19815193739255
 20
1.108804692479476
 30
0.0
  0
VERTEX
  5
89C
  8
RULER
 10
23.07315193739255
 20
0.9838046924794761
 30
0.0
  0
VERTEX
  5
89D
  8
RULER
 10
23.23315193739255
 20
0.9838046924794761
 30
0.0
  0
SEQEND
  5
E51
  8
RULER
  0
POLYLINE
  5
29B
  8
RULER
 66
     1
 10
0.0
 20
0.0
 30
0.0
  0
VERTEX
  5
89E
  8
RULER
 10
23.29548527072588
 20
1.173804692479476
 30
0.0
 42
-0.4548493327042687
  0
VERTEX
  5
89F
  8
RULER
 10
23.35048527072588
 20
1.236804692479476
 30
0.0
 42
-0.4114350750726344
  0
VERTEX
  5
8A0
  8
RULER
 10
23.40548527072588
 20
1.181304692479476
 30
0.0
  0
VERTEX
  5
8A1
  8
RULER
 10
23.40548527072588
 20
1.173804692479476
 30
0.0
 42
-0.4121212121212124
  0
VERTEX
  5
8A2
  8
RULER
 10
23.35048527072588
 20
1.118804692479476
 30
0.0
  0
VERTEX
  5
8A3
  8
RULER
 10
23.33798527072588
 20
1.118804692479476
 30
0.0
  0
VERTEX
  5
8A4
  8
RULER
 10
23.35298527072588
 20
1.118804692479476
 30
0.0
 42
-0.4142857142857143
  0
VERTEX
  5
8A5
  8
RULER
 10
23.42298527072588
 20
1.048804692479476
 30
0.0
 42
-0.9462693881493045
  0
VERTEX
  5
8A6
  8
RULER
 10
23.28298527072588
 20
1.046304692479476
 30
0.0
  0
SEQEND
  5
E52
  8
RULER
  0
POLYLINE
  5
29C
  8
RULER
 66
     1
 10
0.0
 20
0.0
 30
0.0
  0
VERTEX
  5
8A7
  8
RULER
 10
24.07065193739255
 20
1.158804692479476
 30
0.0
 42
-0.4238676972146167
  0
VERTEX
  5
8A8
  8
RULER
 10
24.14565193739255
 20
1.236304692479476
 30
0.0
 42
-0.4139114804918755
  0
VERTEX
  5
8A9
  8
RULER
 10
24.22065193739255
 20
1.161304692479476
 30
0.0
 42
-0.1946370063820205
  0
VERTEX
  5
8AA
  8
RULER
 10
24.19815193739255
 20
1.108804692479476
 30
0.0
  0
VERTEX
  5
8AB
  8
RULER
 10
24.07315193739255
 20
0.9838046924794761
 30
0.0
  0
VERTEX
  5
8AC
  8
RULER
 10
24.23315193739255
 20
0.9838046924794761
 30
0.0
  0
SEQEND
  5
E53
  8
RULER
  0
POLYLINE
  5
29D
  8
RULER
 66
     1
 10
0.0
 20
0.0
 30
0.0
  0
VERTEX
  5
8AD
  8
RULER
 10
24.46065193739255
 20
1.028804692479476
 30
0.0
  0
VERTEX
  5
8AE
  8
RULER
 10
24.28315193739255
 20
1.028804692479476
 30
0.0
  0
VERTEX
  5
8AF
  8
RULER
 10
24.42315193739255
 20
1.233804692479476
 30
0.0
  0
VERTEX
  5
8B0
  8
RULER
 10
24.42315193739255
 20
0.9838046924794761
 30
0.0
  0
SEQEND
  5
E54
  8
RULER
  0
POLYLINE
  5
29E
  8
RULER
 66
     1
 10
0.0
 20
0.0
 30
0.0
  0
VERTEX
  5
8B1
  8
RULER
 10
25.07065193739255
 20
1.158804692479476
 30
0.0
 42
-0.4238676972146167
  0
VERTEX
  5
8B2
  8
RULER
 10
25.14565193739255
 20
1.236304692479476
 30
0.0
 42
-0.4139114804918755
  0
VERTEX
  5
8B3
  8
RULER
 10
25.22065193739255
 20
1.161304692479476
 30
0.0
 42
-0.1946370063820205
  0
VERTEX
  5
8B4
  8
RULER
 10
25.19815193739255
 20
1.108804692479476
 30
0.0
  0
VERTEX
  5
8B5
  8
RULER
 10
25.07315193739255
 20
0.9838046924794761
 30
0.0
  0
VERTEX
  5
8B6
  8
RULER
 10
25.23315193739255
 20
0.9838046924794761
 30
0.0
  0
SEQEND
  5
E55
  8
RULER
  0
POLYLINE
  5
29F
  8
RULER
 66
     1
 10
0.0
 20
0.0
 30
0.0
  0
VERTEX
  5
8B7
  8
RULER
 10
25.26815193739255
 20
1.061304692479476
 30
0.0
 42
0.8576084699939476
  0
VERTEX
  5
8B8
  8
RULER
 10
25.43531860405922
 20
1.043804692479476
 30
0.0
 42
0.8394311096568591
  0
VERTEX
  5
8B9
  8
RULER
 10
25.28315193739255
 20
1.113804692479476
 30
0.0
  0
VERTEX
  5
8BA
  8
RULER
 10
25.30315193739255
 20
1.233804692479476
 30
0.0
  0
VERTEX
  5
8BB
  8
RULER
 10
25.42065193739255
 20
1.233804692479476
 30
0.0
  0
SEQEND
  5
E56
  8
RULER
  0
POLYLINE
  5
2A0
  8
RULER
 66
     1
 10
0.0
 20
0.0
 30
0.0
  0
VERTEX
  5
8BC
  8
RULER
 10
26.07065193739255
 20
1.158804692479476
 30
0.0
 42
-0.4238676972146167
  0
VERTEX
  5
8BD
  8
RULER
 10
26.14565193739255
 20
1.236304692479476
 30
0.0
 42
-0.4139114804918755
  0
VERTEX
  5
8BE
  8
RULER
 10
26.22065193739255
 20
1.161304692479476
 30
0.0
 42
-0.1946370063820205
  0
VERTEX
  5
8BF
  8
RULER
 10
26.19815193739255
 20
1.108804692479476
 30
0.0
  0
VERTEX
  5
8C0
  8
RULER
 10
26.07315193739255
 20
0.9838046924794761
 30
0.0
  0
VERTEX
  5
8C1
  8
RULER
 10
26.23315193739255
 20
0.9838046924794761
 30
0.0
  0
SEQEND
  5
E57
  8
RULER
  0
POLYLINE
  5
2A1
  8
RULER
 66
     1
 10
0.0
 20
0.0
 30
0.0
 70
     1
  0
VERTEX
  5
8C2
  8
RULER
 10
26.36815193739255
 20
0.9813046924794762
 30
0.0
  0
VERTEX
  5
8C3
  8
RULER
 10
26.3768426936234
 20
0.9817435378974197
 30
0.0
  0
VERTEX
  5
8C4
  8
RULER
 10
26.38528240213695
 20
0.9830315903731324
 30
0.0
  0
VERTEX
  5
8C5
  8
RULER
 10
26.39342833726605
 20
0.9851261242394367
 30
0.0
  0
VERTEX
  5
8C6
  8
RULER
 10
26.40123777334351
 20
0.9879844138291549
 30
0.0
  0
VERTEX
  5
8C7
  8
RULER
 10
26.40866798470215
 20
0.99156373347511
 30
0.0
  0
VERTEX
  5
8C8
  8
RULER
 10
26.4156762456748
 20
0.9958213575101238
 30
0.0
  0
VERTEX
  5
8C9
  8
RULER
 10
26.42221983059428
 20
1.00071456026702
 30
0.0
  0
VERTEX
  5
8CA
  8
RULER
 10
26.4282560137934
 20
1.006200616078619
 30
0.0
  0
VERTEX
  5
8CB
  8
RULER
 10
26.433742069605
 20
1.012236799277746
 30
0.0
  0
VERTEX
  5
8CC
  8
RULER
 10
26.4386352723619
 20
1.018780384197222
 30
0.0
  0
VERTEX
  5
8CD
  8
RULER
 10
26.44289289639691
 20
1.02578864516987
 30
0.0
  0
VERTEX
  5
8CE
  8
RULER
 10
26.44647221604287
 20
1.033218856528512
 30
0.0
  0
VERTEX
  5
8CF
  8
RULER
 10
26.44933050563258
 20
1.041028292605971
 30
0.0
  0
VERTEX
  5
8D0
  8
RULER
 10
26.45142503949889
 20
1.04917422773507
 30
0.0
  0
VERTEX
  5
8D1
  8
RULER
 10
26.4527130919746
 20
1.057613936248631
 30
0.0
  0
VERTEX
  5
8D2
  8
RULER
 10
26.45315193739255
 20
1.066304692479476
 30
0.0
  0
VERTEX
  5
8D3
  8
RULER
 10
26.4527130919746
 20
1.074995448710322
 30
0.0
  0
VERTEX
  5
8D4
  8
RULER
 10
26.45142503949889
 20
1.083435157223882
 30
0.0
  0
VERTEX
  5
8D5
  8
RULER
 10
26.44933050563258
 20
1.091581092352981
 30
0.0
  0
VERTEX
  5
8D6
  8
RULER
 10
26.44647221604287
 20
1.09939052843044
 30
0.0
  0
VERTEX
  5
8D7
  8
RULER
 10
26.44289289639691
 20
1.106820739789082
 30
0.0
  0
VERTEX
  5
8D8
  8
RULER
 10
26.4386352723619
 20
1.11382900076173
 30
0.0
  0
VERTEX
  5
8D9
  8
RULER
 10
26.433742069605
 20
1.120372585681206
 30
0.0
  0
VERTEX
  5
8DA
  8
RULER
 10
26.4282560137934
 20
1.126408768880333
 30
0.0
  0
VERTEX
  5
8DB
  8
RULER
 10
26.42221983059428
 20
1.131894824691933
 30
0.0
  0
VERTEX
  5
8DC
  8
RULER
 10
26.4156762456748
 20
1.136788027448828
 30
0.0
  0
VERTEX
  5
8DD
  8
RULER
 10
26.40866798470215
 20
1.141045651483843
 30
0.0
  0
VERTEX
  5
8DE
  8
RULER
 10
26.40123777334351
 20
1.144624971129797
 30
0.0
  0
VERTEX
  5
8DF
  8
RULER
 10
26.39342833726605
 20
1.147483260719516
 30
0.0
  0
VERTEX
  5
8E0
  8
RULER
 10
26.38528240213695
 20
1.14957779458582
 30
0.0
  0
VERTEX
  5
8E1
  8
RULER
 10
26.3768426936234
 20
1.150865847061532
 30
0.0
  0
VERTEX
  5
8E2
  8
RULER
 10
26.36815193739255
 20
1.151304692479476
 30
0.0
  0
VERTEX
  5
8E3
  8
RULER
 10
26.3594611811617
 20
1.150865847061532
 30
0.0
  0
VERTEX
  5
8E4
  8
RULER
 10
26.35102147264814
 20
1.14957779458582
 30
0.0
  0
VERTEX
  5
8E5
  8
RULER
 10
26.34287553751904
 20
1.147483260719516
 30
0.0
  0
VERTEX
  5
8E6
  8
RULER
 10
26.33506610144158
 20
1.144624971129797
 30
0.0
  0
VERTEX
  5
8E7
  8
RULER
 10
26.32763589008294
 20
1.141045651483843
 30
0.0
  0
VERTEX
  5
8E8
  8
RULER
 10
26.32062762911029
 20
1.136788027448828
 30
0.0
  0
VERTEX
  5
8E9
  8
RULER
 10
26.31408404419081
 20
1.131894824691933
 30
0.0
  0
VERTEX
  5
8EA
  8
RULER
 10
26.30804786099169
 20
1.126408768880333
 30
0.0
  0
VERTEX
  5
8EB
  8
RULER
 10
26.30256180518009
 20
1.120372585681206
 30
0.0
  0
VERTEX
  5
8EC
  8
RULER
 10
26.29766860242319
 20
1.11382900076173
 30
0.0
  0
VERTEX
  5
8ED
  8
RULER
 10
26.29341097838818
 20
1.106820739789082
 30
0.0
  0
VERTEX
  5
8EE
  8
RULER
 10
26.28983165874223
 20
1.09939052843044
 30
0.0
  0
VERTEX
  5
8EF
  8
RULER
 10
26.28697336915251
 20
1.091581092352981
 30
0.0
  0
VERTEX
  5
8F0
  8
RULER
 10
26.2848788352862
 20
1.083435157223882
 30
0.0
  0
VERTEX
  5
8F1
  8
RULER
 10
26.28359078281049
 20
1.074995448710322
 30
0.0
  0
VERTEX
  5
8F2
  8
RULER
 10
26.28315193739255
 20
1.066304692479476
 30
0.0
  0
VERTEX
  5
8F3
  8
RULER
 10
26.28359078281049
 20
1.057613936248631
 30
0.0
  0
VERTEX
  5
8F4
  8
RULER
 10
26.2848788352862
 20
1.04917422773507
 30
0.0
  0
VERTEX
  5
8F5
  8
RULER
 10
26.28697336915251
 20
1.041028292605971
 30
0.0
  0
VERTEX
  5
8F6
  8
RULER
 10
26.28983165874223
 20
1.033218856528512
 30
0.0
  0
VERTEX
  5
8F7
  8
RULER
 10
26.29341097838818
 20
1.02578864516987
 30
0.0
  0
VERTEX
  5
8F8
  8
RULER
 10
26.29766860242319
 20
1.018780384197222
 30
0.0
  0
VERTEX
  5
8F9
  8
RULER
 10
26.30256180518009
 20
1.012236799277746
 30
0.0
  0
VERTEX
  5
8FA
  8
RULER
 10
26.30804786099169
 20
1.006200616078619
 30
0.0
  0
VERTEX
  5
8FB
  8
RULER
 10
26.31408404419081
 20
1.00071456026702
 30
0.0
  0
VERTEX
  5
8FC
  8
RULER
 10
26.32062762911029
 20
0.9958213575101238
 30
0.0
  0
VERTEX
  5
8FD
  8
RULER
 10
26.32763589008294
 20
0.99156373347511
 30
0.0
  0
VERTEX
  5
8FE
  8
RULER
 10
26.33506610144158
 20
0.9879844138291549
 30
0.0
  0
VERTEX
  5
8FF
  8
RULER
 10
26.34287553751904
 20
0.9851261242394367
 30
0.0
  0
VERTEX
  5
900
  8
RULER
 10
26.35102147264814
 20
0.9830315903731324
 30
0.0
  0
VERTEX
  5
901
  8
RULER
 10
26.3594611811617
 20
0.9817435378974197
 30
0.0
  0
SEQEND
  5
E58
  8
RULER
  0
POLYLINE
  5
2A2
  8
RULER
 66
     1
 10
0.0
 20
0.0
 30
0.0
  0
VERTEX
  5
902
  8
RULER
 10
26.36815193739255
 20
0.9813046924794762
 30
0.0
 42
-0.5862971619980313
  0
VERTEX
  5
903
  8
RULER
 10
26.29565193739255
 20
1.111304692479476
 30
0.0
  0
VERTEX
  5
904
  8
RULER
 10
26.37815193739254
 20
1.236304692479476
 30
0.0
  0
SEQEND
  5
E59
  8
RULER
  0
POLYLINE
  5
2A3
  8
RULER
 66
     1
 10
0.0
 20
0.0
 30
0.0
  0
VERTEX
  5
905
  8
RULER
 10
27.07065193739255
 20
1.158804692479476
 30
0.0
 42
-0.4238676972146167
  0
VERTEX
  5
906
  8
RULER
 10
27.14565193739255
 20
1.236304692479476
 30
0.0
 42
-0.4139114804918755
  0
VERTEX
  5
907
  8
RULER
 10
27.22065193739255
 20
1.161304692479476
 30
0.0
 42
-0.1946370063820205
  0
VERTEX
  5
908
  8
RULER
 10
27.19815193739255
 20
1.108804692479476
 30
0.0
  0
VERTEX
  5
909
  8
RULER
 10
27.07315193739255
 20
0.9838046924794761
 30
0.0
  0
VERTEX
  5
90A
  8
RULER
 10
27.23315193739255
 20
0.9838046924794761
 30
0.0
  0
SEQEND
  5
E5A
  8
RULER
  0
POLYLINE
  5
2A4
  8
RULER
 66
     1
 10
0.0
 20
0.0
 30
0.0
  0
VERTEX
  5
90B
  8
RULER
 10
27.28315193739255
 20
1.233804692479476
 30
0.0
  0
VERTEX
  5
90C
  8
RULER
 10
27.42315193739255
 20
1.233804692479476
 30
0.0
  0
VERTEX
  5
90D
  8
RULER
 10
27.31315193739255
 20
0.9838046924794761
 30
0.0
  0
SEQEND
  5
E5B
  8
RULER
  0
POLYLINE
  5
2A5
  8
RULER
 66
     1
 10
0.0
 20
0.0
 30
0.0
  0
VERTEX
  5
90E
  8
RULER
 10
28.07065193739255
 20
1.158804692479476
 30
0.0
 42
-0.4238676972146167
  0
VERTEX
  5
90F
  8
RULER
 10
28.14565193739255
 20
1.236304692479476
 30
0.0
 42
-0.4139114804918755
  0
VERTEX
  5
910
  8
RULER
 10
28.22065193739255
 20
1.161304692479476
 30
0.0
 42
-0.1946370063820205
  0
VERTEX
  5
911
  8
RULER
 10
28.19815193739255
 20
1.108804692479476
 30
0.0
  0
VERTEX
  5
912
  8
RULER
 10
28.07315193739255
 20
0.9838046924794761
 30
0.0
  0
VERTEX
  5
913
  8
RULER
 10
28.23315193739255
 20
0.9838046924794761
 30
0.0
  0
SEQEND
  5
E5C
  8
RULER
  0
POLYLINE
  5
2A6
  8
RULER
 66
     1
 10
0.0
 20
0.0
 30
0.0
 70
     1
  0
VERTEX
  5
914
  8
RULER
 10
28.35315193739255
 20
1.126304692479476
 30
0.0
  0
VERTEX
  5
915
  8
RULER
 10
28.34752850689024
 20
1.126588651279322
 30
0.0
  0
VERTEX
  5
916
  8
RULER
 10
28.34206751902852
 20
1.127422096998901
 30
0.0
  0
VERTEX
  5
917
  8
RULER
 10
28.33679661982734
 20
1.128777383618274
 30
0.0
  0
VERTEX
  5
918
  8
RULER
 10
28.33174345530663
 20
1.130626865117504
 30
0.0
  0
VERTEX
  5
919
  8
RULER
 10
28.32693567148633
 20
1.132942895476651
 30
0.0
  0
VERTEX
  5
91A
  8
RULER
 10
28.32240091438638
 20
1.135697828675778
 30
0.0
  0
VERTEX
  5
91B
  8
RULER
 10
28.31816683002672
 20
1.138864018694945
 30
0.0
  0
VERTEX
  5
91C
  8
RULER
 10
28.31426106442728
 20
1.142413819514216
 30
0.0
  0
VERTEX
  5
91D
  8
RULER
 10
28.31071126360802
 20
1.146319585113651
 30
0.0
  0
VERTEX
  5
91E
  8
RULER
 10
28.30754507358885
 20
1.150553669473312
 30
0.0
  0
VERTEX
  5
91F
  8
RULER
 10
28.30479014038972
 20
1.15508842657326
 30
0.0
  0
VERTEX
  5
920
  8
RULER
 10
28.30247411003057
 20
1.159896210393558
 30
0.0
  0
VERTEX
  5
921
  8
RULER
 10
28.30062462853135
 20
1.164949374914267
 30
0.0
  0
VERTEX
  5
922
  8
RULER
 10
28.29926934191197
 20
1.170220274115449
 30
0.0
  0
VERTEX
  5
923
  8
RULER
 10
28.29843589619239
 20
1.175681261977164
 30
0.0
  0
VERTEX
  5
924
  8
RULER
 10
28.29815193739255
 20
1.181304692479476
 30
0.0
  0
VERTEX
  5
925
  8
RULER
 10
28.29843589619239
 20
1.186928122981788
 30
0.0
  0
VERTEX
  5
926
  8
RULER
 10
28.29926934191197
 20
1.192389110843504
 30
0.0
  0
VERTEX
  5
927
  8
RULER
 10
28.30062462853135
 20
1.197660010044685
 30
0.0
  0
VERTEX
  5
928
  8
RULER
 10
28.30247411003057
 20
1.202713174565394
 30
0.0
  0
VERTEX
  5
929
  8
RULER
 10
28.30479014038972
 20
1.207520958385692
 30
0.0
  0
VERTEX
  5
92A
  8
RULER
 10
28.30754507358885
 20
1.21205571548564
 30
0.0
  0
VERTEX
  5
92B
  8
RULER
 10
28.31071126360802
 20
1.216289799845302
 30
0.0
  0
VERTEX
  5
92C
  8
RULER
 10
28.31426106442728
 20
1.220195565444736
 30
0.0
  0
VERTEX
  5
92D
  8
RULER
 10
28.31816683002672
 20
1.223745366264007
 30
0.0
  0
VERTEX
  5
92E
  8
RULER
 10
28.32240091438638
 20
1.226911556283174
 30
0.0
  0
VERTEX
  5
92F
  8
RULER
 10
28.32693567148633
 20
1.229666489482301
 30
0.0
  0
VERTEX
  5
930
  8
RULER
 10
28.33174345530663
 20
1.231982519841448
 30
0.0
  0
VERTEX
  5
931
  8
RULER
 10
28.33679661982734
 20
1.233832001340678
 30
0.0
  0
VERTEX
  5
932
  8
RULER
 10
28.34206751902852
 20
1.235187287960051
 30
0.0
  0
VERTEX
  5
933
  8
RULER
 10
28.34752850689024
 20
1.23602073367963
 30
0.0
  0
VERTEX
  5
934
  8
RULER
 10
28.35315193739255
 20
1.236304692479476
 30
0.0
  0
VERTEX
  5
935
  8
RULER
 10
28.35877536789486
 20
1.23602073367963
 30
0.0
  0
VERTEX
  5
936
  8
RULER
 10
28.36423635575657
 20
1.235187287960051
 30
0.0
  0
VERTEX
  5
937
  8
RULER
 10
28.36950725495776
 20
1.233832001340678
 30
0.0
  0
VERTEX
  5
938
  8
RULER
 10
28.37456041947846
 20
1.231982519841448
 30
0.0
  0
VERTEX
  5
939
  8
RULER
 10
28.37936820329876
 20
1.229666489482301
 30
0.0
  0
VERTEX
  5
93A
  8
RULER
 10
28.38390296039871
 20
1.226911556283174
 30
0.0
  0
VERTEX
  5
93B
  8
RULER
 10
28.38813704475837
 20
1.223745366264007
 30
0.0
  0
VERTEX
  5
93C
  8
RULER
 10
28.39204281035781
 20
1.220195565444736
 30
0.0
  0
VERTEX
  5
93D
  8
RULER
 10
28.39559261117708
 20
1.216289799845302
 30
0.0
  0
VERTEX
  5
93E
  8
RULER
 10
28.39875880119624
 20
1.21205571548564
 30
0.0
  0
VERTEX
  5
93F
  8
RULER
 10
28.40151373439537
 20
1.207520958385692
 30
0.0
  0
VERTEX
  5
940
  8
RULER
 10
28.40382976475452
 20
1.202713174565394
 30
0.0
  0
VERTEX
  5
941
  8
RULER
 10
28.40567924625375
 20
1.197660010044685
 30
0.0
  0
VERTEX
  5
942
  8
RULER
 10
28.40703453287312
 20
1.192389110843504
 30
0.0
  0
VERTEX
  5
943
  8
RULER
 10
28.4078679785927
 20
1.186928122981788
 30
0.0
  0
VERTEX
  5
944
  8
RULER
 10
28.40815193739255
 20
1.181304692479476
 30
0.0
  0
VERTEX
  5
945
  8
RULER
 10
28.4078679785927
 20
1.175681261977164
 30
0.0
  0
VERTEX
  5
946
  8
RULER
 10
28.40703453287312
 20
1.170220274115449
 30
0.0
  0
VERTEX
  5
947
  8
RULER
 10
28.40567924625375
 20
1.164949374914267
 30
0.0
  0
VERTEX
  5
948
  8
RULER
 10
28.40382976475452
 20
1.159896210393558
 30
0.0
  0
VERTEX
  5
949
  8
RULER
 10
28.40151373439537
 20
1.15508842657326
 30
0.0
  0
VERTEX
  5
94A
  8
RULER
 10
28.39875880119624
 20
1.150553669473312
 30
0.0
  0
VERTEX
  5
94B
  8
RULER
 10
28.39559261117708
 20
1.146319585113651
 30
0.0
  0
VERTEX
  5
94C
  8
RULER
 10
28.39204281035781
 20
1.142413819514216
 30
0.0
  0
VERTEX
  5
94D
  8
RULER
 10
28.38813704475837
 20
1.138864018694945
 30
0.0
  0
VERTEX
  5
94E
  8
RULER
 10
28.38390296039871
 20
1.135697828675778
 30
0.0
  0
VERTEX
  5
94F
  8
RULER
 10
28.37936820329876
 20
1.132942895476651
 30
0.0
  0
VERTEX
  5
950
  8
RULER
 10
28.37456041947846
 20
1.130626865117504
 30
0.0
  0
VERTEX
  5
951
  8
RULER
 10
28.36950725495776
 20
1.128777383618274
 30
0.0
  0
VERTEX
  5
952
  8
RULER
 10
28.36423635575657
 20
1.127422096998901
 30
0.0
  0
VERTEX
  5
953
  8
RULER
 10
28.35877536789486
 20
1.126588651279322
 30
0.0
  0
SEQEND
  5
E5D
  8
RULER
  0
POLYLINE
  5
2A7
  8
RULER
 66
     1
 10
0.0
 20
0.0
 30
0.0
 70
     1
  0
VERTEX
  5
954
  8
RULER
 10
28.35315193739255
 20
1.126304692479476
 30
0.0
 42
-0.4142857142857143
  0
VERTEX
  5
955
  8
RULER
 10
28.42315193739255
 20
1.056304692479476
 30
0.0
  0
VERTEX
  5
956
  8
RULER
 10
28.42315193739255
 20
1.051304692479476
 30
0.0
 42
-1.0
  0
VERTEX
  5
957
  8
RULER
 10
28.28315193739255
 20
1.051304692479476
 30
0.0
  0
VERTEX
  5
958
  8
RULER
 10
28.28315193739255
 20
1.056304692479476
 30
0.0
 42
-0.4142857142857144
  0
SEQEND
  5
E5E
  8
RULER
  0
POLYLINE
  5
2A8
  8
RULER
 66
     1
 10
0.0
 20
0.0
 30
0.0
  0
VERTEX
  5
959
  8
RULER
 10
29.07065193739255
 20
1.158804692479476
 30
0.0
 42
-0.4238676972146167
  0
VERTEX
  5
95A
  8
RULER
 10
29.14565193739255
 20
1.236304692479476
 30
0.0
 42
-0.4139114804918755
  0
VERTEX
  5
95B
  8
RULER
 10
29.22065193739255
 20
1.161304692479476
 30
0.0
 42
-0.1946370063820205
  0
VERTEX
  5
95C
  8
RULER
 10
29.19815193739255
 20
1.108804692479476
 30
0.0
  0
VERTEX
  5
95D
  8
RULER
 10
29.07315193739255
 20
0.9838046924794761
 30
0.0
  0
VERTEX
  5
95E
  8
RULER
 10
29.23315193739255
 20
0.9838046924794761
 30
0.0
  0
SEQEND
  5
E5F
  8
RULER
  0
POLYLINE
  5
2A9
  8
RULER
 66
     1
 10
0.0
 20
0.0
 30
0.0
  0
VERTEX
  5
95F
  8
RULER
 10
29.35815193739255
 20
0.9838046924794761
 30
0.0
  0
VERTEX
  5
960
  8
RULER
 10
29.44065193739255
 20
1.108804692479476
 30
0.0
 42
0.1380051253523702
  0
VERTEX
  5
961
  8
RULER
 10
29.45315193739255
 20
1.151304692479476
 30
0.0
 42
1.0
  0
VERTEX
  5
962
  8
RULER
 10
29.28315193739255
 20
1.151304692479476
 30
0.0
 42
0.7699957824736615
  0
VERTEX
  5
963
  8
RULER
 10
29.44065193739255
 20
1.108804692479476
 30
0.0
  0
SEQEND
  5
E60
  8
RULER
  0
POLYLINE
  5
2AA
  8
RULER
 66
     1
 10
0.0
 20
0.0
 30
0.0
  0
VERTEX
  5
964
  8
RULER
 10
30.08315193739255
 20
1.173804692479476
 30
0.0
 42
-0.4548493327042687
  0
VERTEX
  5
965
  8
RULER
 10
30.13815193739255
 20
1.236804692479476
 30
0.0
 42
-0.4114350750726344
  0
VERTEX
  5
966
  8
RULER
 10
30.19315193739255
 20
1.181304692479476
 30
0.0
  0
VERTEX
  5
967
  8
RULER
 10
30.19315193739255
 20
1.173804692479476
 30
0.0
 42
-0.4121212121212124
  0
VERTEX
  5
968
  8
RULER
 10
30.13815193739255
 20
1.118804692479476
 30
0.0
  0
VERTEX
  5
969
  8
RULER
 10
30.12565193739255
 20
1.118804692479476
 30
0.0
  0
VERTEX
  5
96A
  8
RULER
 10
30.14065193739255
 20
1.118804692479476
 30
0.0
 42
-0.4142857142857143
  0
VERTEX
  5
96B
  8
RULER
 10
30.21065193739255
 20
1.048804692479476
 30
0.0
 42
-0.9462693881493045
  0
VERTEX
  5
96C
  8
RULER
 10
30.07065193739255
 20
1.046304692479476
 30
0.0
  0
SEQEND
  5
E61
  8
RULER
  0
POLYLINE
  5
2AB
  8
RULER
 66
     1
 10
0.0
 20
0.0
 30
0.0
 70
     1
  0
VERTEX
  5
96D
  8
RULER
 10
30.38565193739255
 20
0.9813046924794762
 30
0.0
  0
VERTEX
  5
96E
  8
RULER
 10
30.38815193739255
 20
0.9813046924794762
 30
0.0
 42
0.4133333333333333
  0
VERTEX
  5
96F
  8
RULER
 10
30.51315193739255
 20
1.106304692479476
 30
0.0
  0
VERTEX
  5
970
  8
RULER
 10
30.51315193739255
 20
1.108804692479476
 30
0.0
 42
0.4133333333333333
  0
VERTEX
  5
971
  8
RULER
 10
30.38815193739255
 20
1.233804692479476
 30
0.0
  0
VERTEX
  5
972
  8
RULER
 10
30.38565193739255
 20
1.233804692479476
 30
0.0
 42
0.4133333333333333
  0
VERTEX
  5
973
  8
RULER
 10
30.26065193739255
 20
1.108804692479476
 30
0.0
  0
VERTEX
  5
974
  8
RULER
 10
30.26065193739255
 20
1.106304692479476
 30
0.0
 42
0.4133333333333333
  0
SEQEND
  5
E62
  8
RULER
  0
POLYLINE
  5
2AC
  8
RULER
 66
     1
 10
0.0
 20
0.0
 30
0.0
  0
VERTEX
  5
975
  8
RULER
 10
31.08315193739255
 20
1.173804692479476
 30
0.0
 42
-0.4548493327042687
  0
VERTEX
  5
976
  8
RULER
 10
31.13815193739255
 20
1.236804692479476
 30
0.0
 42
-0.4114350750726344
  0
VERTEX
  5
977
  8
RULER
 10
31.19315193739255
 20
1.181304692479476
 30
0.0
  0
VERTEX
  5
978
  8
RULER
 10
31.19315193739255
 20
1.173804692479476
 30
0.0
 42
-0.4121212121212124
  0
VERTEX
  5
979
  8
RULER
 10
31.13815193739255
 20
1.118804692479476
 30
0.0
  0
VERTEX
  5
97A
  8
RULER
 10
31.12565193739255
 20
1.118804692479476
 30
0.0
  0
VERTEX
  5
97B
  8
RULER
 10
31.14065193739255
 20
1.118804692479476
 30
0.0
 42
-0.4142857142857143
  0
VERTEX
  5
97C
  8
RULER
 10
31.21065193739255
 20
1.048804692479476
 30
0.0
 42
-0.9462693881493045
  0
VERTEX
  5
97D
  8
RULER
 10
31.07065193739255
 20
1.046304692479476
 30
0.0
  0
SEQEND
  5
E63
  8
RULER
  0
POLYLINE
  5
2AD
  8
RULER
 66
     1
 10
0.0
 20
0.0
 30
0.0
  0
VERTEX
  5
97E
  8
RULER
 10
31.26065193739255
 20
1.233804692479476
 30
0.0
  0
VERTEX
  5
97F
  8
RULER
 10
31.32815193739255
 20
1.233804692479476
 30
0.0
  0
VERTEX
  5
980
  8
RULER
 10
31.32815193739255
 20
0.9838046924794761
 30
0.0
  0
SEQEND
  5
E64
  8
RULER
  0
POLYLINE
  5
2AE
  8
RULER
 66
     1
 10
0.0
 20
0.0
 30
0.0
  0
VERTEX
  5
981
  8
RULER
 10
31.65426436847135
 20
1.17541375537741
 30
0.0
 42
-0.4548493327042687
  0
VERTEX
  5
982
  8
RULER
 10
31.70926436847135
 20
1.23841375537741
 30
0.0
 42
-0.4114350750726344
  0
VERTEX
  5
983
  8
RULER
 10
31.76426436847134
 20
1.18291375537741
 30
0.0
  0
VERTEX
  5
984
  8
RULER
 10
31.76426436847134
 20
1.17541375537741
 30
0.0
 42
-0.4121212121212124
  0
VERTEX
  5
985
  8
RULER
 10
31.70926436847135
 20
1.12041375537741
 30
0.0
  0
VERTEX
  5
986
  8
RULER
 10
31.69676436847135
 20
1.12041375537741
 30
0.0
  0
VERTEX
  5
987
  8
RULER
 10
31.71176436847135
 20
1.12041375537741
 30
0.0
 42
-0.4142857142857143
  0
VERTEX
  5
988
  8
RULER
 10
31.78176436847135
 20
1.05041375537741
 30
0.0
 42
-0.9462693881493045
  0
VERTEX
  5
989
  8
RULER
 10
31.64176436847135
 20
1.04791375537741
 30
0.0
  0
SEQEND
  5
E65
  8
RULER
  0
POLYLINE
  5
2AF
  8
RULER
 66
     1
 10
0.0
 20
0.0
 30
0.0
  0
VERTEX
  5
98A
  8
RULER
 10
31.83176436847134
 20
1.16041375537741
 30
0.0
 42
-0.4238676972146167
  0
VERTEX
  5
98B
  8
RULER
 10
31.90676436847134
 20
1.23791375537741
 30
0.0
 42
-0.4139114804918755
  0
VERTEX
  5
98C
  8
RULER
 10
31.98176436847135
 20
1.16291375537741
 30
0.0
 42
-0.1946370063820205
  0
VERTEX
  5
98D
  8
RULER
 10
31.95926436847135
 20
1.11041375537741
 30
0.0
  0
VERTEX
  5
98E
  8
RULER
 10
31.83426436847135
 20
0.9854137553774103
 30
0.0
  0
VERTEX
  5
98F
  8
RULER
 10
31.99426436847135
 20
0.9854137553774103
 30
0.0
  0
SEQEND
  5
E66
  8
RULER
  0
POLYLINE
  5
2B0
  8
RULER
 66
     1
 10
0.0
 20
0.0
 30
0.0
  0
VERTEX
  5
990
  8
RULER
 10
1.070651937392548
 20
1.233804692479476
 30
0.0
  0
VERTEX
  5
991
  8
RULER
 10
1.138151937392548
 20
1.233804692479476
 30
0.0
  0
VERTEX
  5
992
  8
RULER
 10
1.138151937392548
 20
0.9838046924794761
 30
0.0
  0
SEQEND
  5
E67
  8
RULER
  0
POLYLINE
  5
2B1
  8
RULER
 66
     1
 10
0.0
 20
0.0
 30
0.0
  0
VERTEX
  5
993
  8
RULER
 10
1.493111967391951
 20
2.243296698479353
 30
0.0
 42
-0.4238676972146167
  0
VERTEX
  5
994
  8
RULER
 10
1.568111967391951
 20
2.320796698479353
 30
0.0
 42
-0.4139114804918755
  0
VERTEX
  5
995
  8
RULER
 10
1.643111967391951
 20
2.245796698479353
 30
0.0
 42
-0.1946370063820205
  0
VERTEX
  5
996
  8
RULER
 10
1.620611967391951
 20
2.193296698479353
 30
0.0
  0
VERTEX
  5
997
  8
RULER
 10
1.495611967391951
 20
2.068296698479353
 30
0.0
  0
VERTEX
  5
998
  8
RULER
 10
1.655611967391951
 20
2.068296698479353
 30
0.0
  0
SEQEND
  5
E68
  8
RULER
  0
POLYLINE
  5
2B2
  8
RULER
 66
     1
 10
0.0
 20
0.0
 30
0.0
  0
VERTEX
  5
999
  8
RULER
 10
1.083151937392548
 20
3.173804692479476
 30
0.0
 42
-0.4548493327042687
  0
VERTEX
  5
99A
  8
RULER
 10
1.138151937392548
 20
3.236804692479476
 30
0.0
 42
-0.4114350750726344
  0
VERTEX
  5
99B
  8
RULER
 10
1.193151937392548
 20
3.181304692479476
 30
0.0
  0
VERTEX
  5
99C
  8
RULER
 10
1.193151937392548
 20
3.173804692479476
 30
0.0
 42
-0.4121212121212124
  0
VERTEX
  5
99D
  8
RULER
 10
1.138151937392548
 20
3.118804692479476
 30
0.0
  0
VERTEX
  5
99E
  8
RULER
 10
1.125651937392548
 20
3.118804692479476
 30
0.0
  0
VERTEX
  5
99F
  8
RULER
 10
1.140651937392548
 20
3.118804692479476
 30
0.0
 42
-0.4142857142857143
  0
VERTEX
  5
9A0
  8
RULER
 10
1.210651937392548
 20
3.048804692479476
 30
0.0
 42
-0.9462693881493045
  0
VERTEX
  5
9A1
  8
RULER
 10
1.070651937392548
 20
3.046304692479476
 30
0.0
  0
SEQEND
  5
E69
  8
RULER
  0
POLYLINE
  5
2B3
  8
RULER
 66
     1
 10
0.0
 20
0.0
 30
0.0
  0
VERTEX
  5
9A2
  8
RULER
 10
1.670611967391952
 20
4.113296698479353
 30
0.0
  0
VERTEX
  5
9A3
  8
RULER
 10
1.493111967391951
 20
4.113296698479353
 30
0.0
  0
VERTEX
  5
9A4
  8
RULER
 10
1.633111967391951
 20
4.318296698479353
 30
0.0
  0
VERTEX
  5
9A5
  8
RULER
 10
1.633111967391951
 20
4.068296698479353
 30
0.0
  0
SEQEND
  5
E6A
  8
RULER
  0
POLYLINE
  5
2B4
  8
RULER
 66
     1
 10
0.0
 20
0.0
 30
0.0
  0
VERTEX
  5
9A6
  8
RULER
 10
1.070651937392548
 20
5.061304692479475
 30
0.0
 42
0.8576084699939476
  0
VERTEX
  5
9A7
  8
RULER
 10
1.237818604059215
 20
5.043804692479475
 30
0.0
 42
0.8394311096568591
  0
VERTEX
  5
9A8
  8
RULER
 10
1.085651937392548
 20
5.113804692479476
 30
0.0
  0
VERTEX
  5
9A9
  8
RULER
 10
1.105651937392548
 20
5.233804692479476
 30
0.0
  0
VERTEX
  5
9AA
  8
RULER
 10
1.223151937392548
 20
5.233804692479476
 30
0.0
  0
SEQEND
  5
E6B
  8
RULER
  0
POLYLINE
  5
2B5
  8
RULER
 66
     1
 10
0.0
 20
0.0
 30
0.0
 70
     1
  0
VERTEX
  5
9AB
  8
RULER
 10
1.578260357276018
 20
6.065796698479352
 30
0.0
  0
VERTEX
  5
9AC
  8
RULER
 10
1.586951113506863
 20
6.066235543897296
 30
0.0
  0
VERTEX
  5
9AD
  8
RULER
 10
1.595390822020424
 20
6.067523596373008
 30
0.0
  0
VERTEX
  5
9AE
  8
RULER
 10
1.603536757149523
 20
6.069618130239312
 30
0.0
  0
VERTEX
  5
9AF
  8
RULER
 10
1.611346193226982
 20
6.072476419829031
 30
0.0
  0
VERTEX
  5
9B0
  8
RULER
 10
1.618776404585624
 20
6.076055739474986
 30
0.0
  0
VERTEX
  5
9B1
  8
RULER
 10
1.625784665558272
 20
6.080313363510001
 30
0.0
  0
VERTEX
  5
9B2
  8
RULER
 10
1.632328250477748
 20
6.085206566266896
 30
0.0
  0
VERTEX
  5
9B3
  8
RULER
 10
1.638364433676875
 20
6.090692622078496
 30
0.0
  0
VERTEX
  5
9B4
  8
RULER
 10
1.643850489488474
 20
6.096728805277623
 30
0.0
  0
VERTEX
  5
9B5
  8
RULER
 10
1.64874369224537
 20
6.103272390197098
 30
0.0
  0
VERTEX
  5
9B6
  8
RULER
 10
1.653001316280384
 20
6.110280651169747
 30
0.0
  0
VERTEX
  5
9B7
  8
RULER
 10
1.656580635926339
 20
6.117710862528389
 30
0.0
  0
VERTEX
  5
9B8
  8
RULER
 10
1.659438925516057
 20
6.125520298605847
 30
0.0
  0
VERTEX
  5
9B9
  8
RULER
 10
1.661533459382361
 20
6.133666233734946
 30
0.0
  0
VERTEX
  5
9BA
  8
RULER
 10
1.662821511858074
 20
6.142105942248507
 30
0.0
  0
VERTEX
  5
9BB
  8
RULER
 10
1.663260357276018
 20
6.150796698479352
 30
0.0
  0
VERTEX
  5
9BC
  8
RULER
 10
1.662821511858074
 20
6.159487454710198
 30
0.0
  0
VERTEX
  5
9BD
  8
RULER
 10
1.661533459382361
 20
6.167927163223759
 30
0.0
  0
VERTEX
  5
9BE
  8
RULER
 10
1.659438925516057
 20
6.176073098352857
 30
0.0
  0
VERTEX
  5
9BF
  8
RULER
 10
1.656580635926339
 20
6.183882534430317
 30
0.0
  0
VERTEX
  5
9C0
  8
RULER
 10
1.653001316280384
 20
6.191312745788959
 30
0.0
  0
VERTEX
  5
9C1
  8
RULER
 10
1.64874369224537
 20
6.198321006761606
 30
0.0
  0
VERTEX
  5
9C2
  8
RULER
 10
1.643850489488474
 20
6.204864591681083
 30
0.0
  0
VERTEX
  5
9C3
  8
RULER
 10
1.638364433676875
 20
6.21090077488021
 30
0.0
  0
VERTEX
  5
9C4
  8
RULER
 10
1.632328250477748
 20
6.21638683069181
 30
0.0
  0
VERTEX
  5
9C5
  8
RULER
 10
1.625784665558272
 20
6.221280033448705
 30
0.0
  0
VERTEX
  5
9C6
  8
RULER
 10
1.618776404585624
 20
6.22553765748372
 30
0.0
  0
VERTEX
  5
9C7
  8
RULER
 10
1.611346193226982
 20
6.229116977129674
 30
0.0
  0
VERTEX
  5
9C8
  8
RULER
 10
1.603536757149523
 20
6.231975266719393
 30
0.0
  0
VERTEX
  5
9C9
  8
RULER
 10
1.595390822020424
 20
6.234069800585696
 30
0.0
  0
VERTEX
  5
9CA
  8
RULER
 10
1.586951113506863
 20
6.235357853061409
 30
0.0
  0
VERTEX
  5
9CB
  8
RULER
 10
1.578260357276018
 20
6.235796698479353
 30
0.0
  0
VERTEX
  5
9CC
  8
RULER
 10
1.569569601045172
 20
6.235357853061409
 30
0.0
  0
VERTEX
  5
9CD
  8
RULER
 10
1.561129892531612
 20
6.234069800585696
 30
0.0
  0
VERTEX
  5
9CE
  8
RULER
 10
1.552983957402513
 20
6.231975266719393
 30
0.0
  0
VERTEX
  5
9CF
  8
RULER
 10
1.545174521325054
 20
6.229116977129674
 30
0.0
  0
VERTEX
  5
9D0
  8
RULER
 10
1.537744309966412
 20
6.22553765748372
 30
0.0
  0
VERTEX
  5
9D1
  8
RULER
 10
1.530736048993764
 20
6.221280033448705
 30
0.0
  0
VERTEX
  5
9D2
  8
RULER
 10
1.524192464074288
 20
6.21638683069181
 30
0.0
  0
VERTEX
  5
9D3
  8
RULER
 10
1.518156280875161
 20
6.21090077488021
 30
0.0
  0
VERTEX
  5
9D4
  8
RULER
 10
1.512670225063561
 20
6.204864591681083
 30
0.0
  0
VERTEX
  5
9D5
  8
RULER
 10
1.507777022306666
 20
6.198321006761606
 30
0.0
  0
VERTEX
  5
9D6
  8
RULER
 10
1.503519398271651
 20
6.191312745788959
 30
0.0
  0
VERTEX
  5
9D7
  8
RULER
 10
1.499940078625697
 20
6.183882534430317
 30
0.0
  0
VERTEX
  5
9D8
  8
RULER
 10
1.497081789035978
 20
6.176073098352857
 30
0.0
  0
VERTEX
  5
9D9
  8
RULER
 10
1.494987255169674
 20
6.167927163223759
 30
0.0
  0
VERTEX
  5
9DA
  8
RULER
 10
1.493699202693962
 20
6.159487454710198
 30
0.0
  0
VERTEX
  5
9DB
  8
RULER
 10
1.493260357276018
 20
6.150796698479352
 30
0.0
  0
VERTEX
  5
9DC
  8
RULER
 10
1.493699202693962
 20
6.142105942248507
 30
0.0
  0
VERTEX
  5
9DD
  8
RULER
 10
1.494987255169674
 20
6.133666233734946
 30
0.0
  0
VERTEX
  5
9DE
  8
RULER
 10
1.497081789035978
 20
6.125520298605847
 30
0.0
  0
VERTEX
  5
9DF
  8
RULER
 10
1.499940078625697
 20
6.117710862528389
 30
0.0
  0
VERTEX
  5
9E0
  8
RULER
 10
1.503519398271651
 20
6.110280651169747
 30
0.0
  0
VERTEX
  5
9E1
  8
RULER
 10
1.507777022306666
 20
6.103272390197098
 30
0.0
  0
VERTEX
  5
9E2
  8
RULER
 10
1.512670225063561
 20
6.096728805277623
 30
0.0
  0
VERTEX
  5
9E3
  8
RULER
 10
1.518156280875161
 20
6.090692622078496
 30
0.0
  0
VERTEX
  5
9E4
  8
RULER
 10
1.524192464074288
 20
6.085206566266896
 30
0.0
  0
VERTEX
  5
9E5
  8
RULER
 10
1.530736048993764
 20
6.080313363510001
 30
0.0
  0
VERTEX
  5
9E6
  8
RULER
 10
1.537744309966412
 20
6.076055739474986
 30
0.0
  0
VERTEX
  5
9E7
  8
RULER
 10
1.545174521325054
 20
6.072476419829031
 30
0.0
  0
VERTEX
  5
9E8
  8
RULER
 10
1.552983957402513
 20
6.069618130239312
 30
0.0
  0
VERTEX
  5
9E9
  8
RULER
 10
1.561129892531612
 20
6.067523596373008
 30
0.0
  0
VERTEX
  5
9EA
  8
RULER
 10
1.569569601045172
 20
6.066235543897296
 30
0.0
  0
SEQEND
  5
E6C
  8
RULER
  0
POLYLINE
  5
2B6
  8
RULER
 66
     1
 10
0.0
 20
0.0
 30
0.0
  0
VERTEX
  5
9EB
  8
RULER
 10
1.578260357276018
 20
6.065796698479352
 30
0.0
 42
-0.5862971619980313
  0
VERTEX
  5
9EC
  8
RULER
 10
1.505760357276018
 20
6.195796698479353
 30
0.0
  0
VERTEX
  5
9ED
  8
RULER
 10
1.588260357276018
 20
6.320796698479353
 30
0.0
  0
SEQEND
  5
E6D
  8
RULER
  0
POLYLINE
  5
2B7
  8
RULER
 66
     1
 10
0.0
 20
0.0
 30
0.0
  0
VERTEX
  5
9EE
  8
RULER
 10
1.070651937392548
 20
7.233804692479476
 30
0.0
  0
VERTEX
  5
9EF
  8
RULER
 10
1.210651937392548
 20
7.233804692479476
 30
0.0
  0
VERTEX
  5
9F0
  8
RULER
 10
1.100651937392548
 20
6.983804692479476
 30
0.0
  0
SEQEND
  5
E6E
  8
RULER
  0
POLYLINE
  5
2B8
  8
RULER
 66
     1
 10
0.0
 20
0.0
 30
0.0
 70
     1
  0
VERTEX
  5
9F1
  8
RULER
 10
1.563111967391951
 20
8.210796698479353
 30
0.0
  0
VERTEX
  5
9F2
  8
RULER
 10
1.55748853688964
 20
8.211080657279197
 30
0.0
  0
VERTEX
  5
9F3
  8
RULER
 10
1.552027549027924
 20
8.211914102998776
 30
0.0
  0
VERTEX
  5
9F4
  8
RULER
 10
1.546756649826742
 20
8.21326938961815
 30
0.0
  0
VERTEX
  5
9F5
  8
RULER
 10
1.541703485306033
 20
8.21511887111738
 30
0.0
  0
VERTEX
  5
9F6
  8
RULER
 10
1.536895701485735
 20
8.217434901476528
 30
0.0
  0
VERTEX
  5
9F7
  8
RULER
 10
1.532360944385787
 20
8.220189834675654
 30
0.0
  0
VERTEX
  5
9F8
  8
RULER
 10
1.528126860026126
 20
8.223356024694823
 30
0.0
  0
VERTEX
  5
9F9
  8
RULER
 10
1.524221094426691
 20
8.226905825514093
 30
0.0
  0
VERTEX
  5
9FA
  8
RULER
 10
1.52067129360742
 20
8.230811591113529
 30
0.0
  0
VERTEX
  5
9FB
  8
RULER
 10
1.517505103588253
 20
8.23504567547319
 30
0.0
  0
VERTEX
  5
9FC
  8
RULER
 10
1.514750170389126
 20
8.239580432573138
 30
0.0
  0
VERTEX
  5
9FD
  8
RULER
 10
1.512434140029979
 20
8.244388216393435
 30
0.0
  0
VERTEX
  5
9FE
  8
RULER
 10
1.510584658530749
 20
8.249441380914144
 30
0.0
  0
VERTEX
  5
9FF
  8
RULER
 10
1.509229371911376
 20
8.254712280115324
 30
0.0
  0
VERTEX
  5
A00
  8
RULER
 10
1.508395926191797
 20
8.26017326797704
 30
0.0
  0
VERTEX
  5
A01
  8
RULER
 10
1.508111967391951
 20
8.265796698479353
 30
0.0
  0
VERTEX
  5
A02
  8
RULER
 10
1.508395926191797
 20
8.271420128981665
 30
0.0
  0
VERTEX
  5
A03
  8
RULER
 10
1.509229371911376
 20
8.27688111684338
 30
0.0
  0
VERTEX
  5
A04
  8
RULER
 10
1.510584658530749
 20
8.282152016044561
 30
0.0
  0
VERTEX
  5
A05
  8
RULER
 10
1.512434140029979
 20
8.28720518056527
 30
0.0
  0
VERTEX
  5
A06
  8
RULER
 10
1.514750170389126
 20
8.292012964385567
 30
0.0
  0
VERTEX
  5
A07
  8
RULER
 10
1.517505103588253
 20
8.296547721485515
 30
0.0
  0
VERTEX
  5
A08
  8
RULER
 10
1.52067129360742
 20
8.300781805845176
 30
0.0
  0
VERTEX
  5
A09
  8
RULER
 10
1.524221094426691
 20
8.304687571444612
 30
0.0
  0
VERTEX
  5
A0A
  8
RULER
 10
1.528126860026126
 20
8.308237372263882
 30
0.0
  0
VERTEX
  5
A0B
  8
RULER
 10
1.532360944385787
 20
8.31140356228305
 30
0.0
  0
VERTEX
  5
A0C
  8
RULER
 10
1.536895701485735
 20
8.314158495482177
 30
0.0
  0
VERTEX
  5
A0D
  8
RULER
 10
1.541703485306033
 20
8.316474525841326
 30
0.0
  0
VERTEX
  5
A0E
  8
RULER
 10
1.546756649826742
 20
8.318324007340555
 30
0.0
  0
VERTEX
  5
A0F
  8
RULER
 10
1.552027549027924
 20
8.319679293959929
 30
0.0
  0
VERTEX
  5
A10
  8
RULER
 10
1.55748853688964
 20
8.320512739679508
 30
0.0
  0
VERTEX
  5
A11
  8
RULER
 10
1.563111967391951
 20
8.320796698479352
 30
0.0
  0
VERTEX
  5
A12
  8
RULER
 10
1.568735397894263
 20
8.320512739679508
 30
0.0
  0
VERTEX
  5
A13
  8
RULER
 10
1.574196385755978
 20
8.319679293959929
 30
0.0
  0
VERTEX
  5
A14
  8
RULER
 10
1.57946728495716
 20
8.318324007340555
 30
0.0
  0
VERTEX
  5
A15
  8
RULER
 10
1.584520449477869
 20
8.316474525841326
 30
0.0
  0
VERTEX
  5
A16
  8
RULER
 10
1.589328233298167
 20
8.314158495482177
 30
0.0
  0
VERTEX
  5
A17
  8
RULER
 10
1.593862990398116
 20
8.31140356228305
 30
0.0
  0
VERTEX
  5
A18
  8
RULER
 10
1.598097074757777
 20
8.308237372263882
 30
0.0
  0
VERTEX
  5
A19
  8
RULER
 10
1.602002840357212
 20
8.304687571444612
 30
0.0
  0
VERTEX
  5
A1A
  8
RULER
 10
1.605552641176482
 20
8.300781805845176
 30
0.0
  0
VERTEX
  5
A1B
  8
RULER
 10
1.60871883119565
 20
8.296547721485515
 30
0.0
  0
VERTEX
  5
A1C
  8
RULER
 10
1.611473764394777
 20
8.292012964385567
 30
0.0
  0
VERTEX
  5
A1D
  8
RULER
 10
1.613789794753924
 20
8.28720518056527
 30
0.0
  0
VERTEX
  5
A1E
  8
RULER
 10
1.615639276253153
 20
8.282152016044561
 30
0.0
  0
VERTEX
  5
A1F
  8
RULER
 10
1.616994562872526
 20
8.27688111684338
 30
0.0
  0
VERTEX
  5
A20
  8
RULER
 10
1.617828008592105
 20
8.271420128981665
 30
0.0
  0
VERTEX
  5
A21
  8
RULER
 10
1.618111967391951
 20
8.265796698479353
 30
0.0
  0
VERTEX
  5
A22
  8
RULER
 10
1.617828008592105
 20
8.26017326797704
 30
0.0
  0
VERTEX
  5
A23
  8
RULER
 10
1.616994562872526
 20
8.254712280115324
 30
0.0
  0
VERTEX
  5
A24
  8
RULER
 10
1.615639276253153
 20
8.249441380914144
 30
0.0
  0
VERTEX
  5
A25
  8
RULER
 10
1.613789794753924
 20
8.244388216393435
 30
0.0
  0
VERTEX
  5
A26
  8
RULER
 10
1.611473764394777
 20
8.239580432573138
 30
0.0
  0
VERTEX
  5
A27
  8
RULER
 10
1.60871883119565
 20
8.23504567547319
 30
0.0
  0
VERTEX
  5
A28
  8
RULER
 10
1.605552641176482
 20
8.230811591113529
 30
0.0
  0
VERTEX
  5
A29
  8
RULER
 10
1.602002840357212
 20
8.226905825514093
 30
0.0
  0
VERTEX
  5
A2A
  8
RULER
 10
1.598097074757777
 20
8.223356024694823
 30
0.0
  0
VERTEX
  5
A2B
  8
RULER
 10
1.593862990398116
 20
8.220189834675654
 30
0.0
  0
VERTEX
  5
A2C
  8
RULER
 10
1.589328233298167
 20
8.217434901476528
 30
0.0
  0
VERTEX
  5
A2D
  8
RULER
 10
1.584520449477869
 20
8.21511887111738
 30
0.0
  0
VERTEX
  5
A2E
  8
RULER
 10
1.57946728495716
 20
8.21326938961815
 30
0.0
  0
VERTEX
  5
A2F
  8
RULER
 10
1.574196385755978
 20
8.211914102998776
 30
0.0
  0
VERTEX
  5
A30
  8
RULER
 10
1.568735397894263
 20
8.211080657279197
 30
0.0
  0
SEQEND
  5
E6F
  8
RULER
  0
POLYLINE
  5
2B9
  8
RULER
 66
     1
 10
0.0
 20
0.0
 30
0.0
 70
     1
  0
VERTEX
  5
A31
  8
RULER
 10
1.563111967391951
 20
8.210796698479353
 30
0.0
 42
-0.4142857142857143
  0
VERTEX
  5
A32
  8
RULER
 10
1.633111967391951
 20
8.140796698479353
 30
0.0
  0
VERTEX
  5
A33
  8
RULER
 10
1.633111967391951
 20
8.135796698479353
 30
0.0
 42
-1.0
  0
VERTEX
  5
A34
  8
RULER
 10
1.493111967391951
 20
8.135796698479353
 30
0.0
  0
VERTEX
  5
A35
  8
RULER
 10
1.493111967391951
 20
8.140796698479353
 30
0.0
 42
-0.4142857142857144
  0
SEQEND
  5
E70
  8
RULER
  0
POLYLINE
  5
2BA
  8
RULER
 66
     1
 10
0.0
 20
0.0
 30
0.0
  0
VERTEX
  5
A36
  8
RULER
 10
1.145651937392548
 20
8.983804692479476
 30
0.0
  0
VERTEX
  5
A37
  8
RULER
 10
1.228151937392548
 20
9.108804692479476
 30
0.0
 42
0.1380051253523702
  0
VERTEX
  5
A38
  8
RULER
 10
1.240651937392548
 20
9.151304692479476
 30
0.0
 42
1.0
  0
VERTEX
  5
A39
  8
RULER
 10
1.070651937392548
 20
9.151304692479476
 30
0.0
 42
0.7699957824736615
  0
VERTEX
  5
A3A
  8
RULER
 10
1.228151937392548
 20
9.108804692479476
 30
0.0
  0
SEQEND
  5
E71
  8
RULER
  0
POLYLINE
  5
2BB
  8
RULER
 66
     1
 10
0.0
 20
0.0
 30
0.0
  0
VERTEX
  5
A3B
  8
RULER
 10
1.493111967391951
 20
10.31829669847935
 30
0.0
  0
VERTEX
  5
A3C
  8
RULER
 10
1.560611967391951
 20
10.31829669847935
 30
0.0
  0
VERTEX
  5
A3D
  8
RULER
 10
1.560611967391951
 20
10.06829669847935
 30
0.0
  0
SEQEND
  5
E72
  8
RULER
  0
POLYLINE
  5
2BC
  8
RULER
 66
     1
 10
0.0
 20
0.0
 30
0.0
 70
     1
  0
VERTEX
  5
A3E
  8
RULER
 10
1.735611967391952
 20
10.06579669847935
 30
0.0
  0
VERTEX
  5
A3F
  8
RULER
 10
1.738111967391952
 20
10.06579669847935
 30
0.0
 42
0.4133333333333333
  0
VERTEX
  5
A40
  8
RULER
 10
1.863111967391952
 20
10.19079669847935
 30
0.0
  0
VERTEX
  5
A41
  8
RULER
 10
1.863111967391952
 20
10.19329669847935
 30
0.0
 42
0.4133333333333333
  0
VERTEX
  5
A42
  8
RULER
 10
1.738111967391952
 20
10.31829669847935
 30
0.0
  0
VERTEX
  5
A43
  8
RULER
 10
1.735611967391952
 20
10.31829669847935
 30
0.0
 42
0.4133333333333333
  0
VERTEX
  5
A44
  8
RULER
 10
1.610611967391952
 20
10.19329669847935
 30
0.0
  0
VERTEX
  5
A45
  8
RULER
 10
1.610611967391952
 20
10.19079669847935
 30
0.0
 42
0.4133333333333333
  0
SEQEND
  5
E73
  8
RULER
  0
POLYLINE
  5
2BD
  8
RULER
 66
     1
 10
0.0
 20
0.0
 30
0.0
  0
VERTEX
  5
A46
  8
RULER
 10
1.070651937392548
 20
11.23380469247948
 30
0.0
  0
VERTEX
  5
A47
  8
RULER
 10
1.138151937392548
 20
11.23380469247948
 30
0.0
  0
VERTEX
  5
A48
  8
RULER
 10
1.138151937392548
 20
10.98380469247948
 30
0.0
  0
SEQEND
  5
E74
  8
RULER
  0
POLYLINE
  5
2BE
  8
RULER
 66
     1
 10
0.0
 20
0.0
 30
0.0
  0
VERTEX
  5
A49
  8
RULER
 10
1.188151937392548
 20
11.23380469247948
 30
0.0
  0
VERTEX
  5
A4A
  8
RULER
 10
1.255651937392548
 20
11.23380469247948
 30
0.0
  0
VERTEX
  5
A4B
  8
RULER
 10
1.255651937392548
 20
10.98380469247948
 30
0.0
  0
SEQEND
  5
E75
  8
RULER
  0
POLYLINE
  5
2BF
  8
RULER
 66
     1
 10
0.0
 20
0.0
 30
0.0
  0
VERTEX
  5
A4C
  8
RULER
 10
1.493111967391951
 20
12.31829669847935
 30
0.0
  0
VERTEX
  5
A4D
  8
RULER
 10
1.560611967391951
 20
12.31829669847935
 30
0.0
  0
VERTEX
  5
A4E
  8
RULER
 10
1.560611967391951
 20
12.06829669847935
 30
0.0
  0
SEQEND
  5
E76
  8
RULER
  0
POLYLINE
  5
2C0
  8
RULER
 66
     1
 10
0.0
 20
0.0
 30
0.0
  0
VERTEX
  5
A4F
  8
RULER
 10
1.610611967391951
 20
12.24329669847935
 30
0.0
 42
-0.4238676972146167
  0
VERTEX
  5
A50
  8
RULER
 10
1.685611967391951
 20
12.32079669847935
 30
0.0
 42
-0.4139114804918755
  0
VERTEX
  5
A51
  8
RULER
 10
1.760611967391951
 20
12.24579669847935
 30
0.0
 42
-0.1946370063820205
  0
VERTEX
  5
A52
  8
RULER
 10
1.738111967391951
 20
12.19329669847935
 30
0.0
  0
VERTEX
  5
A53
  8
RULER
 10
1.613111967391951
 20
12.06829669847935
 30
0.0
  0
VERTEX
  5
A54
  8
RULER
 10
1.773111967391951
 20
12.06829669847935
 30
0.0
  0
SEQEND
  5
E77
  8
RULER
  0
POLYLINE
  5
2C1
  8
RULER
 66
     1
 10
0.0
 20
0.0
 30
0.0
  0
VERTEX
  5
A55
  8
RULER
 10
1.070651937392548
 20
13.23380469247948
 30
0.0
  0
VERTEX
  5
A56
  8
RULER
 10
1.138151937392548
 20
13.23380469247948
 30
0.0
  0
VERTEX
  5
A57
  8
RULER
 10
1.138151937392548
 20
12.98380469247948
 30
0.0
  0
SEQEND
  5
E78
  8
RULER
  0
POLYLINE
  5
2C2
  8
RULER
 66
     1
 10
0.0
 20
0.0
 30
0.0
  0
VERTEX
  5
A58
  8
RULER
 10
1.200485270725881
 20
13.17380469247948
 30
0.0
 42
-0.4548493327042687
  0
VERTEX
  5
A59
  8
RULER
 10
1.255485270725881
 20
13.23680469247948
 30
0.0
 42
-0.4114350750726344
  0
VERTEX
  5
A5A
  8
RULER
 10
1.310485270725881
 20
13.18130469247948
 30
0.0
  0
VERTEX
  5
A5B
  8
RULER
 10
1.310485270725881
 20
13.17380469247948
 30
0.0
 42
-0.4121212121212124
  0
VERTEX
  5
A5C
  8
RULER
 10
1.255485270725881
 20
13.11880469247948
 30
0.0
  0
VERTEX
  5
A5D
  8
RULER
 10
1.242985270725881
 20
13.11880469247948
 30
0.0
  0
VERTEX
  5
A5E
  8
RULER
 10
1.257985270725881
 20
13.11880469247948
 30
0.0
 42
-0.4142857142857143
  0
VERTEX
  5
A5F
  8
RULER
 10
1.327985270725881
 20
13.04880469247948
 30
0.0
 42
-0.9462693881493045
  0
VERTEX
  5
A60
  8
RULER
 10
1.187985270725881
 20
13.04630469247948
 30
0.0
  0
SEQEND
  5
E79
  8
RULER
  0
POLYLINE
  5
2C3
  8
RULER
 66
     1
 10
0.0
 20
0.0
 30
0.0
  0
VERTEX
  5
A61
  8
RULER
 10
1.493111967391951
 20
14.31829669847935
 30
0.0
  0
VERTEX
  5
A62
  8
RULER
 10
1.560611967391951
 20
14.31829669847935
 30
0.0
  0
VERTEX
  5
A63
  8
RULER
 10
1.560611967391951
 20
14.06829669847935
 30
0.0
  0
SEQEND
  5
E7A
  8
RULER
  0
POLYLINE
  5
2C4
  8
RULER
 66
     1
 10
0.0
 20
0.0
 30
0.0
  0
VERTEX
  5
A64
  8
RULER
 10
1.788111967391951
 20
14.11329669847935
 30
0.0
  0
VERTEX
  5
A65
  8
RULER
 10
1.610611967391951
 20
14.11329669847935
 30
0.0
  0
VERTEX
  5
A66
  8
RULER
 10
1.750611967391951
 20
14.31829669847935
 30
0.0
  0
VERTEX
  5
A67
  8
RULER
 10
1.750611967391951
 20
14.06829669847935
 30
0.0
  0
SEQEND
  5
E7B
  8
RULER
  0
POLYLINE
  5
2C5
  8
RULER
 66
     1
 10
0.0
 20
0.0
 30
0.0
  0
VERTEX
  5
A68
  8
RULER
 10
1.070651937392548
 20
15.23380469247948
 30
0.0
  0
VERTEX
  5
A69
  8
RULER
 10
1.138151937392548
 20
15.23380469247948
 30
0.0
  0
VERTEX
  5
A6A
  8
RULER
 10
1.138151937392548
 20
14.98380469247948
 30
0.0
  0
SEQEND
  5
E7C
  8
RULER
  0
POLYLINE
  5
2C6
  8
RULER
 66
     1
 10
0.0
 20
0.0
 30
0.0
  0
VERTEX
  5
A6B
  8
RULER
 10
1.173151937392548
 20
15.06130469247948
 30
0.0
 42
0.8576084699939476
  0
VERTEX
  5
A6C
  8
RULER
 10
1.340318604059215
 20
15.04380469247948
 30
0.0
 42
0.8394311096568591
  0
VERTEX
  5
A6D
  8
RULER
 10
1.188151937392548
 20
15.11380469247948
 30
0.0
  0
VERTEX
  5
A6E
  8
RULER
 10
1.208151937392548
 20
15.23380469247948
 30
0.0
  0
VERTEX
  5
A6F
  8
RULER
 10
1.325651937392548
 20
15.23380469247948
 30
0.0
  0
SEQEND
  5
E7D
  8
RULER
  0
POLYLINE
  5
2C7
  8
RULER
 66
     1
 10
0.0
 20
0.0
 30
0.0
  0
VERTEX
  5
A70
  8
RULER
 10
1.493111967391951
 20
16.31829669847935
 30
0.0
  0
VERTEX
  5
A71
  8
RULER
 10
1.560611967391951
 20
16.31829669847935
 30
0.0
  0
VERTEX
  5
A72
  8
RULER
 10
1.560611967391951
 20
16.06829669847935
 30
0.0
  0
SEQEND
  5
E7E
  8
RULER
  0
POLYLINE
  5
2C8
  8
RULER
 66
     1
 10
0.0
 20
0.0
 30
0.0
 70
     1
  0
VERTEX
  5
A73
  8
RULER
 10
1.695611967391951
 20
16.06579669847935
 30
0.0
  0
VERTEX
  5
A74
  8
RULER
 10
1.704302723622797
 20
16.0662355438973
 30
0.0
  0
VERTEX
  5
A75
  8
RULER
 10
1.712742432136357
 20
16.06752359637301
 30
0.0
  0
VERTEX
  5
A76
  8
RULER
 10
1.720888367265456
 20
16.06961813023932
 30
0.0
  0
VERTEX
  5
A77
  8
RULER
 10
1.728697803342915
 20
16.07247641982903
 30
0.0
  0
VERTEX
  5
A78
  8
RULER
 10
1.736128014701558
 20
16.07605573947499
 30
0.0
  0
VERTEX
  5
A79
  8
RULER
 10
1.743136275674205
 20
16.08031336351
 30
0.0
  0
VERTEX
  5
A7A
  8
RULER
 10
1.749679860593681
 20
16.0852065662669
 30
0.0
  0
VERTEX
  5
A7B
  8
RULER
 10
1.755716043792808
 20
16.0906926220785
 30
0.0
  0
VERTEX
  5
A7C
  8
RULER
 10
1.761202099604408
 20
16.09672880527762
 30
0.0
  0
VERTEX
  5
A7D
  8
RULER
 10
1.766095302361304
 20
16.1032723901971
 30
0.0
  0
VERTEX
  5
A7E
  8
RULER
 10
1.770352926396318
 20
16.11028065116975
 30
0.0
  0
VERTEX
  5
A7F
  8
RULER
 10
1.773932246042273
 20
16.11771086252839
 30
0.0
  0
VERTEX
  5
A80
  8
RULER
 10
1.776790535631991
 20
16.12552029860585
 30
0.0
  0
VERTEX
  5
A81
  8
RULER
 10
1.778885069498295
 20
16.13366623373495
 30
0.0
  0
VERTEX
  5
A82
  8
RULER
 10
1.780173121974008
 20
16.14210594224851
 30
0.0
  0
VERTEX
  5
A83
  8
RULER
 10
1.780611967391951
 20
16.15079669847935
 30
0.0
  0
VERTEX
  5
A84
  8
RULER
 10
1.780173121974008
 20
16.1594874547102
 30
0.0
  0
VERTEX
  5
A85
  8
RULER
 10
1.778885069498295
 20
16.16792716322376
 30
0.0
  0
VERTEX
  5
A86
  8
RULER
 10
1.776790535631991
 20
16.17607309835286
 30
0.0
  0
VERTEX
  5
A87
  8
RULER
 10
1.773932246042273
 20
16.18388253443032
 30
0.0
  0
VERTEX
  5
A88
  8
RULER
 10
1.770352926396318
 20
16.19131274578896
 30
0.0
  0
VERTEX
  5
A89
  8
RULER
 10
1.766095302361304
 20
16.19832100676161
 30
0.0
  0
VERTEX
  5
A8A
  8
RULER
 10
1.761202099604408
 20
16.20486459168109
 30
0.0
  0
VERTEX
  5
A8B
  8
RULER
 10
1.755716043792808
 20
16.21090077488021
 30
0.0
  0
VERTEX
  5
A8C
  8
RULER
 10
1.749679860593681
 20
16.21638683069181
 30
0.0
  0
VERTEX
  5
A8D
  8
RULER
 10
1.743136275674205
 20
16.22128003344871
 30
0.0
  0
VERTEX
  5
A8E
  8
RULER
 10
1.736128014701558
 20
16.22553765748372
 30
0.0
  0
VERTEX
  5
A8F
  8
RULER
 10
1.728697803342915
 20
16.22911697712967
 30
0.0
  0
VERTEX
  5
A90
  8
RULER
 10
1.720888367265456
 20
16.23197526671939
 30
0.0
  0
VERTEX
  5
A91
  8
RULER
 10
1.712742432136357
 20
16.2340698005857
 30
0.0
  0
VERTEX
  5
A92
  8
RULER
 10
1.704302723622797
 20
16.23535785306141
 30
0.0
  0
VERTEX
  5
A93
  8
RULER
 10
1.695611967391951
 20
16.23579669847935
 30
0.0
  0
VERTEX
  5
A94
  8
RULER
 10
1.686921211161106
 20
16.23535785306141
 30
0.0
  0
VERTEX
  5
A95
  8
RULER
 10
1.678481502647545
 20
16.2340698005857
 30
0.0
  0
VERTEX
  5
A96
  8
RULER
 10
1.670335567518447
 20
16.23197526671939
 30
0.0
  0
VERTEX
  5
A97
  8
RULER
 10
1.662526131440988
 20
16.22911697712967
 30
0.0
  0
VERTEX
  5
A98
  8
RULER
 10
1.655095920082345
 20
16.22553765748372
 30
0.0
  0
VERTEX
  5
A99
  8
RULER
 10
1.648087659109697
 20
16.22128003344871
 30
0.0
  0
VERTEX
  5
A9A
  8
RULER
 10
1.641544074190221
 20
16.21638683069181
 30
0.0
  0
VERTEX
  5
A9B
  8
RULER
 10
1.635507890991095
 20
16.21090077488021
 30
0.0
  0
VERTEX
  5
A9C
  8
RULER
 10
1.630021835179495
 20
16.20486459168109
 30
0.0
  0
VERTEX
  5
A9D
  8
RULER
 10
1.625128632422599
 20
16.19832100676161
 30
0.0
  0
VERTEX
  5
A9E
  8
RULER
 10
1.620871008387585
 20
16.19131274578896
 30
0.0
  0
VERTEX
  5
A9F
  8
RULER
 10
1.61729168874163
 20
16.18388253443032
 30
0.0
  0
VERTEX
  5
AA0
  8
RULER
 10
1.614433399151912
 20
16.17607309835286
 30
0.0
  0
VERTEX
  5
AA1
  8
RULER
 10
1.612338865285608
 20
16.16792716322376
 30
0.0
  0
VERTEX
  5
AA2
  8
RULER
 10
1.611050812809895
 20
16.1594874547102
 30
0.0
  0
VERTEX
  5
AA3
  8
RULER
 10
1.610611967391951
 20
16.15079669847935
 30
0.0
  0
VERTEX
  5
AA4
  8
RULER
 10
1.611050812809895
 20
16.14210594224851
 30
0.0
  0
VERTEX
  5
AA5
  8
RULER
 10
1.612338865285608
 20
16.13366623373495
 30
0.0
  0
VERTEX
  5
AA6
  8
RULER
 10
1.614433399151912
 20
16.12552029860585
 30
0.0
  0
VERTEX
  5
AA7
  8
RULER
 10
1.61729168874163
 20
16.11771086252839
 30
0.0
  0
VERTEX
  5
AA8
  8
RULER
 10
1.620871008387585
 20
16.11028065116975
 30
0.0
  0
VERTEX
  5
AA9
  8
RULER
 10
1.625128632422599
 20
16.1032723901971
 30
0.0
  0
VERTEX
  5
AAA
  8
RULER
 10
1.630021835179495
 20
16.09672880527762
 30
0.0
  0
VERTEX
  5
AAB
  8
RULER
 10
1.635507890991095
 20
16.0906926220785
 30
0.0
  0
VERTEX
  5
AAC
  8
RULER
 10
1.641544074190221
 20
16.0852065662669
 30
0.0
  0
VERTEX
  5
AAD
  8
RULER
 10
1.648087659109697
 20
16.08031336351
 30
0.0
  0
VERTEX
  5
AAE
  8
RULER
 10
1.655095920082345
 20
16.07605573947499
 30
0.0
  0
VERTEX
  5
AAF
  8
RULER
 10
1.662526131440988
 20
16.07247641982903
 30
0.0
  0
VERTEX
  5
AB0
  8
RULER
 10
1.670335567518447
 20
16.06961813023932
 30
0.0
  0
VERTEX
  5
AB1
  8
RULER
 10
1.678481502647545
 20
16.06752359637301
 30
0.0
  0
VERTEX
  5
AB2
  8
RULER
 10
1.686921211161106
 20
16.0662355438973
 30
0.0
  0
SEQEND
  5
E7F
  8
RULER
  0
POLYLINE
  5
2C9
  8
RULER
 66
     1
 10
0.0
 20
0.0
 30
0.0
  0
VERTEX
  5
AB3
  8
RULER
 10
1.695611967391951
 20
16.06579669847935
 30
0.0
 42
-0.5862971619980313
  0
VERTEX
  5
AB4
  8
RULER
 10
1.623111967391951
 20
16.19579669847936
 30
0.0
  0
VERTEX
  5
AB5
  8
RULER
 10
1.705611967391951
 20
16.32079669847936
 30
0.0
  0
SEQEND
  5
E80
  8
RULER
  0
POLYLINE
  5
2CA
  8
RULER
 66
     1
 10
0.0
 20
0.0
 30
0.0
  0
VERTEX
  5
AB6
  8
RULER
 10
1.070651937392548
 20
17.23380469247948
 30
0.0
  0
VERTEX
  5
AB7
  8
RULER
 10
1.138151937392548
 20
17.23380469247948
 30
0.0
  0
VERTEX
  5
AB8
  8
RULER
 10
1.138151937392548
 20
16.98380469247948
 30
0.0
  0
SEQEND
  5
E81
  8
RULER
  0
POLYLINE
  5
2CB
  8
RULER
 66
     1
 10
0.0
 20
0.0
 30
0.0
  0
VERTEX
  5
AB9
  8
RULER
 10
1.188151937392548
 20
17.23380469247948
 30
0.0
  0
VERTEX
  5
ABA
  8
RULER
 10
1.328151937392548
 20
17.23380469247948
 30
0.0
  0
VERTEX
  5
ABB
  8
RULER
 10
1.218151937392548
 20
16.98380469247948
 30
0.0
  0
SEQEND
  5
E82
  8
RULER
  0
POLYLINE
  5
2CC
  8
RULER
 66
     1
 10
0.0
 20
0.0
 30
0.0
  0
VERTEX
  5
ABC
  8
RULER
 10
1.493111967391951
 20
18.31829669847935
 30
0.0
  0
VERTEX
  5
ABD
  8
RULER
 10
1.560611967391951
 20
18.31829669847935
 30
0.0
  0
VERTEX
  5
ABE
  8
RULER
 10
1.560611967391951
 20
18.06829669847935
 30
0.0
  0
SEQEND
  5
E83
  8
RULER
  0
POLYLINE
  5
2CD
  8
RULER
 66
     1
 10
0.0
 20
0.0
 30
0.0
 70
     1
  0
VERTEX
  5
ABF
  8
RULER
 10
1.680611967391951
 20
18.21079669847935
 30
0.0
  0
VERTEX
  5
AC0
  8
RULER
 10
1.67498853688964
 20
18.2110806572792
 30
0.0
  0
VERTEX
  5
AC1
  8
RULER
 10
1.669527549027924
 20
18.21191410299878
 30
0.0
  0
VERTEX
  5
AC2
  8
RULER
 10
1.664256649826743
 20
18.21326938961816
 30
0.0
  0
VERTEX
  5
AC3
  8
RULER
 10
1.659203485306033
 20
18.21511887111738
 30
0.0
  0
VERTEX
  5
AC4
  8
RULER
 10
1.654395701485735
 20
18.21743490147653
 30
0.0
  0
VERTEX
  5
AC5
  8
RULER
 10
1.649860944385787
 20
18.22018983467565
 30
0.0
  0
VERTEX
  5
AC6
  8
RULER
 10
1.645626860026126
 20
18.22335602469482
 30
0.0
  0
VERTEX
  5
AC7
  8
RULER
 10
1.641721094426691
 20
18.22690582551409
 30
0.0
  0
VERTEX
  5
AC8
  8
RULER
 10
1.63817129360742
 20
18.23081159111353
 30
0.0
  0
VERTEX
  5
AC9
  8
RULER
 10
1.635005103588253
 20
18.23504567547319
 30
0.0
  0
VERTEX
  5
ACA
  8
RULER
 10
1.632250170389126
 20
18.23958043257313
 30
0.0
  0
VERTEX
  5
ACB
  8
RULER
 10
1.629934140029979
 20
18.24438821639344
 30
0.0
  0
VERTEX
  5
ACC
  8
RULER
 10
1.628084658530749
 20
18.24944138091415
 30
0.0
  0
VERTEX
  5
ACD
  8
RULER
 10
1.626729371911376
 20
18.25471228011533
 30
0.0
  0
VERTEX
  5
ACE
  8
RULER
 10
1.625895926191797
 20
18.26017326797704
 30
0.0
  0
VERTEX
  5
ACF
  8
RULER
 10
1.625611967391951
 20
18.26579669847936
 30
0.0
  0
VERTEX
  5
AD0
  8
RULER
 10
1.625895926191797
 20
18.27142012898167
 30
0.0
  0
VERTEX
  5
AD1
  8
RULER
 10
1.626729371911376
 20
18.27688111684338
 30
0.0
  0
VERTEX
  5
AD2
  8
RULER
 10
1.628084658530749
 20
18.28215201604457
 30
0.0
  0
VERTEX
  5
AD3
  8
RULER
 10
1.629934140029979
 20
18.28720518056527
 30
0.0
  0
VERTEX
  5
AD4
  8
RULER
 10
1.632250170389126
 20
18.29201296438557
 30
0.0
  0
VERTEX
  5
AD5
  8
RULER
 10
1.635005103588253
 20
18.29654772148552
 30
0.0
  0
VERTEX
  5
AD6
  8
RULER
 10
1.63817129360742
 20
18.30078180584518
 30
0.0
  0
VERTEX
  5
AD7
  8
RULER
 10
1.641721094426691
 20
18.30468757144462
 30
0.0
  0
VERTEX
  5
AD8
  8
RULER
 10
1.645626860026126
 20
18.30823737226389
 30
0.0
  0
VERTEX
  5
AD9
  8
RULER
 10
1.649860944385787
 20
18.31140356228305
 30
0.0
  0
VERTEX
  5
ADA
  8
RULER
 10
1.654395701485735
 20
18.31415849548218
 30
0.0
  0
VERTEX
  5
ADB
  8
RULER
 10
1.659203485306033
 20
18.31647452584133
 30
0.0
  0
VERTEX
  5
ADC
  8
RULER
 10
1.664256649826743
 20
18.31832400734056
 30
0.0
  0
VERTEX
  5
ADD
  8
RULER
 10
1.669527549027924
 20
18.31967929395993
 30
0.0
  0
VERTEX
  5
ADE
  8
RULER
 10
1.67498853688964
 20
18.32051273967951
 30
0.0
  0
VERTEX
  5
ADF
  8
RULER
 10
1.680611967391951
 20
18.32079669847936
 30
0.0
  0
VERTEX
  5
AE0
  8
RULER
 10
1.686235397894263
 20
18.32051273967951
 30
0.0
  0
VERTEX
  5
AE1
  8
RULER
 10
1.691696385755979
 20
18.31967929395993
 30
0.0
  0
VERTEX
  5
AE2
  8
RULER
 10
1.69696728495716
 20
18.31832400734056
 30
0.0
  0
VERTEX
  5
AE3
  8
RULER
 10
1.702020449477869
 20
18.31647452584133
 30
0.0
  0
VERTEX
  5
AE4
  8
RULER
 10
1.706828233298167
 20
18.31415849548218
 30
0.0
  0
VERTEX
  5
AE5
  8
RULER
 10
1.711362990398116
 20
18.31140356228305
 30
0.0
  0
VERTEX
  5
AE6
  8
RULER
 10
1.715597074757777
 20
18.30823737226389
 30
0.0
  0
VERTEX
  5
AE7
  8
RULER
 10
1.719502840357212
 20
18.30468757144462
 30
0.0
  0
VERTEX
  5
AE8
  8
RULER
 10
1.723052641176482
 20
18.30078180584518
 30
0.0
  0
VERTEX
  5
AE9
  8
RULER
 10
1.72621883119565
 20
18.29654772148552
 30
0.0
  0
VERTEX
  5
AEA
  8
RULER
 10
1.728973764394777
 20
18.29201296438557
 30
0.0
  0
VERTEX
  5
AEB
  8
RULER
 10
1.731289794753924
 20
18.28720518056527
 30
0.0
  0
VERTEX
  5
AEC
  8
RULER
 10
1.733139276253153
 20
18.28215201604457
 30
0.0
  0
VERTEX
  5
AED
  8
RULER
 10
1.734494562872527
 20
18.27688111684338
 30
0.0
  0
VERTEX
  5
AEE
  8
RULER
 10
1.735328008592105
 20
18.27142012898167
 30
0.0
  0
VERTEX
  5
AEF
  8
RULER
 10
1.735611967391951
 20
18.26579669847936
 30
0.0
  0
VERTEX
  5
AF0
  8
RULER
 10
1.735328008592105
 20
18.26017326797704
 30
0.0
  0
VERTEX
  5
AF1
  8
RULER
 10
1.734494562872527
 20
18.25471228011533
 30
0.0
  0
VERTEX
  5
AF2
  8
RULER
 10
1.733139276253153
 20
18.24944138091415
 30
0.0
  0
VERTEX
  5
AF3
  8
RULER
 10
1.731289794753924
 20
18.24438821639344
 30
0.0
  0
VERTEX
  5
AF4
  8
RULER
 10
1.728973764394777
 20
18.23958043257313
 30
0.0
  0
VERTEX
  5
AF5
  8
RULER
 10
1.72621883119565
 20
18.23504567547319
 30
0.0
  0
VERTEX
  5
AF6
  8
RULER
 10
1.723052641176482
 20
18.23081159111353
 30
0.0
  0
VERTEX
  5
AF7
  8
RULER
 10
1.719502840357212
 20
18.22690582551409
 30
0.0
  0
VERTEX
  5
AF8
  8
RULER
 10
1.715597074757777
 20
18.22335602469482
 30
0.0
  0
VERTEX
  5
AF9
  8
RULER
 10
1.711362990398116
 20
18.22018983467565
 30
0.0
  0
VERTEX
  5
AFA
  8
RULER
 10
1.706828233298167
 20
18.21743490147653
 30
0.0
  0
VERTEX
  5
AFB
  8
RULER
 10
1.702020449477869
 20
18.21511887111738
 30
0.0
  0
VERTEX
  5
AFC
  8
RULER
 10
1.69696728495716
 20
18.21326938961816
 30
0.0
  0
VERTEX
  5
AFD
  8
RULER
 10
1.691696385755979
 20
18.21191410299878
 30
0.0
  0
VERTEX
  5
AFE
  8
RULER
 10
1.686235397894263
 20
18.2110806572792
 30
0.0
  0
SEQEND
  5
E84
  8
RULER
  0
POLYLINE
  5
2CE
  8
RULER
 66
     1
 10
0.0
 20
0.0
 30
0.0
 70
     1
  0
VERTEX
  5
AFF
  8
RULER
 10
1.680611967391951
 20
18.21079669847935
 30
0.0
 42
-0.4142857142857143
  0
VERTEX
  5
B00
  8
RULER
 10
1.750611967391951
 20
18.14079669847936
 30
0.0
  0
VERTEX
  5
B01
  8
RULER
 10
1.750611967391951
 20
18.13579669847935
 30
0.0
 42
-1.0
  0
VERTEX
  5
B02
  8
RULER
 10
1.610611967391951
 20
18.13579669847935
 30
0.0
  0
VERTEX
  5
B03
  8
RULER
 10
1.610611967391951
 20
18.14079669847936
 30
0.0
 42
-0.4142857142857144
  0
SEQEND
  5
E85
  8
RULER
  0
POLYLINE
  5
2CF
  8
RULER
 66
     1
 10
0.0
 20
0.0
 30
0.0
  0
VERTEX
  5
B04
  8
RULER
 10
1.070651937392548
 20
19.23380469247948
 30
0.0
  0
VERTEX
  5
B05
  8
RULER
 10
1.138151937392548
 20
19.23380469247948
 30
0.0
  0
VERTEX
  5
B06
  8
RULER
 10
1.138151937392548
 20
18.98380469247948
 30
0.0
  0
SEQEND
  5
E86
  8
RULER
  0
POLYLINE
  5
2D0
  8
RULER
 66
     1
 10
0.0
 20
0.0
 30
0.0
  0
VERTEX
  5
B07
  8
RULER
 10
1.263151937392548
 20
18.98380469247948
 30
0.0
  0
VERTEX
  5
B08
  8
RULER
 10
1.345651937392548
 20
19.10880469247948
 30
0.0
 42
0.1380051253523702
  0
VERTEX
  5
B09
  8
RULER
 10
1.358151937392548
 20
19.15130469247948
 30
0.0
 42
1.0
  0
VERTEX
  5
B0A
  8
RULER
 10
1.188151937392548
 20
19.15130469247948
 30
0.0
 42
0.7699957824736615
  0
VERTEX
  5
B0B
  8
RULER
 10
1.345651937392548
 20
19.10880469247948
 30
0.0
  0
SEQEND
  5
E87
  8
RULER
  0
POLYLINE
  5
2D1
  8
RULER
 66
     1
 10
0.0
 20
0.0
 30
0.0
  0
VERTEX
  5
B0C
  8
RULER
 10
1.493111967391951
 20
20.24329669847936
 30
0.0
 42
-0.4238676972146167
  0
VERTEX
  5
B0D
  8
RULER
 10
1.568111967391951
 20
20.32079669847936
 30
0.0
 42
-0.4139114804918755
  0
VERTEX
  5
B0E
  8
RULER
 10
1.643111967391951
 20
20.24579669847935
 30
0.0
 42
-0.1946370063820205
  0
VERTEX
  5
B0F
  8
RULER
 10
1.620611967391951
 20
20.19329669847935
 30
0.0
  0
VERTEX
  5
B10
  8
RULER
 10
1.495611967391951
 20
20.06829669847935
 30
0.0
  0
VERTEX
  5
B11
  8
RULER
 10
1.655611967391951
 20
20.06829669847935
 30
0.0
  0
SEQEND
  5
E88
  8
RULER
  0
POLYLINE
  5
2D2
  8
RULER
 66
     1
 10
0.0
 20
0.0
 30
0.0
 70
     1
  0
VERTEX
  5
B12
  8
RULER
 10
1.830611967391951
 20
20.06579669847935
 30
0.0
  0
VERTEX
  5
B13
  8
RULER
 10
1.833111967391951
 20
20.06579669847935
 30
0.0
 42
0.4133333333333333
  0
VERTEX
  5
B14
  8
RULER
 10
1.958111967391951
 20
20.19079669847935
 30
0.0
  0
VERTEX
  5
B15
  8
RULER
 10
1.958111967391951
 20
20.19329669847935
 30
0.0
 42
0.4133333333333333
  0
VERTEX
  5
B16
  8
RULER
 10
1.833111967391951
 20
20.31829669847935
 30
0.0
  0
VERTEX
  5
B17
  8
RULER
 10
1.830611967391951
 20
20.31829669847935
 30
0.0
 42
0.4133333333333333
  0
VERTEX
  5
B18
  8
RULER
 10
1.705611967391951
 20
20.19329669847935
 30
0.0
  0
VERTEX
  5
B19
  8
RULER
 10
1.705611967391951
 20
20.19079669847935
 30
0.0
 42
0.4133333333333333
  0
SEQEND
  5
E89
  8
RULER
  0
POLYLINE
  5
2D3
  8
RULER
 66
     1
 10
0.0
 20
0.0
 30
0.0
  0
VERTEX
  5
B1A
  8
RULER
 10
1.070651937392548
 20
21.15880469247948
 30
0.0
 42
-0.4238676972146167
  0
VERTEX
  5
B1B
  8
RULER
 10
1.145651937392548
 20
21.23630469247948
 30
0.0
 42
-0.4139114804918755
  0
VERTEX
  5
B1C
  8
RULER
 10
1.220651937392548
 20
21.16130469247948
 30
0.0
 42
-0.1946370063820205
  0
VERTEX
  5
B1D
  8
RULER
 10
1.198151937392548
 20
21.10880469247948
 30
0.0
  0
VERTEX
  5
B1E
  8
RULER
 10
1.073151937392548
 20
20.98380469247948
 30
0.0
  0
VERTEX
  5
B1F
  8
RULER
 10
1.233151937392548
 20
20.98380469247948
 30
0.0
  0
SEQEND
  5
E8A
  8
RULER
  0
POLYLINE
  5
2D4
  8
RULER
 66
     1
 10
0.0
 20
0.0
 30
0.0
  0
VERTEX
  5
B20
  8
RULER
 10
1.283151937392548
 20
21.23380469247948
 30
0.0
  0
VERTEX
  5
B21
  8
RULER
 10
1.350651937392548
 20
21.23380469247948
 30
0.0
  0
VERTEX
  5
B22
  8
RULER
 10
1.350651937392548
 20
20.98380469247948
 30
0.0
  0
SEQEND
  5
E8B
  8
RULER
  0
POLYLINE
  5
2D5
  8
RULER
 66
     1
 10
0.0
 20
0.0
 30
0.0
  0
VERTEX
  5
B23
  8
RULER
 10
1.493111967391951
 20
22.24329669847936
 30
0.0
 42
-0.4238676972146167
  0
VERTEX
  5
B24
  8
RULER
 10
1.568111967391951
 20
22.32079669847936
 30
0.0
 42
-0.4139114804918755
  0
VERTEX
  5
B25
  8
RULER
 10
1.643111967391951
 20
22.24579669847935
 30
0.0
 42
-0.1946370063820205
  0
VERTEX
  5
B26
  8
RULER
 10
1.620611967391951
 20
22.19329669847935
 30
0.0
  0
VERTEX
  5
B27
  8
RULER
 10
1.495611967391951
 20
22.06829669847935
 30
0.0
  0
VERTEX
  5
B28
  8
RULER
 10
1.655611967391951
 20
22.06829669847935
 30
0.0
  0
SEQEND
  5
E8C
  8
RULER
  0
POLYLINE
  5
2D6
  8
RULER
 66
     1
 10
0.0
 20
0.0
 30
0.0
  0
VERTEX
  5
B29
  8
RULER
 10
1.705611967391951
 20
22.24329669847936
 30
0.0
 42
-0.4238676972146167
  0
VERTEX
  5
B2A
  8
RULER
 10
1.780611967391951
 20
22.32079669847936
 30
0.0
 42
-0.4139114804918755
  0
VERTEX
  5
B2B
  8
RULER
 10
1.855611967391952
 20
22.24579669847935
 30
0.0
 42
-0.1946370063820205
  0
VERTEX
  5
B2C
  8
RULER
 10
1.833111967391951
 20
22.19329669847935
 30
0.0
  0
VERTEX
  5
B2D
  8
RULER
 10
1.708111967391951
 20
22.06829669847935
 30
0.0
  0
VERTEX
  5
B2E
  8
RULER
 10
1.868111967391952
 20
22.06829669847935
 30
0.0
  0
SEQEND
  5
E8D
  8
RULER
  0
POLYLINE
  5
2D7
  8
RULER
 66
     1
 10
0.0
 20
0.0
 30
0.0
  0
VERTEX
  5
B2F
  8
RULER
 10
1.070651937392548
 20
23.15880469247948
 30
0.0
 42
-0.4238676972146167
  0
VERTEX
  5
B30
  8
RULER
 10
1.145651937392548
 20
23.23630469247948
 30
0.0
 42
-0.4139114804918755
  0
VERTEX
  5
B31
  8
RULER
 10
1.220651937392548
 20
23.16130469247948
 30
0.0
 42
-0.1946370063820205
  0
VERTEX
  5
B32
  8
RULER
 10
1.198151937392548
 20
23.10880469247948
 30
0.0
  0
VERTEX
  5
B33
  8
RULER
 10
1.073151937392548
 20
22.98380469247948
 30
0.0
  0
VERTEX
  5
B34
  8
RULER
 10
1.233151937392548
 20
22.98380469247948
 30
0.0
  0
SEQEND
  5
E8E
  8
RULER
  0
POLYLINE
  5
2D8
  8
RULER
 66
     1
 10
0.0
 20
0.0
 30
0.0
  0
VERTEX
  5
B35
  8
RULER
 10
1.295485270725882
 20
23.17380469247948
 30
0.0
 42
-0.4548493327042687
  0
VERTEX
  5
B36
  8
RULER
 10
1.350485270725882
 20
23.23680469247948
 30
0.0
 42
-0.4114350750726344
  0
VERTEX
  5
B37
  8
RULER
 10
1.405485270725882
 20
23.18130469247948
 30
0.0
  0
VERTEX
  5
B38
  8
RULER
 10
1.405485270725882
 20
23.17380469247948
 30
0.0
 42
-0.4121212121212124
  0
VERTEX
  5
B39
  8
RULER
 10
1.350485270725882
 20
23.11880469247948
 30
0.0
  0
VERTEX
  5
B3A
  8
RULER
 10
1.337985270725882
 20
23.11880469247948
 30
0.0
  0
VERTEX
  5
B3B
  8
RULER
 10
1.352985270725882
 20
23.11880469247948
 30
0.0
 42
-0.4142857142857143
  0
VERTEX
  5
B3C
  8
RULER
 10
1.422985270725882
 20
23.04880469247948
 30
0.0
 42
-0.9462693881493045
  0
VERTEX
  5
B3D
  8
RULER
 10
1.282985270725882
 20
23.04630469247948
 30
0.0
  0
SEQEND
  5
E8F
  8
RULER
  0
POLYLINE
  5
2D9
  8
RULER
 66
     1
 10
0.0
 20
0.0
 30
0.0
  0
VERTEX
  5
B3E
  8
RULER
 10
1.493111967391951
 20
24.24329669847936
 30
0.0
 42
-0.4238676972146167
  0
VERTEX
  5
B3F
  8
RULER
 10
1.568111967391951
 20
24.32079669847936
 30
0.0
 42
-0.4139114804918755
  0
VERTEX
  5
B40
  8
RULER
 10
1.643111967391951
 20
24.24579669847935
 30
0.0
 42
-0.1946370063820205
  0
VERTEX
  5
B41
  8
RULER
 10
1.620611967391951
 20
24.19329669847935
 30
0.0
  0
VERTEX
  5
B42
  8
RULER
 10
1.495611967391951
 20
24.06829669847935
 30
0.0
  0
VERTEX
  5
B43
  8
RULER
 10
1.655611967391951
 20
24.06829669847935
 30
0.0
  0
SEQEND
  5
E90
  8
RULER
  0
POLYLINE
  5
2DA
  8
RULER
 66
     1
 10
0.0
 20
0.0
 30
0.0
  0
VERTEX
  5
B44
  8
RULER
 10
1.883111967391951
 20
24.11329669847936
 30
0.0
  0
VERTEX
  5
B45
  8
RULER
 10
1.705611967391951
 20
24.11329669847936
 30
0.0
  0
VERTEX
  5
B46
  8
RULER
 10
1.845611967391951
 20
24.31829669847935
 30
0.0
  0
VERTEX
  5
B47
  8
RULER
 10
1.845611967391951
 20
24.06829669847935
 30
0.0
  0
SEQEND
  5
E91
  8
RULER
  0
POLYLINE
  5
2DB
  8
RULER
 66
     1
 10
0.0
 20
0.0
 30
0.0
  0
VERTEX
  5
B48
  8
RULER
 10
1.070651937392548
 20
25.15880469247948
 30
0.0
 42
-0.4238676972146167
  0
VERTEX
  5
B49
  8
RULER
 10
1.145651937392548
 20
25.23630469247948
 30
0.0
 42
-0.4139114804918755
  0
VERTEX
  5
B4A
  8
RULER
 10
1.220651937392548
 20
25.16130469247948
 30
0.0
 42
-0.1946370063820205
  0
VERTEX
  5
B4B
  8
RULER
 10
1.198151937392548
 20
25.10880469247948
 30
0.0
  0
VERTEX
  5
B4C
  8
RULER
 10
1.073151937392548
 20
24.98380469247948
 30
0.0
  0
VERTEX
  5
B4D
  8
RULER
 10
1.233151937392548
 20
24.98380469247948
 30
0.0
  0
SEQEND
  5
E92
  8
RULER
  0
POLYLINE
  5
2DC
  8
RULER
 66
     1
 10
0.0
 20
0.0
 30
0.0
  0
VERTEX
  5
B4E
  8
RULER
 10
1.268151937392549
 20
25.06130469247948
 30
0.0
 42
0.8576084699939476
  0
VERTEX
  5
B4F
  8
RULER
 10
1.435318604059215
 20
25.04380469247948
 30
0.0
 42
0.8394311096568591
  0
VERTEX
  5
B50
  8
RULER
 10
1.283151937392549
 20
25.11380469247948
 30
0.0
  0
VERTEX
  5
B51
  8
RULER
 10
1.303151937392549
 20
25.23380469247948
 30
0.0
  0
VERTEX
  5
B52
  8
RULER
 10
1.420651937392549
 20
25.23380469247948
 30
0.0
  0
SEQEND
  5
E93
  8
RULER
  0
POLYLINE
  5
2DD
  8
RULER
 66
     1
 10
0.0
 20
0.0
 30
0.0
  0
VERTEX
  5
B53
  8
RULER
 10
1.493111967391951
 20
26.24329669847936
 30
0.0
 42
-0.4238676972146167
  0
VERTEX
  5
B54
  8
RULER
 10
1.568111967391951
 20
26.32079669847936
 30
0.0
 42
-0.4139114804918755
  0
VERTEX
  5
B55
  8
RULER
 10
1.643111967391951
 20
26.24579669847935
 30
0.0
 42
-0.1946370063820205
  0
VERTEX
  5
B56
  8
RULER
 10
1.620611967391951
 20
26.19329669847935
 30
0.0
  0
VERTEX
  5
B57
  8
RULER
 10
1.495611967391951
 20
26.06829669847935
 30
0.0
  0
VERTEX
  5
B58
  8
RULER
 10
1.655611967391951
 20
26.06829669847935
 30
0.0
  0
SEQEND
  5
E94
  8
RULER
  0
POLYLINE
  5
2DE
  8
RULER
 66
     1
 10
0.0
 20
0.0
 30
0.0
 70
     1
  0
VERTEX
  5
B59
  8
RULER
 10
1.790611967391951
 20
26.06579669847935
 30
0.0
  0
VERTEX
  5
B5A
  8
RULER
 10
1.799302723622797
 20
26.0662355438973
 30
0.0
  0
VERTEX
  5
B5B
  8
RULER
 10
1.807742432136357
 20
26.06752359637301
 30
0.0
  0
VERTEX
  5
B5C
  8
RULER
 10
1.815888367265456
 20
26.06961813023932
 30
0.0
  0
VERTEX
  5
B5D
  8
RULER
 10
1.823697803342915
 20
26.07247641982903
 30
0.0
  0
VERTEX
  5
B5E
  8
RULER
 10
1.831128014701557
 20
26.07605573947499
 30
0.0
  0
VERTEX
  5
B5F
  8
RULER
 10
1.838136275674205
 20
26.08031336351
 30
0.0
  0
VERTEX
  5
B60
  8
RULER
 10
1.844679860593681
 20
26.0852065662669
 30
0.0
  0
VERTEX
  5
B61
  8
RULER
 10
1.850716043792808
 20
26.0906926220785
 30
0.0
  0
VERTEX
  5
B62
  8
RULER
 10
1.856202099604408
 20
26.09672880527762
 30
0.0
  0
VERTEX
  5
B63
  8
RULER
 10
1.861095302361303
 20
26.1032723901971
 30
0.0
  0
VERTEX
  5
B64
  8
RULER
 10
1.865352926396318
 20
26.11028065116975
 30
0.0
  0
VERTEX
  5
B65
  8
RULER
 10
1.868932246042272
 20
26.11771086252839
 30
0.0
  0
VERTEX
  5
B66
  8
RULER
 10
1.871790535631991
 20
26.12552029860585
 30
0.0
  0
VERTEX
  5
B67
  8
RULER
 10
1.873885069498295
 20
26.13366623373495
 30
0.0
  0
VERTEX
  5
B68
  8
RULER
 10
1.875173121974007
 20
26.14210594224851
 30
0.0
  0
VERTEX
  5
B69
  8
RULER
 10
1.875611967391951
 20
26.15079669847935
 30
0.0
  0
VERTEX
  5
B6A
  8
RULER
 10
1.875173121974007
 20
26.1594874547102
 30
0.0
  0
VERTEX
  5
B6B
  8
RULER
 10
1.873885069498295
 20
26.16792716322376
 30
0.0
  0
VERTEX
  5
B6C
  8
RULER
 10
1.871790535631991
 20
26.17607309835286
 30
0.0
  0
VERTEX
  5
B6D
  8
RULER
 10
1.868932246042272
 20
26.18388253443032
 30
0.0
  0
VERTEX
  5
B6E
  8
RULER
 10
1.865352926396318
 20
26.19131274578896
 30
0.0
  0
VERTEX
  5
B6F
  8
RULER
 10
1.861095302361303
 20
26.19832100676161
 30
0.0
  0
VERTEX
  5
B70
  8
RULER
 10
1.856202099604408
 20
26.20486459168109
 30
0.0
  0
VERTEX
  5
B71
  8
RULER
 10
1.850716043792808
 20
26.21090077488021
 30
0.0
  0
VERTEX
  5
B72
  8
RULER
 10
1.844679860593681
 20
26.21638683069181
 30
0.0
  0
VERTEX
  5
B73
  8
RULER
 10
1.838136275674205
 20
26.22128003344871
 30
0.0
  0
VERTEX
  5
B74
  8
RULER
 10
1.831128014701557
 20
26.22553765748372
 30
0.0
  0
VERTEX
  5
B75
  8
RULER
 10
1.823697803342915
 20
26.22911697712967
 30
0.0
  0
VERTEX
  5
B76
  8
RULER
 10
1.815888367265456
 20
26.23197526671939
 30
0.0
  0
VERTEX
  5
B77
  8
RULER
 10
1.807742432136357
 20
26.2340698005857
 30
0.0
  0
VERTEX
  5
B78
  8
RULER
 10
1.799302723622797
 20
26.23535785306141
 30
0.0
  0
VERTEX
  5
B79
  8
RULER
 10
1.790611967391951
 20
26.23579669847935
 30
0.0
  0
VERTEX
  5
B7A
  8
RULER
 10
1.781921211161106
 20
26.23535785306141
 30
0.0
  0
VERTEX
  5
B7B
  8
RULER
 10
1.773481502647545
 20
26.2340698005857
 30
0.0
  0
VERTEX
  5
B7C
  8
RULER
 10
1.765335567518446
 20
26.23197526671939
 30
0.0
  0
VERTEX
  5
B7D
  8
RULER
 10
1.757526131440987
 20
26.22911697712967
 30
0.0
  0
VERTEX
  5
B7E
  8
RULER
 10
1.750095920082345
 20
26.22553765748372
 30
0.0
  0
VERTEX
  5
B7F
  8
RULER
 10
1.743087659109697
 20
26.22128003344871
 30
0.0
  0
VERTEX
  5
B80
  8
RULER
 10
1.736544074190221
 20
26.21638683069181
 30
0.0
  0
VERTEX
  5
B81
  8
RULER
 10
1.730507890991094
 20
26.21090077488021
 30
0.0
  0
VERTEX
  5
B82
  8
RULER
 10
1.725021835179495
 20
26.20486459168109
 30
0.0
  0
VERTEX
  5
B83
  8
RULER
 10
1.720128632422599
 20
26.19832100676161
 30
0.0
  0
VERTEX
  5
B84
  8
RULER
 10
1.715871008387585
 20
26.19131274578896
 30
0.0
  0
VERTEX
  5
B85
  8
RULER
 10
1.71229168874163
 20
26.18388253443032
 30
0.0
  0
VERTEX
  5
B86
  8
RULER
 10
1.709433399151912
 20
26.17607309835286
 30
0.0
  0
VERTEX
  5
B87
  8
RULER
 10
1.707338865285608
 20
26.16792716322376
 30
0.0
  0
VERTEX
  5
B88
  8
RULER
 10
1.706050812809895
 20
26.1594874547102
 30
0.0
  0
VERTEX
  5
B89
  8
RULER
 10
1.705611967391951
 20
26.15079669847935
 30
0.0
  0
VERTEX
  5
B8A
  8
RULER
 10
1.706050812809895
 20
26.14210594224851
 30
0.0
  0
VERTEX
  5
B8B
  8
RULER
 10
1.707338865285608
 20
26.13366623373495
 30
0.0
  0
VERTEX
  5
B8C
  8
RULER
 10
1.709433399151912
 20
26.12552029860585
 30
0.0
  0
VERTEX
  5
B8D
  8
RULER
 10
1.71229168874163
 20
26.11771086252839
 30
0.0
  0
VERTEX
  5
B8E
  8
RULER
 10
1.715871008387585
 20
26.11028065116975
 30
0.0
  0
VERTEX
  5
B8F
  8
RULER
 10
1.720128632422599
 20
26.1032723901971
 30
0.0
  0
VERTEX
  5
B90
  8
RULER
 10
1.725021835179495
 20
26.09672880527762
 30
0.0
  0
VERTEX
  5
B91
  8
RULER
 10
1.730507890991094
 20
26.0906926220785
 30
0.0
  0
VERTEX
  5
B92
  8
RULER
 10
1.736544074190221
 20
26.0852065662669
 30
0.0
  0
VERTEX
  5
B93
  8
RULER
 10
1.743087659109697
 20
26.08031336351
 30
0.0
  0
VERTEX
  5
B94
  8
RULER
 10
1.750095920082345
 20
26.07605573947499
 30
0.0
  0
VERTEX
  5
B95
  8
RULER
 10
1.757526131440987
 20
26.07247641982903
 30
0.0
  0
VERTEX
  5
B96
  8
RULER
 10
1.765335567518446
 20
26.06961813023932
 30
0.0
  0
VERTEX
  5
B97
  8
RULER
 10
1.773481502647545
 20
26.06752359637301
 30
0.0
  0
VERTEX
  5
B98
  8
RULER
 10
1.781921211161106
 20
26.0662355438973
 30
0.0
  0
SEQEND
  5
E95
  8
RULER
  0
POLYLINE
  5
2DF
  8
RULER
 66
     1
 10
0.0
 20
0.0
 30
0.0
  0
VERTEX
  5
B99
  8
RULER
 10
1.790611967391951
 20
26.06579669847935
 30
0.0
 42
-0.5862971619980313
  0
VERTEX
  5
B9A
  8
RULER
 10
1.718111967391951
 20
26.19579669847936
 30
0.0
  0
VERTEX
  5
B9B
  8
RULER
 10
1.800611967391951
 20
26.32079669847936
 30
0.0
  0
SEQEND
  5
E96
  8
RULER
  0
POLYLINE
  5
2E0
  8
RULER
 66
     1
 10
0.0
 20
0.0
 30
0.0
  0
VERTEX
  5
B9C
  8
RULER
 10
1.070651937392548
 20
27.15880469247948
 30
0.0
 42
-0.4238676972146167
  0
VERTEX
  5
B9D
  8
RULER
 10
1.145651937392548
 20
27.23630469247948
 30
0.0
 42
-0.4139114804918755
  0
VERTEX
  5
B9E
  8
RULER
 10
1.220651937392548
 20
27.16130469247948
 30
0.0
 42
-0.1946370063820205
  0
VERTEX
  5
B9F
  8
RULER
 10
1.198151937392548
 20
27.10880469247948
 30
0.0
  0
VERTEX
  5
BA0
  8
RULER
 10
1.073151937392548
 20
26.98380469247948
 30
0.0
  0
VERTEX
  5
BA1
  8
RULER
 10
1.233151937392548
 20
26.98380469247948
 30
0.0
  0
SEQEND
  5
E97
  8
RULER
  0
POLYLINE
  5
2E1
  8
RULER
 66
     1
 10
0.0
 20
0.0
 30
0.0
  0
VERTEX
  5
BA2
  8
RULER
 10
1.283151937392548
 20
27.23380469247948
 30
0.0
  0
VERTEX
  5
BA3
  8
RULER
 10
1.423151937392548
 20
27.23380469247948
 30
0.0
  0
VERTEX
  5
BA4
  8
RULER
 10
1.313151937392548
 20
26.98380469247948
 30
0.0
  0
SEQEND
  5
E98
  8
RULER
  0
POLYLINE
  5
2E2
  8
RULER
 66
     1
 10
0.0
 20
0.0
 30
0.0
  0
VERTEX
  5
BA5
  8
RULER
 10
1.493111967391951
 20
28.24329669847936
 30
0.0
 42
-0.4238676972146167
  0
VERTEX
  5
BA6
  8
RULER
 10
1.568111967391951
 20
28.32079669847936
 30
0.0
 42
-0.4139114804918755
  0
VERTEX
  5
BA7
  8
RULER
 10
1.643111967391951
 20
28.24579669847935
 30
0.0
 42
-0.1946370063820205
  0
VERTEX
  5
BA8
  8
RULER
 10
1.620611967391951
 20
28.19329669847935
 30
0.0
  0
VERTEX
  5
BA9
  8
RULER
 10
1.495611967391951
 20
28.06829669847935
 30
0.0
  0
VERTEX
  5
BAA
  8
RULER
 10
1.655611967391951
 20
28.06829669847935
 30
0.0
  0
SEQEND
  5
E99
  8
RULER
  0
POLYLINE
  5
2E3
  8
RULER
 66
     1
 10
0.0
 20
0.0
 30
0.0
 70
     1
  0
VERTEX
  5
BAB
  8
RULER
 10
1.775611967391951
 20
28.21079669847935
 30
0.0
  0
VERTEX
  5
BAC
  8
RULER
 10
1.76998853688964
 20
28.2110806572792
 30
0.0
  0
VERTEX
  5
BAD
  8
RULER
 10
1.764527549027924
 20
28.21191410299878
 30
0.0
  0
VERTEX
  5
BAE
  8
RULER
 10
1.759256649826742
 20
28.21326938961816
 30
0.0
  0
VERTEX
  5
BAF
  8
RULER
 10
1.754203485306033
 20
28.21511887111738
 30
0.0
  0
VERTEX
  5
BB0
  8
RULER
 10
1.749395701485735
 20
28.21743490147653
 30
0.0
  0
VERTEX
  5
BB1
  8
RULER
 10
1.744860944385787
 20
28.22018983467565
 30
0.0
  0
VERTEX
  5
BB2
  8
RULER
 10
1.740626860026125
 20
28.22335602469482
 30
0.0
  0
VERTEX
  5
BB3
  8
RULER
 10
1.736721094426691
 20
28.22690582551409
 30
0.0
  0
VERTEX
  5
BB4
  8
RULER
 10
1.73317129360742
 20
28.23081159111353
 30
0.0
  0
VERTEX
  5
BB5
  8
RULER
 10
1.730005103588252
 20
28.23504567547319
 30
0.0
  0
VERTEX
  5
BB6
  8
RULER
 10
1.727250170389126
 20
28.23958043257313
 30
0.0
  0
VERTEX
  5
BB7
  8
RULER
 10
1.724934140029978
 20
28.24438821639344
 30
0.0
  0
VERTEX
  5
BB8
  8
RULER
 10
1.723084658530749
 20
28.24944138091415
 30
0.0
  0
VERTEX
  5
BB9
  8
RULER
 10
1.721729371911376
 20
28.25471228011533
 30
0.0
  0
VERTEX
  5
BBA
  8
RULER
 10
1.720895926191797
 20
28.26017326797704
 30
0.0
  0
VERTEX
  5
BBB
  8
RULER
 10
1.720611967391951
 20
28.26579669847936
 30
0.0
  0
VERTEX
  5
BBC
  8
RULER
 10
1.720895926191797
 20
28.27142012898167
 30
0.0
  0
VERTEX
  5
BBD
  8
RULER
 10
1.721729371911376
 20
28.27688111684338
 30
0.0
  0
VERTEX
  5
BBE
  8
RULER
 10
1.723084658530749
 20
28.28215201604457
 30
0.0
  0
VERTEX
  5
BBF
  8
RULER
 10
1.724934140029978
 20
28.28720518056527
 30
0.0
  0
VERTEX
  5
BC0
  8
RULER
 10
1.727250170389126
 20
28.29201296438557
 30
0.0
  0
VERTEX
  5
BC1
  8
RULER
 10
1.730005103588252
 20
28.29654772148552
 30
0.0
  0
VERTEX
  5
BC2
  8
RULER
 10
1.73317129360742
 20
28.30078180584518
 30
0.0
  0
VERTEX
  5
BC3
  8
RULER
 10
1.736721094426691
 20
28.30468757144462
 30
0.0
  0
VERTEX
  5
BC4
  8
RULER
 10
1.740626860026125
 20
28.30823737226389
 30
0.0
  0
VERTEX
  5
BC5
  8
RULER
 10
1.744860944385787
 20
28.31140356228305
 30
0.0
  0
VERTEX
  5
BC6
  8
RULER
 10
1.749395701485735
 20
28.31415849548218
 30
0.0
  0
VERTEX
  5
BC7
  8
RULER
 10
1.754203485306033
 20
28.31647452584133
 30
0.0
  0
VERTEX
  5
BC8
  8
RULER
 10
1.759256649826742
 20
28.31832400734056
 30
0.0
  0
VERTEX
  5
BC9
  8
RULER
 10
1.764527549027924
 20
28.31967929395993
 30
0.0
  0
VERTEX
  5
BCA
  8
RULER
 10
1.76998853688964
 20
28.32051273967951
 30
0.0
  0
VERTEX
  5
BCB
  8
RULER
 10
1.775611967391951
 20
28.32079669847936
 30
0.0
  0
VERTEX
  5
BCC
  8
RULER
 10
1.781235397894263
 20
28.32051273967951
 30
0.0
  0
VERTEX
  5
BCD
  8
RULER
 10
1.786696385755978
 20
28.31967929395993
 30
0.0
  0
VERTEX
  5
BCE
  8
RULER
 10
1.79196728495716
 20
28.31832400734056
 30
0.0
  0
VERTEX
  5
BCF
  8
RULER
 10
1.797020449477869
 20
28.31647452584133
 30
0.0
  0
VERTEX
  5
BD0
  8
RULER
 10
1.801828233298167
 20
28.31415849548218
 30
0.0
  0
VERTEX
  5
BD1
  8
RULER
 10
1.806362990398116
 20
28.31140356228305
 30
0.0
  0
VERTEX
  5
BD2
  8
RULER
 10
1.810597074757777
 20
28.30823737226389
 30
0.0
  0
VERTEX
  5
BD3
  8
RULER
 10
1.814502840357211
 20
28.30468757144462
 30
0.0
  0
VERTEX
  5
BD4
  8
RULER
 10
1.818052641176482
 20
28.30078180584518
 30
0.0
  0
VERTEX
  5
BD5
  8
RULER
 10
1.82121883119565
 20
28.29654772148552
 30
0.0
  0
VERTEX
  5
BD6
  8
RULER
 10
1.823973764394776
 20
28.29201296438557
 30
0.0
  0
VERTEX
  5
BD7
  8
RULER
 10
1.826289794753924
 20
28.28720518056527
 30
0.0
  0
VERTEX
  5
BD8
  8
RULER
 10
1.828139276253153
 20
28.28215201604457
 30
0.0
  0
VERTEX
  5
BD9
  8
RULER
 10
1.829494562872526
 20
28.27688111684338
 30
0.0
  0
VERTEX
  5
BDA
  8
RULER
 10
1.830328008592105
 20
28.27142012898167
 30
0.0
  0
VERTEX
  5
BDB
  8
RULER
 10
1.830611967391951
 20
28.26579669847936
 30
0.0
  0
VERTEX
  5
BDC
  8
RULER
 10
1.830328008592105
 20
28.26017326797704
 30
0.0
  0
VERTEX
  5
BDD
  8
RULER
 10
1.829494562872526
 20
28.25471228011533
 30
0.0
  0
VERTEX
  5
BDE
  8
RULER
 10
1.828139276253153
 20
28.24944138091415
 30
0.0
  0
VERTEX
  5
BDF
  8
RULER
 10
1.826289794753924
 20
28.24438821639344
 30
0.0
  0
VERTEX
  5
BE0
  8
RULER
 10
1.823973764394776
 20
28.23958043257313
 30
0.0
  0
VERTEX
  5
BE1
  8
RULER
 10
1.82121883119565
 20
28.23504567547319
 30
0.0
  0
VERTEX
  5
BE2
  8
RULER
 10
1.818052641176482
 20
28.23081159111353
 30
0.0
  0
VERTEX
  5
BE3
  8
RULER
 10
1.814502840357211
 20
28.22690582551409
 30
0.0
  0
VERTEX
  5
BE4
  8
RULER
 10
1.810597074757777
 20
28.22335602469482
 30
0.0
  0
VERTEX
  5
BE5
  8
RULER
 10
1.806362990398116
 20
28.22018983467565
 30
0.0
  0
VERTEX
  5
BE6
  8
RULER
 10
1.801828233298167
 20
28.21743490147653
 30
0.0
  0
VERTEX
  5
BE7
  8
RULER
 10
1.797020449477869
 20
28.21511887111738
 30
0.0
  0
VERTEX
  5
BE8
  8
RULER
 10
1.79196728495716
 20
28.21326938961816
 30
0.0
  0
VERTEX
  5
BE9
  8
RULER
 10
1.786696385755978
 20
28.21191410299878
 30
0.0
  0
VERTEX
  5
BEA
  8
RULER
 10
1.781235397894263
 20
28.2110806572792
 30
0.0
  0
SEQEND
  5
E9A
  8
RULER
  0
POLYLINE
  5
2E4
  8
RULER
 66
     1
 10
0.0
 20
0.0
 30
0.0
 70
     1
  0
VERTEX
  5
BEB
  8
RULER
 10
1.775611967391951
 20
28.21079669847935
 30
0.0
 42
-0.4142857142857143
  0
VERTEX
  5
BEC
  8
RULER
 10
1.845611967391951
 20
28.14079669847936
 30
0.0
  0
VERTEX
  5
BED
  8
RULER
 10
1.845611967391951
 20
28.13579669847935
 30
0.0
 42
-1.0
  0
VERTEX
  5
BEE
  8
RULER
 10
1.705611967391951
 20
28.13579669847935
 30
0.0
  0
VERTEX
  5
BEF
  8
RULER
 10
1.705611967391951
 20
28.14079669847936
 30
0.0
 42
-0.4142857142857144
  0
SEQEND
  5
E9B
  8
RULER
  0
POLYLINE
  5
2E5
  8
RULER
 66
     1
 10
0.0
 20
0.0
 30
0.0
  0
VERTEX
  5
BF0
  8
RULER
 10
1.070651937392548
 20
29.15880469247948
 30
0.0
 42
-0.4238676972146167
  0
VERTEX
  5
BF1
  8
RULER
 10
1.145651937392548
 20
29.23630469247948
 30
0.0
 42
-0.4139114804918755
  0
VERTEX
  5
BF2
  8
RULER
 10
1.220651937392548
 20
29.16130469247948
 30
0.0
 42
-0.1946370063820205
  0
VERTEX
  5
BF3
  8
RULER
 10
1.198151937392548
 20
29.10880469247948
 30
0.0
  0
VERTEX
  5
BF4
  8
RULER
 10
1.073151937392548
 20
28.98380469247948
 30
0.0
  0
VERTEX
  5
BF5
  8
RULER
 10
1.233151937392548
 20
28.98380469247948
 30
0.0
  0
SEQEND
  5
E9C
  8
RULER
  0
POLYLINE
  5
2E6
  8
RULER
 66
     1
 10
0.0
 20
0.0
 30
0.0
  0
VERTEX
  5
BF6
  8
RULER
 10
1.358151937392549
 20
28.98380469247948
 30
0.0
  0
VERTEX
  5
BF7
  8
RULER
 10
1.440651937392549
 20
29.10880469247948
 30
0.0
 42
0.1380051253523702
  0
VERTEX
  5
BF8
  8
RULER
 10
1.453151937392549
 20
29.15130469247948
 30
0.0
 42
1.0
  0
VERTEX
  5
BF9
  8
RULER
 10
1.283151937392549
 20
29.15130469247948
 30
0.0
 42
0.7699957824736615
  0
VERTEX
  5
BFA
  8
RULER
 10
1.440651937392549
 20
29.10880469247948
 30
0.0
  0
SEQEND
  5
E9D
  8
RULER
  0
POLYLINE
  5
2E7
  8
RULER
 66
     1
 10
0.0
 20
0.0
 30
0.0
  0
VERTEX
  5
BFB
  8
RULER
 10
1.505611967391951
 20
30.25829669847936
 30
0.0
 42
-0.4548493327042687
  0
VERTEX
  5
BFC
  8
RULER
 10
1.560611967391951
 20
30.32129669847935
 30
0.0
 42
-0.4114350750726344
  0
VERTEX
  5
BFD
  8
RULER
 10
1.615611967391951
 20
30.26579669847936
 30
0.0
  0
VERTEX
  5
BFE
  8
RULER
 10
1.615611967391951
 20
30.25829669847936
 30
0.0
 42
-0.4121212121212124
  0
VERTEX
  5
BFF
  8
RULER
 10
1.560611967391951
 20
30.20329669847936
 30
0.0
  0
VERTEX
  5
C00
  8
RULER
 10
1.548111967391951
 20
30.20329669847936
 30
0.0
  0
VERTEX
  5
C01
  8
RULER
 10
1.563111967391951
 20
30.20329669847936
 30
0.0
 42
-0.4142857142857143
  0
VERTEX
  5
C02
  8
RULER
 10
1.633111967391951
 20
30.13329669847936
 30
0.0
 42
-0.9462693881493045
  0
VERTEX
  5
C03
  8
RULER
 10
1.493111967391951
 20
30.13079669847935
 30
0.0
  0
SEQEND
  5
E9E
  8
RULER
  0
POLYLINE
  5
2E8
  8
RULER
 66
     1
 10
0.0
 20
0.0
 30
0.0
 70
     1
  0
VERTEX
  5
C04
  8
RULER
 10
1.808111967391951
 20
30.06579669847935
 30
0.0
  0
VERTEX
  5
C05
  8
RULER
 10
1.810611967391951
 20
30.06579669847935
 30
0.0
 42
0.4133333333333333
  0
VERTEX
  5
C06
  8
RULER
 10
1.935611967391951
 20
30.19079669847935
 30
0.0
  0
VERTEX
  5
C07
  8
RULER
 10
1.935611967391951
 20
30.19329669847935
 30
0.0
 42
0.4133333333333333
  0
VERTEX
  5
C08
  8
RULER
 10
1.810611967391951
 20
30.31829669847935
 30
0.0
  0
VERTEX
  5
C09
  8
RULER
 10
1.808111967391951
 20
30.31829669847935
 30
0.0
 42
0.4133333333333333
  0
VERTEX
  5
C0A
  8
RULER
 10
1.683111967391951
 20
30.19329669847935
 30
0.0
  0
VERTEX
  5
C0B
  8
RULER
 10
1.683111967391951
 20
30.19079669847935
 30
0.0
 42
0.4133333333333333
  0
SEQEND
  5
E9F
  8
RULER
  0
POLYLINE
  5
2E9
  8
RULER
 66
     1
 10
0.0
 20
0.0
 30
0.0
  0
VERTEX
  5
C0C
  8
RULER
 10
1.505611967391951
 20
31.25829669847936
 30
0.0
 42
-0.4548493327042687
  0
VERTEX
  5
C0D
  8
RULER
 10
1.560611967391951
 20
31.32129669847935
 30
0.0
 42
-0.4114350750726344
  0
VERTEX
  5
C0E
  8
RULER
 10
1.615611967391951
 20
31.26579669847936
 30
0.0
  0
VERTEX
  5
C0F
  8
RULER
 10
1.615611967391951
 20
31.25829669847936
 30
0.0
 42
-0.4121212121212124
  0
VERTEX
  5
C10
  8
RULER
 10
1.560611967391951
 20
31.20329669847936
 30
0.0
  0
VERTEX
  5
C11
  8
RULER
 10
1.548111967391951
 20
31.20329669847936
 30
0.0
  0
VERTEX
  5
C12
  8
RULER
 10
1.563111967391951
 20
31.20329669847936
 30
0.0
 42
-0.4142857142857143
  0
VERTEX
  5
C13
  8
RULER
 10
1.633111967391951
 20
31.13329669847936
 30
0.0
 42
-0.9462693881493045
  0
VERTEX
  5
C14
  8
RULER
 10
1.493111967391951
 20
31.13079669847935
 30
0.0
  0
SEQEND
  5
EA0
  8
RULER
  0
POLYLINE
  5
2EA
  8
RULER
 66
     1
 10
0.0
 20
0.0
 30
0.0
  0
VERTEX
  5
C15
  8
RULER
 10
1.683111967391951
 20
31.31829669847935
 30
0.0
  0
VERTEX
  5
C16
  8
RULER
 10
1.750611967391951
 20
31.31829669847935
 30
0.0
  0
VERTEX
  5
C17
  8
RULER
 10
1.750611967391951
 20
31.06829669847935
 30
0.0
  0
SEQEND
  5
EA1
  8
RULER
  0
POLYLINE
  5
2EB
  8
RULER
 66
     1
 10
0.0
 20
0.0
 30
0.0
  0
VERTEX
  5
C18
  8
RULER
 10
1.083151937392548
 20
31.86114060547961
 30
0.0
 42
-0.4548493327042687
  0
VERTEX
  5
C19
  8
RULER
 10
1.138151937392548
 20
31.92414060547961
 30
0.0
 42
-0.4114350750726344
  0
VERTEX
  5
C1A
  8
RULER
 10
1.193151937392548
 20
31.86864060547961
 30
0.0
  0
VERTEX
  5
C1B
  8
RULER
 10
1.193151937392548
 20
31.86114060547961
 30
0.0
 42
-0.4121212121212124
  0
VERTEX
  5
C1C
  8
RULER
 10
1.138151937392548
 20
31.80614060547961
 30
0.0
  0
VERTEX
  5
C1D
  8
RULER
 10
1.125651937392548
 20
31.80614060547961
 30
0.0
  0
VERTEX
  5
C1E
  8
RULER
 10
1.140651937392548
 20
31.80614060547961
 30
0.0
 42
-0.4142857142857143
  0
VERTEX
  5
C1F
  8
RULER
 10
1.210651937392548
 20
31.73614060547961
 30
0.0
 42
-0.9462693881493045
  0
VERTEX
  5
C20
  8
RULER
 10
1.070651937392548
 20
31.73364060547961
 30
0.0
  0
SEQEND
  5
EA2
  8
RULER
  0
POLYLINE
  5
2EC
  8
RULER
 66
     1
 10
0.0
 20
0.0
 30
0.0
  0
VERTEX
  5
C21
  8
RULER
 10
1.260651937392548
 20
31.84614060547961
 30
0.0
 42
-0.4238676972146167
  0
VERTEX
  5
C22
  8
RULER
 10
1.335651937392548
 20
31.92364060547961
 30
0.0
 42
-0.4139114804918755
  0
VERTEX
  5
C23
  8
RULER
 10
1.410651937392549
 20
31.84864060547961
 30
0.0
 42
-0.1946370063820205
  0
VERTEX
  5
C24
  8
RULER
 10
1.388151937392548
 20
31.79614060547961
 30
0.0
  0
VERTEX
  5
C25
  8
RULER
 10
1.263151937392548
 20
31.67114060547961
 30
0.0
  0
VERTEX
  5
C26
  8
RULER
 10
1.423151937392549
 20
31.67114060547961
 30
0.0
  0
SEQEND
  5
EA3
  8
RULER
  0
ENDSEC
  0
EOF
