0
SECTION
2
HEADER
9
$INSUNITS
70
1
9
$ACADVER
1
AC1014
9
$HANDSEED
5
FFFF
0
ENDSEC
0
SECTION
2
TABLES
0
TABLE
2
VPORT
5
8
100
AcDbSymbolTable
0
ENDTAB
0
TABLE
2
LTYPE
5
5
100
AcDbSymbolTable
0
LTYPE
5
14
100
AcDbSymbolTableRecord
100
AcDbLinetypeTableRecord
2
BYBLOCK
70
0
0
LTYPE
5
15
100
AcDbSymbolTableRecord
100
AcDbLinetypeTableRecord
2
BYLAYER
70
0
0
ENDTAB
0
TABLE
2
LAYER
5
2
100
AcDbSymbolTable
70
2
0
LAYER
5
50
100
AcDbSymbolTableRecord
100
AcDbLayerTableRecord
2
0
70
0
6
CONTINUOUS
0
ENDTAB
0
TABLE
2
STYLE
5
3
100
AcDbSymbolTable
70
1
0
STYLE
5
11
100
AcDbSymbolTableRecord
100
AcDbTextStyleTableRecord
2
STANDARD
70
0
0
ENDTAB
0
TABLE
2
VIEW
5
6
100
AcDbSymbolTable
70
0
0
ENDTAB
0
TABLE
2
UCS
5
7
100
AcDbSymbolTable
70
0
0
ENDTAB
0
TABLE
2
APPID
5
9
100
AcDbSymbolTable
70
2
0
APPID
5
12
100
AcDbSymbolTableRecord
100
AcDbRegAppTableRecord
2
ACAD
70
0
0
ENDTAB
0
TABLE
2
DIMSTYLE
5
A
100
AcDbSymbolTable
70
1
0
ENDTAB
0
TABLE
2
BLOCK_RECORD
5
1
100
AcDbSymbolTable
70
1
0
BLOCK_RECORD
5
1F
100
AcDbSymbolTableRecord
100
AcDbBlockTableRecord
2
*MODEL_SPACE
0
BLOCK_RECORD
5
1B
100
AcDbSymbolTableRecord
100
AcDbBlockTableRecord
2
*PAPER_SPACE
0
ENDTAB
0
ENDSEC
0
SECTION
2
BLOCKS
0
BLOCK
5
20
100
AcDbEntity
100
AcDbBlockBegin
2
*MODEL_SPACE
0
ENDBLK
5
21
100
AcDbEntity
100
AcDbBlockEnd
0
BLOCK
5
1C
100
AcDbEntity
100
AcDbBlockBegin
2
*PAPER_SPACE
0
ENDBLK
5
1D
100
AcDbEntity
100
AcDbBlockEnd
0
ENDSEC
0
SECTION
2
ENTITIES
0
LWPOLYLINE
5
100
100
AcDbEntity
8
0
100
AcDbPolyline
90
4
70
1
43
0.0
10
-9.192388155425121
20
-1.4200000525647261
10
-4.38091015542512
20
-1.4200000525647261
10
-4.38091015542512
20
-4.5385714811361542
10
-9.192388155425121
20
-4.5385714811361542
0
LWPOLYLINE
5
101
100
AcDbEntity
8
0
100
AcDbPolyline
90
13
70
1
43
0.0
10
-4.38091015542512
20
2.9999999474352728
10
-9.192388155425121
20
2.9999999474352737
10
-9.192388155425121
20
3.3615231597023323
10
-8.6423881554251185
20
3.3615231597023318
42
0.41421356237309404
10
-8.4423881554251192
20
3.561523159702332
10
-8.442388155425121
20
6.6115231597023305
10
-9.192388155425121
20
5.8615231597023305
10
-9.192388155425121
20
9.192388155425121
10
-6.6952008147916748
20
6.6952008147916739
42
-0.1989123673796557
10
-6.5487542053849497
20
6.3416474241984018
10
-6.5487542053849497
20
3.9999999474352732
42
0.41421356237309381
10
-6.0487542053849497
20
3.4999999474352741
10
-4.8809101554251217
20
3.4999999474352737
42
-0.41421356237309503
0
LWPOLYLINE
5
102
100
AcDbEntity
8
0
100
AcDbPolyline
90
4
70
1
43
0.0
10
-9.192388155425121
20
2.2899999474352741
10
-9.192388155425121
20
2.9999999474352737
10
-4.38091015542512
20
2.9999999474352737
10
-4.38091015542512
20
2.2899999474352741
0
LWPOLYLINE
5
103
100
AcDbEntity
8
0
100
AcDbPolyline
90
4
70
1
43
0.0
10
-4.38091015542512
20
-0.7100000525647262
10
-9.192388155425121
20
-0.7100000525647262
10
-9.192388155425121
20
2.2899999474352741
10
-4.38091015542512
20
2.2899999474352741
0
LWPOLYLINE
5
104
100
AcDbEntity
8
0
100
AcDbPolyline
90
4
70
1
43
0.0
10
-9.192388155425121
20
-1.4200000525647261
10
-9.192388155425121
20
-0.7100000525647262
10
-4.38091015542512
20
-0.7100000525647262
10
-4.38091015542512
20
-1.4200000525647261
0
LWPOLYLINE
5
105
100
AcDbEntity
8
0
100
AcDbPolyline
90
4
70
1
43
0.0
10
-9.192388155425121
20
-5.2485714811361541
10
-9.192388155425121
20
-4.5385714811361542
10
-4.38091015542512
20
-4.5385714811361542
10
-4.38091015542512
20
-5.2485714811361541
0
LWPOLYLINE
5
106
100
AcDbEntity
8
0
100
AcDbPolyline
90
4
70
1
43
0.0
10
-9.192388155425121
20
-5.2485714811361541
10
-4.38091015542512
20
-5.2485714811361541
10
-4.38091015542512
20
-8.2885714811361542
10
-9.192388155425121
20
-8.2885714811361542
0
LWPOLYLINE
5
107
100
AcDbEntity
8
0
100
AcDbPolyline
90
4
70
1
43
0.0
10
-9.192388155425121
20
-8.9985714811361532
10
-9.192388155425121
20
-8.2885714811361542
10
-4.38091015542512
20
-8.2885714811361542
10
-4.38091015542512
20
-8.9985714811361532
0
LWPOLYLINE
5
108
100
AcDbEntity
8
0
100
AcDbPolyline
90
4
70
1
43
0.0
10
-9.192388155425121
20
-8.9985714811361532
10
-4.38091015542512
20
-8.9985714811361532
10
-4.3809101554251209
20
-10.140259643971357
10
-9.192388155425121
20
-10.140259643971353
0
LWPOLYLINE
5
109
100
AcDbEntity
8
0
100
AcDbPolyline
90
13
70
1
43
0.0
10
-9.567388155425121
20
5.8615231597023296
10
-9.567388155425121
20
9.192388155425121
10
-12.064575496058568
20
6.6952008147916748
42
0.19891236737965604
10
-12.211022105465291
20
6.3416474241984018
10
-12.211022105465291
20
3.9999999474352719
42
-0.41421356237309342
10
-12.711022105465293
20
3.4999999474352737
10
-13.87886615542512
20
3.4999999474352737
42
0.41421356237309503
10
-14.37886615542512
20
2.9999999474352723
10
-9.567388155425121
20
2.9999999474352754
10
-9.567388155425121
20
3.3615231597023323
10
-10.117388155425123
20
3.361523159702331
42
-0.41421356237309304
10
-10.317388155425121
20
3.5615231597023307
10
-10.317388155425119
20
6.6115231597023305
0
LWPOLYLINE
5
110
100
AcDbEntity
8
0
100
AcDbPolyline
90
4
70
1
43
0.0
10
-9.567388155425121
20
-0.7100000525647262
10
-9.567388155425121
20
2.2899999474352741
10
-14.37886615542512
20
2.2899999474352741
10
-14.37886615542512
20
-0.7100000525647262
0
LWPOLYLINE
5
111
100
AcDbEntity
8
0
100
AcDbPolyline
90
4
70
1
43
0.0
10
-9.567388155425121
20
-4.5385714811361542
10
-14.37886615542512
20
-4.5385714811361542
10
-14.37886615542512
20
-5.2485714811361541
10
-9.567388155425121
20
-5.2485714811361541
0
LWPOLYLINE
5
112
100
AcDbEntity
8
0
100
AcDbPolyline
90
4
70
1
43
0.0
10
-14.37886615542512
20
2.9999999474352754
10
-14.37886615542512
20
2.2899999474352741
10
-9.567388155425121
20
2.2899999474352741
10
-9.567388155425121
20
2.9999999474352754
0
LWPOLYLINE
5
113
100
AcDbEntity
8
0
100
AcDbPolyline
90
4
70
1
43
0.0
10
-9.567388155425121
20
-8.2885714811361542
10
-9.567388155425121
20
-5.2485714811361541
10
-14.37886615542512
20
-5.2485714811361541
10
-14.37886615542512
20
-8.2885714811361542
0
LWPOLYLINE
5
114
100
AcDbEntity
8
0
100
AcDbPolyline
90
4
70
1
43
0.0
10
-9.567388155425121
20
-8.9985714811361532
10
-9.567388155425121
20
-8.2885714811361542
10
-14.37886615542512
20
-8.2885714811361542
10
-14.37886615542512
20
-8.9985714811361532
0
LWPOLYLINE
5
115
100
AcDbEntity
8
0
100
AcDbPolyline
90
4
70
1
43
0.0
10
-9.567388155425121
20
-8.9985714811361532
10
-14.37886615542512
20
-8.9985714811361532
10
-14.37886615542512
20
-10.140259643971357
10
-9.567388155425121
20
-10.140259643971353
0
LWPOLYLINE
5
116
100
AcDbEntity
8
0
100
AcDbPolyline
90
4
70
1
43
0.0
10
-14.37886615542512
20
-0.7100000525647262
10
-14.37886615542512
20
-1.4200000525647261
10
-9.567388155425121
20
-1.4200000525647261
10
-9.567388155425121
20
-0.7100000525647262
0
LWPOLYLINE
5
117
100
AcDbEntity
8
0
100
AcDbPolyline
90
4
70
1
43
0.0
10
-9.567388155425121
20
-1.4200000525647261
10
-14.37886615542512
20
-1.4200000525647261
10
-14.37886615542512
20
-4.5385714811361542
10
-9.567388155425121
20
-4.5385714811361542
0
ENDSEC
0
SECTION
2
OBJECTS
0
DICTIONARY
5
C
100
AcDbDictionary
3
ACAD_GROUP
350
D
3
ACAD_MLINESTYLE
350
17
0
DICTIONARY
5
D
100
AcDbDictionary
0
DICTIONARY
5
1A
330
C
100
AcDbDictionary
0
DICTIONARY
5
17
100
AcDbDictionary
0
ENDSEC
0
EOF
