  0
SECTION
  2
HEADER
  9
$ACADVER
  1
AC1009
  9
$EXTMIN
 10
-0.14126760
 20
-0.00098038
 30
0.0
  9
$EXTMAX
 10
31.99994636
 20
31.99901962
 30
0.0
  0
ENDSEC
  0
SECTION
  2
TABLES
  0
TABLE
  2
LAYER
 70
1
 0
LAYER
 2
Default_Layer
 70
0
 62
18
 6
CONTINUOUS
 0
ENDTAB
 0
ENDSEC
  0
SECTION
  2
ENTITIES
  0
POLYLINE
  8
Default_Layer
 62
256
 66
   1
 39
0.000000
 70
    0
  0
VERTEX
  8
0
 10
-0.00005364
 20
11.99901962
  0
VERTEX
  8
0
 10
1.99994636
 20
11.99901962
  0
VERTEX
  8
0
 10
3.99994636
 20
11.99901962
  0
VERTEX
  8
0
 10
5.99994636
 20
11.99901962
  0
VERTEX
  8
0
 10
7.99994636
 20
11.99901962
  0
VERTEX
  8
0
 10
9.99994636
 20
11.99901962
  0
VERTEX
  8
0
 10
11.99994636
 20
11.99901962
  0
VERTEX
  8
0
 10
13.99994636
 20
11.99901962
  0
VERTEX
  8
0
 10
15.99994636
 20
11.99901962
  0
VERTEX
  8
0
 10
17.99994636
 20
11.99901962
  0
VERTEX
  8
0
 10
19.99994636
 20
11.99901962
  0
VERTEX
  8
0
 10
21.99994636
 20
11.99901962
  0
VERTEX
  8
0
 10
23.99994636
 20
11.99901962
  0
VERTEX
  8
0
 10
25.99994636
 20
11.99901962
  0
VERTEX
  8
0
 10
27.99994636
 20
11.99901962
  0
VERTEX
  8
0
 10
29.99994636
 20
11.99901962
  0
VERTEX
  8
0
 10
31.99994636
 20
11.99901962
  0
SEQEND
  0
POLYLINE
  8
Default_Layer
 62
256
 66
   1
 39
0.000000
 70
    0
  0
VERTEX
  8
0
 10
-0.00005364
 20
9.99901962
  0
VERTEX
  8
0
 10
1.99994636
 20
9.99901962
  0
VERTEX
  8
0
 10
3.99994636
 20
9.99901962
  0
VERTEX
  8
0
 10
5.99994636
 20
9.99901962
  0
VERTEX
  8
0
 10
7.99994636
 20
9.99901962
  0
VERTEX
  8
0
 10
9.99994636
 20
9.99901962
  0
VERTEX
  8
0
 10
11.99994636
 20
9.99901962
  0
VERTEX
  8
0
 10
13.99994636
 20
9.99901962
  0
VERTEX
  8
0
 10
15.99994636
 20
9.99901962
  0
VERTEX
  8
0
 10
17.99994636
 20
9.99901962
  0
VERTEX
  8
0
 10
19.99994636
 20
9.99901962
  0
VERTEX
  8
0
 10
21.99994636
 20
9.99901962
  0
VERTEX
  8
0
 10
23.99994636
 20
9.99901962
  0
VERTEX
  8
0
 10
25.99994636
 20
9.99901962
  0
VERTEX
  8
0
 10
27.99994636
 20
9.99901962
  0
VERTEX
  8
0
 10
29.99994636
 20
9.99901962
  0
VERTEX
  8
0
 10
31.99994636
 20
9.99901962
  0
SEQEND
  0
POLYLINE
  8
Default_Layer
 62
256
 66
   1
 39
0.000000
 70
    0
  0
VERTEX
  8
0
 10
-0.00005364
 20
3.99901962
  0
VERTEX
  8
0
 10
1.99994636
 20
3.99901962
  0
VERTEX
  8
0
 10
3.99994636
 20
3.99901962
  0
VERTEX
  8
0
 10
5.99994636
 20
3.99901962
  0
VERTEX
  8
0
 10
7.99994636
 20
3.99901962
  0
VERTEX
  8
0
 10
9.99994636
 20
3.99901962
  0
VERTEX
  8
0
 10
11.99994636
 20
3.99901962
  0
VERTEX
  8
0
 10
13.99994636
 20
3.99901962
  0
VERTEX
  8
0
 10
15.99994636
 20
3.99901962
  0
VERTEX
  8
0
 10
17.99994636
 20
3.99901962
  0
VERTEX
  8
0
 10
19.99994636
 20
3.99901962
  0
VERTEX
  8
0
 10
21.99994636
 20
3.99901962
  0
VERTEX
  8
0
 10
23.99994636
 20
3.99901962
  0
VERTEX
  8
0
 10
25.99994636
 20
3.99901962
  0
VERTEX
  8
0
 10
27.99994636
 20
3.99901962
  0
VERTEX
  8
0
 10
29.99994636
 20
3.99901962
  0
VERTEX
  8
0
 10
31.99994636
 20
3.99901962
  0
SEQEND
  0
POLYLINE
  8
Default_Layer
 62
256
 66
   1
 39
0.000000
 70
    0
  0
VERTEX
  8
0
 10
-0.00005364
 20
1.99901962
  0
VERTEX
  8
0
 10
1.99994636
 20
1.99901962
  0
VERTEX
  8
0
 10
3.99994636
 20
1.99901962
  0
VERTEX
  8
0
 10
5.99994636
 20
1.99901962
  0
VERTEX
  8
0
 10
7.99994636
 20
1.99901962
  0
VERTEX
  8
0
 10
9.99994636
 20
1.99901962
  0
VERTEX
  8
0
 10
11.99994636
 20
1.99901962
  0
VERTEX
  8
0
 10
13.99994636
 20
1.99901962
  0
VERTEX
  8
0
 10
15.99994636
 20
1.99901962
  0
VERTEX
  8
0
 10
17.99994636
 20
1.99901962
  0
VERTEX
  8
0
 10
19.99994636
 20
1.99901962
  0
VERTEX
  8
0
 10
21.99994636
 20
1.99901962
  0
VERTEX
  8
0
 10
23.99994636
 20
1.99901962
  0
VERTEX
  8
0
 10
25.99994636
 20
1.99901962
  0
VERTEX
  8
0
 10
27.99994636
 20
1.99901962
  0
VERTEX
  8
0
 10
29.99994636
 20
1.99901962
  0
VERTEX
  8
0
 10
31.99994636
 20
1.99901962
  0
SEQEND
  0
POLYLINE
  8
Default_Layer
 62
256
 66
   1
 39
0.000000
 70
    0
  0
VERTEX
  8
0
 10
-0.00005364
 20
1.99901962
  0
VERTEX
  8
0
 10
1.99994636
 20
1.99901962
  0
VERTEX
  8
0
 10
3.99994636
 20
1.99901962
  0
VERTEX
  8
0
 10
5.99994636
 20
1.99901962
  0
VERTEX
  8
0
 10
7.99994636
 20
1.99901962
  0
VERTEX
  8
0
 10
9.99994636
 20
1.99901962
  0
VERTEX
  8
0
 10
11.99994636
 20
1.99901962
  0
VERTEX
  8
0
 10
13.99994636
 20
1.99901962
  0
VERTEX
  8
0
 10
15.99994636
 20
1.99901962
  0
VERTEX
  8
0
 10
17.99994636
 20
1.99901962
  0
VERTEX
  8
0
 10
19.99994636
 20
1.99901962
  0
VERTEX
  8
0
 10
21.99994636
 20
1.99901962
  0
VERTEX
  8
0
 10
23.99994636
 20
1.99901962
  0
VERTEX
  8
0
 10
25.99994636
 20
1.99901962
  0
VERTEX
  8
0
 10
27.99994636
 20
1.99901962
  0
VERTEX
  8
0
 10
29.99994636
 20
1.99901962
  0
VERTEX
  8
0
 10
31.99994636
 20
1.99901962
  0
SEQEND
  0
POLYLINE
  8
Default_Layer
 62
256
 66
   1
 39
0.000000
 70
    0
  0
VERTEX
  8
0
 10
-0.00005364
 20
-0.00098038
  0
VERTEX
  8
0
 10
1.99994636
 20
-0.00098038
  0
VERTEX
  8
0
 10
3.99994636
 20
-0.00098038
  0
VERTEX
  8
0
 10
5.99994636
 20
-0.00098038
  0
VERTEX
  8
0
 10
7.99994636
 20
-0.00098038
  0
VERTEX
  8
0
 10
9.99994636
 20
-0.00098038
  0
VERTEX
  8
0
 10
11.99994636
 20
-0.00098038
  0
VERTEX
  8
0
 10
13.99994636
 20
-0.00098038
  0
VERTEX
  8
0
 10
15.99994636
 20
-0.00098038
  0
VERTEX
  8
0
 10
17.99994636
 20
-0.00098038
  0
VERTEX
  8
0
 10
19.99994636
 20
-0.00098038
  0
VERTEX
  8
0
 10
21.99994636
 20
-0.00098038
  0
VERTEX
  8
0
 10
23.99994636
 20
-0.00098038
  0
VERTEX
  8
0
 10
25.99994636
 20
-0.00098038
  0
VERTEX
  8
0
 10
27.99994636
 20
-0.00098038
  0
VERTEX
  8
0
 10
29.99994636
 20
-0.00098038
  0
VERTEX
  8
0
 10
31.99994636
 20
-0.00098038
  0
SEQEND
  0
POLYLINE
  8
Default_Layer
 62
256
 66
   1
 39
0.000000
 70
    0
  0
VERTEX
  8
0
 10
-0.00005364
 20
7.99901962
  0
VERTEX
  8
0
 10
1.99994636
 20
7.99901962
  0
VERTEX
  8
0
 10
3.99994636
 20
7.99901962
  0
VERTEX
  8
0
 10
5.99994636
 20
7.99901962
  0
VERTEX
  8
0
 10
7.99994636
 20
7.99901962
  0
VERTEX
  8
0
 10
9.99994636
 20
7.99901962
  0
VERTEX
  8
0
 10
11.99994636
 20
7.99901962
  0
VERTEX
  8
0
 10
13.99994636
 20
7.99901962
  0
VERTEX
  8
0
 10
15.99994636
 20
7.99901962
  0
VERTEX
  8
0
 10
17.99994636
 20
7.99901962
  0
VERTEX
  8
0
 10
19.99994636
 20
7.99901962
  0
VERTEX
  8
0
 10
21.99994636
 20
7.99901962
  0
VERTEX
  8
0
 10
23.99994636
 20
7.99901962
  0
VERTEX
  8
0
 10
25.99994636
 20
7.99901962
  0
VERTEX
  8
0
 10
27.99994636
 20
7.99901962
  0
VERTEX
  8
0
 10
29.99994636
 20
7.99901962
  0
VERTEX
  8
0
 10
31.99994636
 20
7.99901962
  0
SEQEND
  0
POLYLINE
  8
Default_Layer
 62
256
 66
   1
 39
0.000000
 70
    0
  0
VERTEX
  8
0
 10
-0.00005364
 20
5.99901962
  0
VERTEX
  8
0
 10
1.99994636
 20
5.99901962
  0
VERTEX
  8
0
 10
3.99994636
 20
5.99901962
  0
VERTEX
  8
0
 10
5.99994636
 20
5.99901962
  0
VERTEX
  8
0
 10
7.99994636
 20
5.99901962
  0
VERTEX
  8
0
 10
9.99994636
 20
5.99901962
  0
VERTEX
  8
0
 10
11.99994636
 20
5.99901962
  0
VERTEX
  8
0
 10
13.99994636
 20
5.99901962
  0
VERTEX
  8
0
 10
15.99994636
 20
5.99901962
  0
VERTEX
  8
0
 10
17.99994636
 20
5.99901962
  0
VERTEX
  8
0
 10
19.99994636
 20
5.99901962
  0
VERTEX
  8
0
 10
21.99994636
 20
5.99901962
  0
VERTEX
  8
0
 10
23.99994636
 20
5.99901962
  0
VERTEX
  8
0
 10
25.99994636
 20
5.99901962
  0
VERTEX
  8
0
 10
27.99994636
 20
5.99901962
  0
VERTEX
  8
0
 10
29.99994636
 20
5.99901962
  0
VERTEX
  8
0
 10
31.99994636
 20
5.99901962
  0
SEQEND
  0
POLYLINE
  8
Default_Layer
 62
256
 66
   1
 39
0.000000
 70
    0
  0
VERTEX
  8
0
 10
-0.00005364
 20
31.99901962
  0
VERTEX
  8
0
 10
1.99994636
 20
31.99901962
  0
VERTEX
  8
0
 10
3.99994636
 20
31.99901962
  0
VERTEX
  8
0
 10
5.99994636
 20
31.99901962
  0
VERTEX
  8
0
 10
7.99994636
 20
31.99901962
  0
VERTEX
  8
0
 10
9.99994636
 20
31.99901962
  0
VERTEX
  8
0
 10
11.99994636
 20
31.99901962
  0
VERTEX
  8
0
 10
13.99994636
 20
31.99901962
  0
VERTEX
  8
0
 10
15.99994636
 20
31.99901962
  0
VERTEX
  8
0
 10
17.99994636
 20
31.99901962
  0
VERTEX
  8
0
 10
19.99994636
 20
31.99901962
  0
VERTEX
  8
0
 10
21.99994636
 20
31.99901962
  0
VERTEX
  8
0
 10
23.99994636
 20
31.99901962
  0
VERTEX
  8
0
 10
25.99994636
 20
31.99901962
  0
VERTEX
  8
0
 10
27.99994636
 20
31.99901962
  0
VERTEX
  8
0
 10
29.99994636
 20
31.99901962
  0
VERTEX
  8
0
 10
31.99994636
 20
31.99901962
  0
SEQEND
  0
POLYLINE
  8
Default_Layer
 62
256
 66
   1
 39
0.000000
 70
    0
  0
VERTEX
  8
0
 10
-0.00005364
 20
31.99901962
  0
VERTEX
  8
0
 10
-0.00005364
 20
29.99901962
  0
VERTEX
  8
0
 10
-0.00005364
 20
27.99901962
  0
VERTEX
  8
0
 10
-0.00005364
 20
25.99901962
  0
VERTEX
  8
0
 10
-0.00005364
 20
23.99901962
  0
VERTEX
  8
0
 10
-0.00005364
 20
21.99901962
  0
VERTEX
  8
0
 10
-0.00005364
 20
19.99901962
  0
VERTEX
  8
0
 10
-0.00005364
 20
17.99901962
  0
VERTEX
  8
0
 10
-0.00005364
 20
15.99901962
  0
VERTEX
  8
0
 10
-0.00005364
 20
13.99901962
  0
VERTEX
  8
0
 10
-0.00005364
 20
11.99901962
  0
VERTEX
  8
0
 10
-0.00005364
 20
9.99901962
  0
VERTEX
  8
0
 10
-0.00005364
 20
7.99901962
  0
VERTEX
  8
0
 10
-0.00005364
 20
5.99901962
  0
VERTEX
  8
0
 10
-0.00005364
 20
3.99901962
  0
VERTEX
  8
0
 10
-0.00005364
 20
1.99901962
  0
VERTEX
  8
0
 10
-0.00005364
 20
-0.00098038
  0
SEQEND
  0
POLYLINE
  8
Default_Layer
 62
256
 66
   1
 39
0.000000
 70
    0
  0
VERTEX
  8
0
 10
-0.00005364
 20
31.99901962
  0
VERTEX
  8
0
 10
-0.00005364
 20
29.99901962
  0
VERTEX
  8
0
 10
-0.00005364
 20
27.99901962
  0
VERTEX
  8
0
 10
-0.00005364
 20
25.99901962
  0
VERTEX
  8
0
 10
-0.00005364
 20
23.99901962
  0
VERTEX
  8
0
 10
-0.00005364
 20
21.99901962
  0
VERTEX
  8
0
 10
-0.00005364
 20
19.99901962
  0
VERTEX
  8
0
 10
-0.00005364
 20
17.99901962
  0
VERTEX
  8
0
 10
-0.00005364
 20
15.99901962
  0
VERTEX
  8
0
 10
-0.00005364
 20
13.99901962
  0
VERTEX
  8
0
 10
-0.00005364
 20
11.99901962
  0
VERTEX
  8
0
 10
-0.00005364
 20
9.99901962
  0
VERTEX
  8
0
 10
-0.00005364
 20
7.99901962
  0
VERTEX
  8
0
 10
-0.00005364
 20
5.99901962
  0
VERTEX
  8
0
 10
-0.00005364
 20
3.99901962
  0
VERTEX
  8
0
 10
-0.00005364
 20
1.99901962
  0
VERTEX
  8
0
 10
-0.00005364
 20
-0.00098038
  0
SEQEND
  0
POLYLINE
  8
Default_Layer
 62
256
 66
   1
 39
0.000000
 70
    0
  0
VERTEX
  8
0
 10
1.99994636
 20
31.99901962
  0
VERTEX
  8
0
 10
1.99994636
 20
29.99901962
  0
VERTEX
  8
0
 10
1.99994636
 20
27.99901962
  0
VERTEX
  8
0
 10
1.99994636
 20
25.99901962
  0
VERTEX
  8
0
 10
1.99994636
 20
23.99901962
  0
VERTEX
  8
0
 10
1.99994636
 20
21.99901962
  0
VERTEX
  8
0
 10
1.99994636
 20
19.99901962
  0
VERTEX
  8
0
 10
1.99994636
 20
17.99901962
  0
VERTEX
  8
0
 10
1.99994636
 20
15.99901962
  0
VERTEX
  8
0
 10
1.99994636
 20
13.99901962
  0
VERTEX
  8
0
 10
1.99994636
 20
11.99901962
  0
VERTEX
  8
0
 10
1.99994636
 20
9.99901962
  0
VERTEX
  8
0
 10
1.99994636
 20
7.99901962
  0
VERTEX
  8
0
 10
1.99994636
 20
5.99901962
  0
VERTEX
  8
0
 10
1.99994636
 20
3.99901962
  0
VERTEX
  8
0
 10
1.99994636
 20
1.99901962
  0
VERTEX
  8
0
 10
1.99994636
 20
-0.00098038
  0
SEQEND
  0
POLYLINE
  8
Default_Layer
 62
256
 66
   1
 39
0.000000
 70
    0
  0
VERTEX
  8
0
 10
3.99994636
 20
31.99901962
  0
VERTEX
  8
0
 10
3.99994636
 20
29.99901962
  0
VERTEX
  8
0
 10
3.99994636
 20
27.99901962
  0
VERTEX
  8
0
 10
3.99994636
 20
25.99901962
  0
VERTEX
  8
0
 10
3.99994636
 20
23.99901962
  0
VERTEX
  8
0
 10
3.99994636
 20
21.99901962
  0
VERTEX
  8
0
 10
3.99994636
 20
19.99901962
  0
VERTEX
  8
0
 10
3.99994636
 20
17.99901962
  0
VERTEX
  8
0
 10
3.99994636
 20
15.99901962
  0
VERTEX
  8
0
 10
3.99994636
 20
13.99901962
  0
VERTEX
  8
0
 10
3.99994636
 20
11.99901962
  0
VERTEX
  8
0
 10
3.99994636
 20
9.99901962
  0
VERTEX
  8
0
 10
3.99994636
 20
7.99901962
  0
VERTEX
  8
0
 10
3.99994636
 20
5.99901962
  0
VERTEX
  8
0
 10
3.99994636
 20
3.99901962
  0
VERTEX
  8
0
 10
3.99994636
 20
1.99901962
  0
VERTEX
  8
0
 10
3.99994636
 20
-0.00098038
  0
SEQEND
  0
POLYLINE
  8
Default_Layer
 62
256
 66
   1
 39
0.000000
 70
    0
  0
VERTEX
  8
0
 10
5.99994636
 20
31.99901962
  0
VERTEX
  8
0
 10
5.99994636
 20
29.99901962
  0
VERTEX
  8
0
 10
5.99994636
 20
27.99901962
  0
VERTEX
  8
0
 10
5.99994636
 20
25.99901962
  0
VERTEX
  8
0
 10
5.99994636
 20
23.99901962
  0
VERTEX
  8
0
 10
5.99994636
 20
21.99901962
  0
VERTEX
  8
0
 10
5.99994636
 20
19.99901962
  0
VERTEX
  8
0
 10
5.99994636
 20
17.99901962
  0
VERTEX
  8
0
 10
5.99994636
 20
15.99901962
  0
VERTEX
  8
0
 10
5.99994636
 20
13.99901962
  0
VERTEX
  8
0
 10
5.99994636
 20
11.99901962
  0
VERTEX
  8
0
 10
5.99994636
 20
9.99901962
  0
VERTEX
  8
0
 10
5.99994636
 20
7.99901962
  0
VERTEX
  8
0
 10
5.99994636
 20
5.99901962
  0
VERTEX
  8
0
 10
5.99994636
 20
3.99901962
  0
VERTEX
  8
0
 10
5.99994636
 20
1.99901962
  0
VERTEX
  8
0
 10
5.99994636
 20
-0.00098038
  0
SEQEND
  0
POLYLINE
  8
Default_Layer
 62
256
 66
   1
 39
0.000000
 70
    0
  0
VERTEX
  8
0
 10
7.99994636
 20
31.99901962
  0
VERTEX
  8
0
 10
7.99994636
 20
29.99901962
  0
VERTEX
  8
0
 10
7.99994636
 20
27.99901962
  0
VERTEX
  8
0
 10
7.99994636
 20
25.99901962
  0
VERTEX
  8
0
 10
7.99994636
 20
23.99901962
  0
VERTEX
  8
0
 10
7.99994636
 20
21.99901962
  0
VERTEX
  8
0
 10
7.99994636
 20
19.99901962
  0
VERTEX
  8
0
 10
7.99994636
 20
17.99901962
  0
VERTEX
  8
0
 10
7.99994636
 20
15.99901962
  0
VERTEX
  8
0
 10
7.99994636
 20
13.99901962
  0
VERTEX
  8
0
 10
7.99994636
 20
11.99901962
  0
VERTEX
  8
0
 10
7.99994636
 20
9.99901962
  0
VERTEX
  8
0
 10
7.99994636
 20
7.99901962
  0
VERTEX
  8
0
 10
7.99994636
 20
5.99901962
  0
VERTEX
  8
0
 10
7.99994636
 20
3.99901962
  0
VERTEX
  8
0
 10
7.99994636
 20
1.99901962
  0
VERTEX
  8
0
 10
7.99994636
 20
-0.00098038
  0
SEQEND
  0
POLYLINE
  8
Default_Layer
 62
256
 66
   1
 39
0.000000
 70
    0
  0
VERTEX
  8
0
 10
9.99994636
 20
31.99901962
  0
VERTEX
  8
0
 10
9.99994636
 20
29.99901962
  0
VERTEX
  8
0
 10
9.99994636
 20
27.99901962
  0
VERTEX
  8
0
 10
9.99994636
 20
25.99901962
  0
VERTEX
  8
0
 10
9.99994636
 20
23.99901962
  0
VERTEX
  8
0
 10
9.99994636
 20
21.99901962
  0
VERTEX
  8
0
 10
9.99994636
 20
19.99901962
  0
VERTEX
  8
0
 10
9.99994636
 20
17.99901962
  0
VERTEX
  8
0
 10
9.99994636
 20
15.99901962
  0
VERTEX
  8
0
 10
9.99994636
 20
13.99901962
  0
VERTEX
  8
0
 10
9.99994636
 20
11.99901962
  0
VERTEX
  8
0
 10
9.99994636
 20
9.99901962
  0
VERTEX
  8
0
 10
9.99994636
 20
7.99901962
  0
VERTEX
  8
0
 10
9.99994636
 20
5.99901962
  0
VERTEX
  8
0
 10
9.99994636
 20
3.99901962
  0
VERTEX
  8
0
 10
9.99994636
 20
1.99901962
  0
VERTEX
  8
0
 10
9.99994636
 20
-0.00098038
  0
SEQEND
  0
POLYLINE
  8
Default_Layer
 62
256
 66
   1
 39
0.000000
 70
    0
  0
VERTEX
  8
0
 10
11.99994636
 20
31.99901962
  0
VERTEX
  8
0
 10
11.99994636
 20
29.99901962
  0
VERTEX
  8
0
 10
11.99994636
 20
27.99901962
  0
VERTEX
  8
0
 10
11.99994636
 20
25.99901962
  0
VERTEX
  8
0
 10
11.99994636
 20
23.99901962
  0
VERTEX
  8
0
 10
11.99994636
 20
21.99901962
  0
VERTEX
  8
0
 10
11.99994636
 20
19.99901962
  0
VERTEX
  8
0
 10
11.99994636
 20
17.99901962
  0
VERTEX
  8
0
 10
11.99994636
 20
15.99901962
  0
VERTEX
  8
0
 10
11.99994636
 20
13.99901962
  0
VERTEX
  8
0
 10
11.99994636
 20
11.99901962
  0
VERTEX
  8
0
 10
11.99994636
 20
9.99901962
  0
VERTEX
  8
0
 10
11.99994636
 20
7.99901962
  0
VERTEX
  8
0
 10
11.99994636
 20
5.99901962
  0
VERTEX
  8
0
 10
11.99994636
 20
3.99901962
  0
VERTEX
  8
0
 10
11.99994636
 20
1.99901962
  0
VERTEX
  8
0
 10
11.99994636
 20
-0.00098038
  0
SEQEND
  0
POLYLINE
  8
Default_Layer
 62
256
 66
   1
 39
0.000000
 70
    0
  0
VERTEX
  8
0
 10
13.99994636
 20
31.99901962
  0
VERTEX
  8
0
 10
13.99994636
 20
29.99901962
  0
VERTEX
  8
0
 10
13.99994636
 20
27.99901962
  0
VERTEX
  8
0
 10
13.99994636
 20
25.99901962
  0
VERTEX
  8
0
 10
13.99994636
 20
23.99901962
  0
VERTEX
  8
0
 10
13.99994636
 20
21.99901962
  0
VERTEX
  8
0
 10
13.99994636
 20
19.99901962
  0
VERTEX
  8
0
 10
13.99994636
 20
17.99901962
  0
VERTEX
  8
0
 10
13.99994636
 20
15.99901962
  0
VERTEX
  8
0
 10
13.99994636
 20
13.99901962
  0
VERTEX
  8
0
 10
13.99994636
 20
11.99901962
  0
VERTEX
  8
0
 10
13.99994636
 20
9.99901962
  0
VERTEX
  8
0
 10
13.99994636
 20
7.99901962
  0
VERTEX
  8
0
 10
13.99994636
 20
5.99901962
  0
VERTEX
  8
0
 10
13.99994636
 20
3.99901962
  0
VERTEX
  8
0
 10
13.99994636
 20
1.99901962
  0
VERTEX
  8
0
 10
13.99994636
 20
-0.00098038
  0
SEQEND
  0
POLYLINE
  8
Default_Layer
 62
256
 66
   1
 39
0.000000
 70
    0
  0
VERTEX
  8
0
 10
15.99994636
 20
31.99901962
  0
VERTEX
  8
0
 10
15.99994636
 20
29.99901962
  0
VERTEX
  8
0
 10
15.99994636
 20
27.99901962
  0
VERTEX
  8
0
 10
15.99994636
 20
25.99901962
  0
VERTEX
  8
0
 10
15.99994636
 20
23.99901962
  0
VERTEX
  8
0
 10
15.99994636
 20
21.99901962
  0
VERTEX
  8
0
 10
15.99994636
 20
19.99901962
  0
VERTEX
  8
0
 10
15.99994636
 20
17.99901962
  0
VERTEX
  8
0
 10
15.99994636
 20
15.99901962
  0
VERTEX
  8
0
 10
15.99994636
 20
13.99901962
  0
VERTEX
  8
0
 10
15.99994636
 20
11.99901962
  0
VERTEX
  8
0
 10
15.99994636
 20
9.99901962
  0
VERTEX
  8
0
 10
15.99994636
 20
7.99901962
  0
VERTEX
  8
0
 10
15.99994636
 20
5.99901962
  0
VERTEX
  8
0
 10
15.99994636
 20
3.99901962
  0
VERTEX
  8
0
 10
15.99994636
 20
1.99901962
  0
VERTEX
  8
0
 10
15.99994636
 20
-0.00098038
  0
SEQEND
  0
POLYLINE
  8
Default_Layer
 62
256
 66
   1
 39
0.000000
 70
    0
  0
VERTEX
  8
0
 10
17.99994636
 20
31.99901962
  0
VERTEX
  8
0
 10
17.99994636
 20
29.99901962
  0
VERTEX
  8
0
 10
17.99994636
 20
27.99901962
  0
VERTEX
  8
0
 10
17.99994636
 20
25.99901962
  0
VERTEX
  8
0
 10
17.99994636
 20
23.99901962
  0
VERTEX
  8
0
 10
17.99994636
 20
21.99901962
  0
VERTEX
  8
0
 10
17.99994636
 20
19.99901962
  0
VERTEX
  8
0
 10
17.99994636
 20
17.99901962
  0
VERTEX
  8
0
 10
17.99994636
 20
15.99901962
  0
VERTEX
  8
0
 10
17.99994636
 20
13.99901962
  0
VERTEX
  8
0
 10
17.99994636
 20
11.99901962
  0
VERTEX
  8
0
 10
17.99994636
 20
9.99901962
  0
VERTEX
  8
0
 10
17.99994636
 20
7.99901962
  0
VERTEX
  8
0
 10
17.99994636
 20
5.99901962
  0
VERTEX
  8
0
 10
17.99994636
 20
3.99901962
  0
VERTEX
  8
0
 10
17.99994636
 20
1.99901962
  0
VERTEX
  8
0
 10
17.99994636
 20
-0.00098038
  0
SEQEND
  0
POLYLINE
  8
Default_Layer
 62
256
 66
   1
 39
0.000000
 70
    0
  0
VERTEX
  8
0
 10
19.99994636
 20
31.99901962
  0
VERTEX
  8
0
 10
19.99994636
 20
29.99901962
  0
VERTEX
  8
0
 10
19.99994636
 20
27.99901962
  0
VERTEX
  8
0
 10
19.99994636
 20
25.99901962
  0
VERTEX
  8
0
 10
19.99994636
 20
23.99901962
  0
VERTEX
  8
0
 10
19.99994636
 20
21.99901962
  0
VERTEX
  8
0
 10
19.99994636
 20
19.99901962
  0
VERTEX
  8
0
 10
19.99994636
 20
17.99901962
  0
VERTEX
  8
0
 10
19.99994636
 20
15.99901962
  0
VERTEX
  8
0
 10
19.99994636
 20
13.99901962
  0
VERTEX
  8
0
 10
19.99994636
 20
11.99901962
  0
VERTEX
  8
0
 10
19.99994636
 20
9.99901962
  0
VERTEX
  8
0
 10
19.99994636
 20
7.99901962
  0
VERTEX
  8
0
 10
19.99994636
 20
5.99901962
  0
VERTEX
  8
0
 10
19.99994636
 20
3.99901962
  0
VERTEX
  8
0
 10
19.99994636
 20
1.99901962
  0
VERTEX
  8
0
 10
19.99994636
 20
-0.00098038
  0
SEQEND
  0
POLYLINE
  8
Default_Layer
 62
256
 66
   1
 39
0.000000
 70
    0
  0
VERTEX
  8
0
 10
21.99994636
 20
31.99901962
  0
VERTEX
  8
0
 10
21.99994636
 20
29.99901962
  0
VERTEX
  8
0
 10
21.99994636
 20
27.99901962
  0
VERTEX
  8
0
 10
21.99994636
 20
25.99901962
  0
VERTEX
  8
0
 10
21.99994636
 20
23.99901962
  0
VERTEX
  8
0
 10
21.99994636
 20
21.99901962
  0
VERTEX
  8
0
 10
21.99994636
 20
19.99901962
  0
VERTEX
  8
0
 10
21.99994636
 20
17.99901962
  0
VERTEX
  8
0
 10
21.99994636
 20
15.99901962
  0
VERTEX
  8
0
 10
21.99994636
 20
13.99901962
  0
VERTEX
  8
0
 10
21.99994636
 20
11.99901962
  0
VERTEX
  8
0
 10
21.99994636
 20
9.99901962
  0
VERTEX
  8
0
 10
21.99994636
 20
7.99901962
  0
VERTEX
  8
0
 10
21.99994636
 20
5.99901962
  0
VERTEX
  8
0
 10
21.99994636
 20
3.99901962
  0
VERTEX
  8
0
 10
21.99994636
 20
1.99901962
  0
VERTEX
  8
0
 10
21.99994636
 20
-0.00098038
  0
SEQEND
  0
POLYLINE
  8
Default_Layer
 62
256
 66
   1
 39
0.000000
 70
    0
  0
VERTEX
  8
0
 10
23.99994636
 20
31.99901962
  0
VERTEX
  8
0
 10
23.99994636
 20
29.99901962
  0
VERTEX
  8
0
 10
23.99994636
 20
27.99901962
  0
VERTEX
  8
0
 10
23.99994636
 20
25.99901962
  0
VERTEX
  8
0
 10
23.99994636
 20
23.99901962
  0
VERTEX
  8
0
 10
23.99994636
 20
21.99901962
  0
VERTEX
  8
0
 10
23.99994636
 20
19.99901962
  0
VERTEX
  8
0
 10
23.99994636
 20
17.99901962
  0
VERTEX
  8
0
 10
23.99994636
 20
15.99901962
  0
VERTEX
  8
0
 10
23.99994636
 20
13.99901962
  0
VERTEX
  8
0
 10
23.99994636
 20
11.99901962
  0
VERTEX
  8
0
 10
23.99994636
 20
9.99901962
  0
VERTEX
  8
0
 10
23.99994636
 20
7.99901962
  0
VERTEX
  8
0
 10
23.99994636
 20
5.99901962
  0
VERTEX
  8
0
 10
23.99994636
 20
3.99901962
  0
VERTEX
  8
0
 10
23.99994636
 20
1.99901962
  0
VERTEX
  8
0
 10
23.99994636
 20
-0.00098038
  0
SEQEND
  0
POLYLINE
  8
Default_Layer
 62
256
 66
   1
 39
0.000000
 70
    0
  0
VERTEX
  8
0
 10
25.99994636
 20
31.99901962
  0
VERTEX
  8
0
 10
25.99994636
 20
29.99901962
  0
VERTEX
  8
0
 10
25.99994636
 20
27.99901962
  0
VERTEX
  8
0
 10
25.99994636
 20
25.99901962
  0
VERTEX
  8
0
 10
25.99994636
 20
23.99901962
  0
VERTEX
  8
0
 10
25.99994636
 20
21.99901962
  0
VERTEX
  8
0
 10
25.99994636
 20
19.99901962
  0
VERTEX
  8
0
 10
25.99994636
 20
17.99901962
  0
VERTEX
  8
0
 10
25.99994636
 20
15.99901962
  0
VERTEX
  8
0
 10
25.99994636
 20
13.99901962
  0
VERTEX
  8
0
 10
25.99994636
 20
11.99901962
  0
VERTEX
  8
0
 10
25.99994636
 20
9.99901962
  0
VERTEX
  8
0
 10
25.99994636
 20
7.99901962
  0
VERTEX
  8
0
 10
25.99994636
 20
5.99901962
  0
VERTEX
  8
0
 10
25.99994636
 20
3.99901962
  0
VERTEX
  8
0
 10
25.99994636
 20
1.99901962
  0
VERTEX
  8
0
 10
25.99994636
 20
-0.00098038
  0
SEQEND
  0
POLYLINE
  8
Default_Layer
 62
256
 66
   1
 39
0.000000
 70
    0
  0
VERTEX
  8
0
 10
27.99994636
 20
31.99901962
  0
VERTEX
  8
0
 10
27.99994636
 20
29.99901962
  0
VERTEX
  8
0
 10
27.99994636
 20
27.99901962
  0
VERTEX
  8
0
 10
27.99994636
 20
25.99901962
  0
VERTEX
  8
0
 10
27.99994636
 20
23.99901962
  0
VERTEX
  8
0
 10
27.99994636
 20
21.99901962
  0
VERTEX
  8
0
 10
27.99994636
 20
19.99901962
  0
VERTEX
  8
0
 10
27.99994636
 20
17.99901962
  0
VERTEX
  8
0
 10
27.99994636
 20
15.99901962
  0
VERTEX
  8
0
 10
27.99994636
 20
13.99901962
  0
VERTEX
  8
0
 10
27.99994636
 20
11.99901962
  0
VERTEX
  8
0
 10
27.99994636
 20
9.99901962
  0
VERTEX
  8
0
 10
27.99994636
 20
7.99901962
  0
VERTEX
  8
0
 10
27.99994636
 20
5.99901962
  0
VERTEX
  8
0
 10
27.99994636
 20
3.99901962
  0
VERTEX
  8
0
 10
27.99994636
 20
1.99901962
  0
VERTEX
  8
0
 10
27.99994636
 20
-0.00098038
  0
SEQEND
  0
POLYLINE
  8
Default_Layer
 62
256
 66
   1
 39
0.000000
 70
    0
  0
VERTEX
  8
0
 10
29.99994636
 20
31.99901962
  0
VERTEX
  8
0
 10
29.99994636
 20
29.99901962
  0
VERTEX
  8
0
 10
29.99994636
 20
27.99901962
  0
VERTEX
  8
0
 10
29.99994636
 20
25.99901962
  0
VERTEX
  8
0
 10
29.99994636
 20
23.99901962
  0
VERTEX
  8
0
 10
29.99994636
 20
21.99901962
  0
VERTEX
  8
0
 10
29.99994636
 20
19.99901962
  0
VERTEX
  8
0
 10
29.99994636
 20
17.99901962
  0
VERTEX
  8
0
 10
29.99994636
 20
15.99901962
  0
VERTEX
  8
0
 10
29.99994636
 20
13.99901962
  0
VERTEX
  8
0
 10
29.99994636
 20
11.99901962
  0
VERTEX
  8
0
 10
29.99994636
 20
9.99901962
  0
VERTEX
  8
0
 10
29.99994636
 20
7.99901962
  0
VERTEX
  8
0
 10
29.99994636
 20
5.99901962
  0
VERTEX
  8
0
 10
29.99994636
 20
3.99901962
  0
VERTEX
  8
0
 10
29.99994636
 20
1.99901962
  0
VERTEX
  8
0
 10
29.99994636
 20
-0.00098038
  0
SEQEND
  0
POLYLINE
  8
Default_Layer
 62
256
 66
   1
 39
0.000000
 70
    0
  0
VERTEX
  8
0
 10
31.99994636
 20
31.99901962
  0
VERTEX
  8
0
 10
31.99994636
 20
29.99901962
  0
VERTEX
  8
0
 10
31.99994636
 20
27.99901962
  0
VERTEX
  8
0
 10
31.99994636
 20
25.99901962
  0
VERTEX
  8
0
 10
31.99994636
 20
23.99901962
  0
VERTEX
  8
0
 10
31.99994636
 20
21.99901962
  0
VERTEX
  8
0
 10
31.99994636
 20
19.99901962
  0
VERTEX
  8
0
 10
31.99994636
 20
17.99901962
  0
VERTEX
  8
0
 10
31.99994636
 20
15.99901962
  0
VERTEX
  8
0
 10
31.99994636
 20
13.99901962
  0
VERTEX
  8
0
 10
31.99994636
 20
11.99901962
  0
VERTEX
  8
0
 10
31.99994636
 20
9.99901962
  0
VERTEX
  8
0
 10
31.99994636
 20
7.99901962
  0
VERTEX
  8
0
 10
31.99994636
 20
5.99901962
  0
VERTEX
  8
0
 10
31.99994636
 20
3.99901962
  0
VERTEX
  8
0
 10
31.99994636
 20
1.99901962
  0
VERTEX
  8
0
 10
31.99994636
 20
-0.00098038
  0
SEQEND
  0
POLYLINE
  8
Default_Layer
 62
256
 66
   1
 39
0.000000
 70
    0
  0
VERTEX
  8
0
 10
-0.00005364
 20
31.99901962
  0
VERTEX
  8
0
 10
1.99994636
 20
31.99901962
  0
VERTEX
  8
0
 10
3.99994636
 20
31.99901962
  0
VERTEX
  8
0
 10
5.99994636
 20
31.99901962
  0
VERTEX
  8
0
 10
7.99994636
 20
31.99901962
  0
VERTEX
  8
0
 10
9.99994636
 20
31.99901962
  0
VERTEX
  8
0
 10
11.99994636
 20
31.99901962
  0
VERTEX
  8
0
 10
13.99994636
 20
31.99901962
  0
VERTEX
  8
0
 10
15.99994636
 20
31.99901962
  0
VERTEX
  8
0
 10
17.99994636
 20
31.99901962
  0
VERTEX
  8
0
 10
19.99994636
 20
31.99901962
  0
VERTEX
  8
0
 10
21.99994636
 20
31.99901962
  0
VERTEX
  8
0
 10
23.99994636
 20
31.99901962
  0
VERTEX
  8
0
 10
25.99994636
 20
31.99901962
  0
VERTEX
  8
0
 10
27.99994636
 20
31.99901962
  0
VERTEX
  8
0
 10
29.99994636
 20
31.99901962
  0
VERTEX
  8
0
 10
31.99994636
 20
31.99901962
  0
SEQEND
  0
POLYLINE
  8
Default_Layer
 62
256
 66
   1
 39
0.000000
 70
    0
  0
VERTEX
  8
0
 10
-0.00005364
 20
29.99901962
  0
VERTEX
  8
0
 10
1.99994636
 20
29.99901962
  0
VERTEX
  8
0
 10
3.99994636
 20
29.99901962
  0
VERTEX
  8
0
 10
5.99994636
 20
29.99901962
  0
VERTEX
  8
0
 10
7.99994636
 20
29.99901962
  0
VERTEX
  8
0
 10
9.99994636
 20
29.99901962
  0
VERTEX
  8
0
 10
11.99994636
 20
29.99901962
  0
VERTEX
  8
0
 10
13.99994636
 20
29.99901962
  0
VERTEX
  8
0
 10
15.99994636
 20
29.99901962
  0
VERTEX
  8
0
 10
17.99994636
 20
29.99901962
  0
VERTEX
  8
0
 10
19.99994636
 20
29.99901962
  0
VERTEX
  8
0
 10
21.99994636
 20
29.99901962
  0
VERTEX
  8
0
 10
23.99994636
 20
29.99901962
  0
VERTEX
  8
0
 10
25.99994636
 20
29.99901962
  0
VERTEX
  8
0
 10
27.99994636
 20
29.99901962
  0
VERTEX
  8
0
 10
29.99994636
 20
29.99901962
  0
VERTEX
  8
0
 10
31.99994636
 20
29.99901962
  0
SEQEND
  0
POLYLINE
  8
Default_Layer
 62
256
 66
   1
 39
0.000000
 70
    0
  0
VERTEX
  8
0
 10
-0.00005364
 20
27.99901962
  0
VERTEX
  8
0
 10
1.99994636
 20
27.99901962
  0
VERTEX
  8
0
 10
3.99994636
 20
27.99901962
  0
VERTEX
  8
0
 10
5.99994636
 20
27.99901962
  0
VERTEX
  8
0
 10
7.99994636
 20
27.99901962
  0
VERTEX
  8
0
 10
9.99994636
 20
27.99901962
  0
VERTEX
  8
0
 10
11.99994636
 20
27.99901962
  0
VERTEX
  8
0
 10
13.99994636
 20
27.99901962
  0
VERTEX
  8
0
 10
15.99994636
 20
27.99901962
  0
VERTEX
  8
0
 10
17.99994636
 20
27.99901962
  0
VERTEX
  8
0
 10
19.99994636
 20
27.99901962
  0
VERTEX
  8
0
 10
21.99994636
 20
27.99901962
  0
VERTEX
  8
0
 10
23.99994636
 20
27.99901962
  0
VERTEX
  8
0
 10
25.99994636
 20
27.99901962
  0
VERTEX
  8
0
 10
27.99994636
 20
27.99901962
  0
VERTEX
  8
0
 10
29.99994636
 20
27.99901962
  0
VERTEX
  8
0
 10
31.99994636
 20
27.99901962
  0
SEQEND
  0
POLYLINE
  8
Default_Layer
 62
256
 66
   1
 39
0.000000
 70
    0
  0
VERTEX
  8
0
 10
-0.00005364
 20
25.99901962
  0
VERTEX
  8
0
 10
1.99994636
 20
25.99901962
  0
VERTEX
  8
0
 10
3.99994636
 20
25.99901962
  0
VERTEX
  8
0
 10
5.99994636
 20
25.99901962
  0
VERTEX
  8
0
 10
7.99994636
 20
25.99901962
  0
VERTEX
  8
0
 10
9.99994636
 20
25.99901962
  0
VERTEX
  8
0
 10
11.99994636
 20
25.99901962
  0
VERTEX
  8
0
 10
13.99994636
 20
25.99901962
  0
VERTEX
  8
0
 10
15.99994636
 20
25.99901962
  0
VERTEX
  8
0
 10
17.99994636
 20
25.99901962
  0
VERTEX
  8
0
 10
19.99994636
 20
25.99901962
  0
VERTEX
  8
0
 10
21.99994636
 20
25.99901962
  0
VERTEX
  8
0
 10
23.99994636
 20
25.99901962
  0
VERTEX
  8
0
 10
25.99994636
 20
25.99901962
  0
VERTEX
  8
0
 10
27.99994636
 20
25.99901962
  0
VERTEX
  8
0
 10
29.99994636
 20
25.99901962
  0
VERTEX
  8
0
 10
31.99994636
 20
25.99901962
  0
SEQEND
  0
POLYLINE
  8
Default_Layer
 62
256
 66
   1
 39
0.000000
 70
    0
  0
VERTEX
  8
0
 10
-0.00005364
 20
13.99901962
  0
VERTEX
  8
0
 10
1.99994636
 20
13.99901962
  0
VERTEX
  8
0
 10
3.99994636
 20
13.99901962
  0
VERTEX
  8
0
 10
5.99994636
 20
13.99901962
  0
VERTEX
  8
0
 10
7.99994636
 20
13.99901962
  0
VERTEX
  8
0
 10
9.99994636
 20
13.99901962
  0
VERTEX
  8
0
 10
11.99994636
 20
13.99901962
  0
VERTEX
  8
0
 10
13.99994636
 20
13.99901962
  0
VERTEX
  8
0
 10
15.99994636
 20
13.99901962
  0
VERTEX
  8
0
 10
17.99994636
 20
13.99901962
  0
VERTEX
  8
0
 10
19.99994636
 20
13.99901962
  0
VERTEX
  8
0
 10
21.99994636
 20
13.99901962
  0
VERTEX
  8
0
 10
23.99994636
 20
13.99901962
  0
VERTEX
  8
0
 10
25.99994636
 20
13.99901962
  0
VERTEX
  8
0
 10
27.99994636
 20
13.99901962
  0
VERTEX
  8
0
 10
29.99994636
 20
13.99901962
  0
VERTEX
  8
0
 10
31.99994636
 20
13.99901962
  0
SEQEND
  0
POLYLINE
  8
Default_Layer
 62
256
 66
   1
 39
0.000000
 70
    0
  0
VERTEX
  8
0
 10
-0.00005364
 20
15.99901962
  0
VERTEX
  8
0
 10
1.99994636
 20
15.99901962
  0
VERTEX
  8
0
 10
3.99994636
 20
15.99901962
  0
VERTEX
  8
0
 10
5.99994636
 20
15.99901962
  0
VERTEX
  8
0
 10
7.99994636
 20
15.99901962
  0
VERTEX
  8
0
 10
9.99994636
 20
15.99901962
  0
VERTEX
  8
0
 10
11.99994636
 20
15.99901962
  0
VERTEX
  8
0
 10
13.99994636
 20
15.99901962
  0
VERTEX
  8
0
 10
15.99994636
 20
15.99901962
  0
VERTEX
  8
0
 10
17.99994636
 20
15.99901962
  0
VERTEX
  8
0
 10
19.99994636
 20
15.99901962
  0
VERTEX
  8
0
 10
21.99994636
 20
15.99901962
  0
VERTEX
  8
0
 10
23.99994636
 20
15.99901962
  0
VERTEX
  8
0
 10
25.99994636
 20
15.99901962
  0
VERTEX
  8
0
 10
27.99994636
 20
15.99901962
  0
VERTEX
  8
0
 10
29.99994636
 20
15.99901962
  0
VERTEX
  8
0
 10
31.99994636
 20
15.99901962
  0
SEQEND
  0
POLYLINE
  8
Default_Layer
 62
256
 66
   1
 39
0.000000
 70
    0
  0
VERTEX
  8
0
 10
-0.00005364
 20
17.99901962
  0
VERTEX
  8
0
 10
1.99994636
 20
17.99901962
  0
VERTEX
  8
0
 10
3.99994636
 20
17.99901962
  0
VERTEX
  8
0
 10
5.99994636
 20
17.99901962
  0
VERTEX
  8
0
 10
7.99994636
 20
17.99901962
  0
VERTEX
  8
0
 10
9.99994636
 20
17.99901962
  0
VERTEX
  8
0
 10
11.99994636
 20
17.99901962
  0
VERTEX
  8
0
 10
13.99994636
 20
17.99901962
  0
VERTEX
  8
0
 10
15.99994636
 20
17.99901962
  0
VERTEX
  8
0
 10
17.99994636
 20
17.99901962
  0
VERTEX
  8
0
 10
19.99994636
 20
17.99901962
  0
VERTEX
  8
0
 10
21.99994636
 20
17.99901962
  0
VERTEX
  8
0
 10
23.99994636
 20
17.99901962
  0
VERTEX
  8
0
 10
25.99994636
 20
17.99901962
  0
VERTEX
  8
0
 10
27.99994636
 20
17.99901962
  0
VERTEX
  8
0
 10
29.99994636
 20
17.99901962
  0
VERTEX
  8
0
 10
31.99994636
 20
17.99901962
  0
SEQEND
  0
POLYLINE
  8
Default_Layer
 62
256
 66
   1
 39
0.000000
 70
    0
  0
VERTEX
  8
0
 10
-0.00005364
 20
19.99901962
  0
VERTEX
  8
0
 10
1.99994636
 20
19.99901962
  0
VERTEX
  8
0
 10
3.99994636
 20
19.99901962
  0
VERTEX
  8
0
 10
5.99994636
 20
19.99901962
  0
VERTEX
  8
0
 10
7.99994636
 20
19.99901962
  0
VERTEX
  8
0
 10
9.99994636
 20
19.99901962
  0
VERTEX
  8
0
 10
11.99994636
 20
19.99901962
  0
VERTEX
  8
0
 10
13.99994636
 20
19.99901962
  0
VERTEX
  8
0
 10
15.99994636
 20
19.99901962
  0
VERTEX
  8
0
 10
17.99994636
 20
19.99901962
  0
VERTEX
  8
0
 10
19.99994636
 20
19.99901962
  0
VERTEX
  8
0
 10
21.99994636
 20
19.99901962
  0
VERTEX
  8
0
 10
23.99994636
 20
19.99901962
  0
VERTEX
  8
0
 10
25.99994636
 20
19.99901962
  0
VERTEX
  8
0
 10
27.99994636
 20
19.99901962
  0
VERTEX
  8
0
 10
29.99994636
 20
19.99901962
  0
VERTEX
  8
0
 10
31.99994636
 20
19.99901962
  0
SEQEND
  0
POLYLINE
  8
Default_Layer
 62
256
 66
   1
 39
0.000000
 70
    0
  0
VERTEX
  8
0
 10
-0.14126760
 20
21.99901962
  0
VERTEX
  8
0
 10
-0.00005364
 20
21.99901962
  0
VERTEX
  8
0
 10
1.99994636
 20
21.99901962
  0
VERTEX
  8
0
 10
3.99994636
 20
21.99901962
  0
VERTEX
  8
0
 10
5.99994636
 20
21.99901962
  0
VERTEX
  8
0
 10
7.99994636
 20
21.99901962
  0
VERTEX
  8
0
 10
9.99994636
 20
21.99901962
  0
VERTEX
  8
0
 10
11.99994636
 20
21.99901962
  0
VERTEX
  8
0
 10
13.99994636
 20
21.99901962
  0
VERTEX
  8
0
 10
15.99994636
 20
21.99901962
  0
VERTEX
  8
0
 10
17.99994636
 20
21.99901962
  0
VERTEX
  8
0
 10
19.99994636
 20
21.99901962
  0
VERTEX
  8
0
 10
21.99994636
 20
21.99901962
  0
VERTEX
  8
0
 10
23.99994636
 20
21.99901962
  0
VERTEX
  8
0
 10
25.99994636
 20
21.99901962
  0
VERTEX
  8
0
 10
27.99994636
 20
21.99901962
  0
VERTEX
  8
0
 10
29.99994636
 20
21.99901962
  0
VERTEX
  8
0
 10
31.99994636
 20
21.99901962
  0
SEQEND
  0
POLYLINE
  8
Default_Layer
 62
256
 66
   1
 39
0.000000
 70
    0
  0
VERTEX
  8
0
 10
-0.14126760
 20
23.99901962
  0
VERTEX
  8
0
 10
-0.00005364
 20
23.99901962
  0
VERTEX
  8
0
 10
1.99994636
 20
23.99901962
  0
VERTEX
  8
0
 10
3.99994636
 20
23.99901962
  0
VERTEX
  8
0
 10
5.99994636
 20
23.99901962
  0
VERTEX
  8
0
 10
7.99994636
 20
23.99901962
  0
VERTEX
  8
0
 10
9.99994636
 20
23.99901962
  0
VERTEX
  8
0
 10
11.99994636
 20
23.99901962
  0
VERTEX
  8
0
 10
13.99994636
 20
23.99901962
  0
VERTEX
  8
0
 10
15.99994636
 20
23.99901962
  0
VERTEX
  8
0
 10
17.99994636
 20
23.99901962
  0
VERTEX
  8
0
 10
19.99994636
 20
23.99901962
  0
VERTEX
  8
0
 10
21.99994636
 20
23.99901962
  0
VERTEX
  8
0
 10
23.99994636
 20
23.99901962
  0
VERTEX
  8
0
 10
25.99994636
 20
23.99901962
  0
VERTEX
  8
0
 10
27.99994636
 20
23.99901962
  0
VERTEX
  8
0
 10
29.99994636
 20
23.99901962
  0
VERTEX
  8
0
 10
31.99994636
 20
23.99901962
  0
SEQEND
  0
POLYLINE
  8
Default_Layer
 62
256
 66
   1
 39
0.000000
 70
    1
  0
VERTEX
  8
0
 10
0.15194448
 20
2.10700502
  0
VERTEX
  8
0
 10
0.33333295
 20
2.34622031
  0
VERTEX
  8
0
 10
0.34129272
 20
2.35724047
  0
VERTEX
  8
0
 10
0.34830685
 20
2.36830426
  0
VERTEX
  8
0
 10
0.35437534
 20
2.37941168
  0
VERTEX
  8
0
 10
0.35949820
 20
2.39056274
  0
VERTEX
  8
0
 10
0.36356777
 20
2.40147811
  0
VERTEX
  8
0
 10
0.36647638
 20
2.41187845
  0
VERTEX
  8
0
 10
0.36822406
 20
2.42176378
  0
VERTEX
  8
0
 10
0.36881079
 20
2.43113408
  0
VERTEX
  8
0
 10
0.36881126
 20
2.43182183
  0
VERTEX
  8
0
 10
0.36755455
 20
2.44835038
  0
VERTEX
  8
0
 10
0.36376035
 20
2.46286038
  0
VERTEX
  8
0
 10
0.36091169
 20
2.46935843
  0
VERTEX
  8
0
 10
0.35742866
 20
2.47535184
  0
VERTEX
  8
0
 10
0.35331125
 20
2.48084061
  0
VERTEX
  8
0
 10
0.34855947
 20
2.48582475
  0
VERTEX
  8
0
 10
0.34322707
 20
2.49034182
  0
VERTEX
  8
0
 10
0.33736770
 20
2.49425747
  0
VERTEX
  8
0
 10
0.33098134
 20
2.49757169
  0
VERTEX
  8
0
 10
0.32406801
 20
2.50028448
  0
VERTEX
  8
0
 10
0.30866042
 20
2.50390579
  0
VERTEX
  8
0
 10
0.29114492
 20
2.50512139
  0
VERTEX
  8
0
 10
0.27459486
 20
2.50384320
  0
VERTEX
  8
0
 10
0.25967646
 20
2.49998480
  0
VERTEX
  8
0
 10
0.25282913
 20
2.49708803
  0
VERTEX
  8
0
 10
0.24638971
 20
2.49354619
  0
VERTEX
  8
0
 10
0.24035821
 20
2.48935931
  0
VERTEX
  8
0
 10
0.23473462
 20
2.48452737
  0
VERTEX
  8
0
 10
0.22957808
 20
2.47909870
  0
VERTEX
  8
0
 10
0.22494773
 20
2.47312160
  0
VERTEX
  8
0
 10
0.21726559
 20
2.45952216
  0
VERTEX
  8
0
 10
0.21168821
 20
2.44372905
  0
VERTEX
  8
0
 10
0.20821558
 20
2.42574226
  0
VERTEX
  8
0
 10
0.20821534
 20
2.42539838
  0
VERTEX
  8
0
 10
0.14597326
 20
2.42544111
  0
VERTEX
  8
0
 10
0.14597350
 20
2.42578499
  0
VERTEX
  8
0
 10
0.14987784
 20
2.44647953
  0
VERTEX
  8
0
 10
0.15537152
 20
2.46558253
  0
VERTEX
  8
0
 10
0.16245456
 20
2.48309401
  0
VERTEX
  8
0
 10
0.17112694
 20
2.49901396
  0
VERTEX
  8
0
 10
0.18145318
 20
2.51338531
  0
VERTEX
  8
0
 10
0.19315366
 20
2.52590737
  0
VERTEX
  8
0
 10
0.20622839
 20
2.53658014
  0
VERTEX
  8
0
 10
0.22067737
 20
2.54540361
  0
VERTEX
  8
0
 10
0.23639319
 20
2.55246383
  0
VERTEX
  8
0
 10
0.25326821
 20
2.55750297
  0
VERTEX
  8
0
 10
0.27130244
 20
2.56052103
  0
VERTEX
  8
0
 10
0.29049587
 20
2.56151799
  0
VERTEX
  8
0
 10
0.31203062
 20
2.56053605
  0
VERTEX
  8
0
 10
0.33193062
 20
2.55762091
  0
VERTEX
  8
0
 10
0.35019587
 20
2.55277257
  0
VERTEX
  8
0
 10
0.36682636
 20
2.54599104
  0
VERTEX
  8
0
 10
0.38169332
 20
2.53753430
  0
VERTEX
  8
0
 10
0.39466774
 20
2.52731649
  0
VERTEX
  8
0
 10
0.40574962
 20
2.51533759
  0
VERTEX
  8
0
 10
0.41493895
 20
2.50159761
  0
VERTEX
  8
0
 10
0.42214986
 20
2.48622557
  0
VERTEX
  8
0
 10
0.42729646
 20
2.46935047
  0
VERTEX
  8
0
 10
0.43037875
 20
2.45097232
  0
VERTEX
  8
0
 10
0.43139674
 20
2.43109111
  0
VERTEX
  8
0
 10
0.43139651
 20
2.43074723
  0
VERTEX
  8
0
 10
0.43061407
 20
2.41806723
  0
VERTEX
  8
0
 10
0.42828377
 20
2.40478650
  0
VERTEX
  8
0
 10
0.42440560
 20
2.39090505
  0
VERTEX
  8
0
 10
0.41897957
 20
2.37642287
  0
VERTEX
  8
0
 10
0.41232827
 20
2.36166213
  0
VERTEX
  8
0
 10
0.40443044
 20
2.34694523
  0
VERTEX
  8
0
 10
0.39528608
 20
2.33227217
  0
VERTEX
  8
0
 10
0.38489519
 20
2.31764295
  0
VERTEX
  8
0
 10
0.22966512
 20
2.11279761
  0
VERTEX
  8
0
 10
0.43392917
 20
2.11265739
  0
VERTEX
  8
0
 10
0.43389046
 20
2.05626125
  0
VERTEX
  8
0
 10
0.15190978
 20
2.05645483
  0
VERTEX
  8
0
 10
0.15194448
 20
2.10700502
  0
SEQEND
  0
POLYLINE
  8
Default_Layer
 62
256
 66
   1
 39
0.000000
 70
    1
  0
VERTEX
  8
0
 10
0.13212370
 20
4.27612796
  0
VERTEX
  8
0
 10
0.30019226
 20
4.64843358
  0
VERTEX
  8
0
 10
0.36209045
 20
4.64839109
  0
VERTEX
  8
0
 10
0.19815128
 20
4.28020918
  0
VERTEX
  8
0
 10
0.45365328
 20
4.28003378
  0
VERTEX
  8
0
 10
0.45361575
 20
4.22535704
  0
VERTEX
  8
0
 10
0.13208900
 20
4.22557777
  0
VERTEX
  8
0
 10
0.13212370
 20
4.27612796
  0
SEQEND
  0
POLYLINE
  8
Default_Layer
 62
256
 66
   1
 39
0.000000
 70
    1
  0
VERTEX
  8
0
 10
0.35300843
 20
4.44275766
  0
VERTEX
  8
0
 10
0.41112396
 20
4.44271776
  0
VERTEX
  8
0
 10
0.41092189
 20
4.14835745
  0
VERTEX
  8
0
 10
0.35280636
 20
4.14839734
  0
VERTEX
  8
0
 10
0.35300843
 20
4.44275766
  0
SEQEND
  0
POLYLINE
  8
Default_Layer
 62
256
 66
   1
 39
0.000000
 70
    1
  0
VERTEX
  8
0
 10
0.29478489
 20
6.03477441
  0
VERTEX
  8
0
 10
0.27357261
 20
6.03588509
  0
VERTEX
  8
0
 10
0.25395228
 20
6.03918690
  0
VERTEX
  8
0
 10
0.23592390
 20
6.04467985
  0
VERTEX
  8
0
 10
0.21948746
 20
6.05236394
  0
VERTEX
  8
0
 10
0.20477196
 20
6.06230354
  0
VERTEX
  8
0
 10
0.19190617
 20
6.07421919
  0
VERTEX
  8
0
 10
0.18089008
 20
6.08811087
  0
VERTEX
  8
0
 10
0.17172370
 20
6.10397858
  0
VERTEX
  8
0
 10
0.16466497
 20
6.12186514
  0
VERTEX
  8
0
 10
0.15962770
 20
6.14146970
  0
VERTEX
  8
0
 10
0.15661191
 20
6.16279227
  0
VERTEX
  8
0
 10
0.15561758
 20
6.18583285
  0
VERTEX
  8
0
 10
0.15561782
 20
6.18617673
  0
VERTEX
  8
0
 10
0.15603585
 20
6.20027548
  0
VERTEX
  8
0
 10
0.15727083
 20
6.21471755
  0
VERTEX
  8
0
 10
0.15932277
 20
6.22950294
  0
VERTEX
  8
0
 10
0.16219165
 20
6.24463165
  0
VERTEX
  8
0
 10
0.17020766
 20
6.27497347
  0
VERTEX
  8
0
 10
0.18114630
 20
6.30479747
  0
VERTEX
  8
0
 10
0.18562357
 20
6.31476689
  0
VERTEX
  8
0
 10
0.19044472
 20
6.32473607
  0
VERTEX
  8
0
 10
0.29925822
 20
6.53992965
  0
VERTEX
  8
0
 10
0.36459521
 20
6.53988479
  0
VERTEX
  8
0
 10
0.23684500
 20
6.29066019
  0
VERTEX
  8
0
 10
0.23719737
 20
6.30303959
  0
VERTEX
  8
0
 10
0.24238229
 20
6.31066585
  0
VERTEX
  8
0
 10
0.24864120
 20
6.31738869
  0
VERTEX
  8
0
 10
0.25597412
 20
6.32320811
  0
VERTEX
  8
0
 10
0.26438104
 20
6.32812410
  0
VERTEX
  8
0
 10
0.27381890
 20
6.33202925
  0
VERTEX
  8
0
 10
0.28390077
 20
6.33481634
  0
VERTEX
  8
0
 10
0.29462664
 20
6.33648539
  0
VERTEX
  8
0
 10
0.30599652
 20
6.33703639
  0
VERTEX
  8
0
 10
0.32555388
 20
6.33592685
  0
VERTEX
  8
0
 10
0.34364825
 20
6.33262608
  0
VERTEX
  8
0
 10
0.36027962
 20
6.32713409
  0
VERTEX
  8
0
 10
0.37544801
 20
6.31945088
  0
VERTEX
  8
0
 10
0.38915347
 20
6.30966241
  0
VERTEX
  8
0
 10
0.40105217
 20
6.29785489
  0
VERTEX
  8
0
 10
0.41114413
 20
6.28402833
  0
VERTEX
  8
0
 10
0.41942933
 20
6.26818271
  0
VERTEX
  8
0
 10
0.42603696
 20
6.25064034
  0
VERTEX
  8
0
 10
0.43075208
 20
6.23137988
  0
VERTEX
  8
0
 10
0.43357468
 20
6.21040132
  0
VERTEX
  8
0
 10
0.43450476
 20
6.18770467
  0
VERTEX
  8
0
 10
0.43450453
 20
6.18736079
  0
VERTEX
  8
0
 10
0.43345696
 20
6.16414967
  0
VERTEX
  8
0
 10
0.43034729
 20
6.14265937
  0
VERTEX
  8
0
 10
0.42517553
 20
6.12288987
  0
VERTEX
  8
0
 10
0.41794168
 20
6.10484119
  0
VERTEX
  8
0
 10
0.40888228
 20
6.08868510
  0
VERTEX
  8
0
 10
0.39788997
 20
6.07459360
  0
VERTEX
  8
0
 10
0.38496475
 20
6.06256671
  0
VERTEX
  8
0
 10
0.37010664
 20
6.05260442
  0
VERTEX
  8
0
 10
0.35365956
 20
6.04479246
  0
VERTEX
  8
0
 10
0.33562357
 20
6.03921681
  0
VERTEX
  8
0
 10
0.31599868
 20
6.03587746
  0
VERTEX
  8
0
 10
0.29478489
 20
6.03477441
  0
SEQEND
  0
POLYLINE
  8
Default_Layer
 62
256
 66
   1
 39
0.000000
 70
    1
  0
VERTEX
  8
0
 10
0.29482408
 20
6.09185831
  0
VERTEX
  8
0
 10
0.30409294
 20
6.09221732
  0
VERTEX
  8
0
 10
0.31281424
 20
6.09330744
  0
VERTEX
  8
0
 10
0.32098799
 20
6.09512869
  0
VERTEX
  8
0
 10
0.32861419
 20
6.09768105
  0
VERTEX
  8
0
 10
0.33569283
 20
6.10096454
  0
VERTEX
  8
0
 10
0.34222391
 20
6.10497914
  0
VERTEX
  8
0
 10
0.34820744
 20
6.10972486
  0
VERTEX
  8
0
 10
0.35364342
 20
6.11520170
  0
VERTEX
  8
0
 10
0.35856403
 20
6.12135054
  0
VERTEX
  8
0
 10
0.36282955
 20
6.12811235
  0
VERTEX
  8
0
 10
0.36643997
 20
6.13548715
  0
VERTEX
  8
0
 10
0.36939529
 20
6.14347494
  0
VERTEX
  8
0
 10
0.37169551
 20
6.15207571
  0
VERTEX
  8
0
 10
0.37334064
 20
6.16128946
  0
VERTEX
  8
0
 10
0.37466559
 20
6.18155592
  0
VERTEX
  8
0
 10
0.37466583
 20
6.18189980
  0
VERTEX
  8
0
 10
0.37332694
 20
6.20395197
  0
VERTEX
  8
0
 10
0.37164129
 20
6.21397935
  0
VERTEX
  8
0
 10
0.36927818
 20
6.22334093
  0
VERTEX
  8
0
 10
0.36623760
 20
6.23203671
  0
VERTEX
  8
0
 10
0.36251954
 20
6.24006668
  0
VERTEX
  8
0
 10
0.35812402
 20
6.24743086
  0
VERTEX
  8
0
 10
0.35305103
 20
6.25412924
  0
VERTEX
  8
0
 10
0.34735431
 20
6.26017790
  0
VERTEX
  8
0
 10
0.34108749
 20
6.26542098
  0
VERTEX
  8
0
 10
0.33425057
 20
6.26985849
  0
VERTEX
  8
0
 10
0.32684355
 20
6.27349043
  0
VERTEX
  8
0
 10
0.31886642
 20
6.27631679
  0
VERTEX
  8
0
 10
0.31031919
 20
6.27833757
  0
VERTEX
  8
0
 10
0.30120185
 20
6.27955278
  0
VERTEX
  8
0
 10
0.29151442
 20
6.27996241
  0
VERTEX
  8
0
 10
0.28273986
 20
6.27956545
  0
VERTEX
  8
0
 10
0.27446981
 20
6.27836218
  0
VERTEX
  8
0
 10
0.26670429
 20
6.27635259
  0
VERTEX
  8
0
 10
0.25944329
 20
6.27353670
  0
VERTEX
  8
0
 10
0.25268680
 20
6.26991449
  0
VERTEX
  8
0
 10
0.24643483
 20
6.26548596
  0
VERTEX
  8
0
 10
0.24068739
 20
6.26025112
  0
VERTEX
  8
0
 10
0.23544446
 20
6.25420998
  0
VERTEX
  8
0
 10
0.23076525
 20
6.24751292
  0
VERTEX
  8
0
 10
0.22670887
 20
6.24013842
  0
VERTEX
  8
0
 10
0.22327529
 20
6.23208649
  0
VERTEX
  8
0
 10
0.22046454
 20
6.22335712
  0
VERTEX
  8
0
 10
0.21671147
 20
6.20386605
  0
VERTEX
  8
0
 10
0.21544967
 20
6.18166523
  0
VERTEX
  8
0
 10
0.21544943
 20
6.18132135
  0
VERTEX
  8
0
 10
0.21672517
 20
6.16120355
  0
VERTEX
  8
0
 10
0.21833082
 20
6.15204667
  0
VERTEX
  8
0
 10
0.22058165
 20
6.14349113
  0
VERTEX
  8
0
 10
0.22347767
 20
6.13553694
  0
VERTEX
  8
0
 10
0.22701887
 20
6.12818409
  0
VERTEX
  8
0
 10
0.23120527
 20
6.12143259
  0
VERTEX
  8
0
 10
0.23603684
 20
6.11528244
  0
VERTEX
  8
0
 10
0.24154051
 20
6.10979809
  0
VERTEX
  8
0
 10
0.24757125
 20
6.10504412
  0
VERTEX
  8
0
 10
0.25412906
 20
6.10102053
  0
VERTEX
  8
0
 10
0.26121393
 20
6.09772732
  0
VERTEX
  8
0
 10
0.26882587
 20
6.09516450
  0
VERTEX
  8
0
 10
0.27696487
 20
6.09333205
  0
VERTEX
  8
0
 10
0.28563094
 20
6.09222999
  0
VERTEX
  8
0
 10
0.29482408
 20
6.09185831
  0
SEQEND
  0
POLYLINE
  8
Default_Layer
 62
256
 66
   1
 39
0.000000
 70
    1
  0
VERTEX
  8
0
 10
0.29238362
 20
8.11317017
  0
VERTEX
  8
0
 10
0.26992474
 20
8.11421723
  0
VERTEX
  8
0
 10
0.24897175
 20
8.11732652
  0
VERTEX
  8
0
 10
0.22952464
 20
8.12249806
  0
VERTEX
  8
0
 10
0.21158342
 20
8.12973183
  0
VERTEX
  8
0
 10
0.19553496
 20
8.13904908
  0
VERTEX
  8
0
 10
0.18142203
 20
8.15012737
  0
VERTEX
  8
0
 10
0.16924464
 20
8.16296672
  0
VERTEX
  8
0
 10
0.15900276
 20
8.17756712
  0
VERTEX
  8
0
 10
0.15104030
 20
8.19392833
  0
VERTEX
  8
0
 10
0.14535701
 20
8.21170648
  0
VERTEX
  8
0
 10
0.14195289
 20
8.23090156
  0
VERTEX
  8
0
 10
0.14082794
 20
8.25151359
  0
VERTEX
  8
0
 10
0.14083243
 20
8.25804728
  0
VERTEX
  8
0
 10
0.14198448
 20
8.27691686
  0
VERTEX
  8
0
 10
0.14541420
 20
8.29501114
  0
VERTEX
  8
0
 10
0.15112158
 20
8.31233012
  0
VERTEX
  8
0
 10
0.15910664
 20
8.32887382
  0
VERTEX
  8
0
 10
0.16924003
 20
8.34410500
  0
VERTEX
  8
0
 10
0.18104857
 20
8.35748669
  0
VERTEX
  8
0
 10
0.19453224
 20
8.36901887
  0
VERTEX
  8
0
 10
0.20969106
 20
8.37870156
  0
VERTEX
  8
0
 10
0.19682294
 20
8.38722140
  0
VERTEX
  8
0
 10
0.18537438
 20
8.39728772
  0
VERTEX
  8
0
 10
0.17534538
 20
8.40890052
  0
VERTEX
  8
0
 10
0.16673595
 20
8.42205980
  0
VERTEX
  8
0
 10
0.15997570
 20
8.43644289
  0
VERTEX
  8
0
 10
0.15515016
 20
8.45138344
  0
VERTEX
  8
0
 10
0.15225932
 20
8.46688148
  0
VERTEX
  8
0
 10
0.15130318
 20
8.48293699
  0
VERTEX
  8
0
 10
0.15130908
 20
8.49153396
  0
VERTEX
  8
0
 10
0.15239716
 20
8.51113432
  0
VERTEX
  8
0
 10
0.15563354
 20
8.52935768
  0
VERTEX
  8
0
 10
0.16101821
 20
8.54620406
  0
VERTEX
  8
0
 10
0.16855118
 20
8.56167344
  0
VERTEX
  8
0
 10
0.17806050
 20
8.57574446
  0
VERTEX
  8
0
 10
0.18937398
 20
8.58805187
  0
VERTEX
  8
0
 10
0.20249160
 20
8.59859565
  0
VERTEX
  8
0
 10
0.21741338
 20
8.60737581
  0
VERTEX
  8
0
 10
0.23411785
 20
8.61443536
  0
VERTEX
  8
0
 10
0.25223944
 20
8.61947364
  0
VERTEX
  8
0
 10
0.27177814
 20
8.62249066
  0
VERTEX
  8
0
 10
0.29273395
 20
8.62348642
  0
VERTEX
  8
0
 10
0.31381733
 20
8.62246180
  0
VERTEX
  8
0
 10
0.33339485
 20
8.61941793
  0
VERTEX
  8
0
 10
0.35146652
 20
8.61435480
  0
VERTEX
  8
0
 10
0.36803233
 20
8.60727241
  0
VERTEX
  8
0
 10
0.38307100
 20
8.59847168
  0
VERTEX
  8
0
 10
0.39621712
 20
8.58790987
  0
VERTEX
  8
0
 10
0.40747070
 20
8.57558698
  0
VERTEX
  8
0
 10
0.41683173
 20
8.56150300
  0
VERTEX
  8
0
 10
0.42434346
 20
8.54602329
  0
VERTEX
  8
0
 10
0.42970500
 20
8.52916953
  0
VERTEX
  8
0
 10
0.43291635
 20
8.51094174
  0
VERTEX
  8
0
 10
0.43397752
 20
8.49133991
  0
VERTEX
  8
0
 10
0.43397162
 20
8.48274294
  0
VERTEX
  8
0
 10
0.43297165
 20
8.46625892
  0
VERTEX
  8
0
 10
0.42999488
 20
8.45050701
  0
VERTEX
  8
0
 10
0.42504130
 20
8.43548719
  0
VERTEX
  8
0
 10
0.41811093
 20
8.42119948
  0
VERTEX
  8
0
 10
0.40944057
 20
8.40822400
  0
VERTEX
  8
0
 10
0.39926680
 20
8.39679700
  0
VERTEX
  8
0
 10
0.38758962
 20
8.38691850
  0
VERTEX
  8
0
 10
0.37440904
 20
8.37858848
  0
VERTEX
  8
0
 10
0.38985534
 20
8.36873434
  0
VERTEX
  8
0
 10
0.40353802
 20
8.35707604
  0
VERTEX
  8
0
 10
0.41545708
 20
8.34361359
  0
VERTEX
  8
0
 10
0.42561253
 20
8.32834699
  0
VERTEX
  8
0
 10
0.43372541
 20
8.31194269
  0
VERTEX
  8
0
 10
0.43951655
 20
8.29472327
  0
VERTEX
  8
0
 10
0.44298594
 20
8.27668873
  0
VERTEX
  8
0
 10
0.44413359
 20
8.25783907
  0
VERTEX
  8
0
 10
0.44412911
 20
8.25130537
  0
VERTEX
  8
0
 10
0.44297586
 20
8.23069491
  0
VERTEX
  8
0
 10
0.43954539
 20
8.21150452
  0
VERTEX
  8
0
 10
0.43383769
 20
8.19373419
  0
VERTEX
  8
0
 10
0.42585277
 20
8.17738393
  0
VERTEX
  8
0
 10
0.41571982
 20
8.16279752
  0
VERTEX
  8
0
 10
0.40356779
 20
8.14997487
  0
VERTEX
  8
0
 10
0.38939668
 20
8.13891599
  0
VERTEX
  8
0
 10
0.37320649
 20
8.12962088
  0
VERTEX
  8
0
 10
0.35538431
 20
8.12241166
  0
VERTEX
  8
0
 10
0.33597310
 20
8.11726680
  0
VERTEX
  8
0
 10
0.31497287
 20
8.11418630
  0
VERTEX
  8
0
 10
0.29238362
 20
8.11317017
  0
SEQEND
  0
POLYLINE
  8
Default_Layer
 62
256
 66
   1
 39
0.000000
 70
    1
  0
VERTEX
  8
0
 10
0.29242234
 20
8.16956631
  0
VERTEX
  8
0
 10
0.30604898
 20
8.17020173
  0
VERTEX
  8
0
 10
0.31873084
 20
8.17212734
  0
VERTEX
  8
0
 10
0.33046792
 20
8.17534315
  0
VERTEX
  8
0
 10
0.34126022
 20
8.17984915
  0
VERTEX
  8
0
 10
0.35097872
 20
8.18555947
  0
VERTEX
  8
0
 10
0.35949442
 20
8.19238822
  0
VERTEX
  8
0
 10
0.36680730
 20
8.20033540
  0
VERTEX
  8
0
 10
0.37291738
 20
8.20940102
  0
VERTEX
  8
0
 10
0.37773871
 20
8.21962811
  0
VERTEX
  8
0
 10
0.38118511
 20
8.23071584
  0
VERTEX
  8
0
 10
0.38325658
 20
8.24266422
  0
VERTEX
  8
0
 10
0.38395314
 20
8.25547323
  0
VERTEX
  8
0
 10
0.38395526
 20
8.25856814
  0
VERTEX
  8
0
 10
0.38327639
 20
8.27150706
  0
VERTEX
  8
0
 10
0.38122134
 20
8.28350125
  0
VERTEX
  8
0
 10
0.37779014
 20
8.29455072
  0
VERTEX
  8
0
 10
0.37298277
 20
8.30465546
  0
VERTEX
  8
0
 10
0.36688525
 20
8.31387991
  0
VERTEX
  8
0
 10
0.35958336
 20
8.32194458
  0
VERTEX
  8
0
 10
0.35107709
 20
8.32884950
  0
VERTEX
  8
0
 10
0.34136645
 20
8.33459464
  0
VERTEX
  8
0
 10
0.33058045
 20
8.33926591
  0
VERTEX
  8
0
 10
0.31884787
 20
8.34260529
  0
VERTEX
  8
0
 10
0.30616871
 20
8.34461279
  0
VERTEX
  8
0
 10
0.29254297
 20
8.34528841
  0
VERTEX
  8
0
 10
0.27891631
 20
8.34463150
  0
VERTEX
  8
0
 10
0.26623441
 20
8.34264141
  0
VERTEX
  8
0
 10
0.25449725
 20
8.33931814
  0
VERTEX
  8
0
 10
0.24370485
 20
8.33466169
  0
VERTEX
  8
0
 10
0.23413678
 20
8.32892978
  0
VERTEX
  8
0
 10
0.22572851
 20
8.32203647
  0
VERTEX
  8
0
 10
0.21848002
 20
8.31398179
  0
VERTEX
  8
0
 10
0.21239134
 20
8.30476571
  0
VERTEX
  8
0
 10
0.20756999
 20
8.29451712
  0
VERTEX
  8
0
 10
0.20412355
 20
8.28336491
  0
VERTEX
  8
0
 10
0.20205200
 20
8.27130908
  0
VERTEX
  8
0
 10
0.20135534
 20
8.25834962
  0
VERTEX
  8
0
 10
0.20135298
 20
8.25491083
  0
VERTEX
  8
0
 10
0.20203206
 20
8.24227281
  0
VERTEX
  8
0
 10
0.20408725
 20
8.23049354
  0
VERTEX
  8
0
 10
0.20751855
 20
8.21957302
  0
VERTEX
  8
0
 10
0.21232594
 20
8.20951126
  0
VERTEX
  8
0
 10
0.21840208
 20
8.20043728
  0
VERTEX
  8
0
 10
0.22563957
 20
8.19248011
  0
VERTEX
  8
0
 10
0.23403841
 20
8.18563975
  0
VERTEX
  8
0
 10
0.24359862
 20
8.17991620
  0
VERTEX
  8
0
 10
0.25438472
 20
8.17539538
  0
VERTEX
  8
0
 10
0.26611737
 20
8.17216346
  0
VERTEX
  8
0
 10
0.27879658
 20
8.17022043
  0
VERTEX
  8
0
 10
0.29242234
 20
8.16956631
  0
SEQEND
  0
POLYLINE
  8
Default_Layer
 62
256
 66
   1
 39
0.000000
 70
    1
  0
VERTEX
  8
0
 10
0.29258098
 20
8.40065291
  0
VERTEX
  8
0
 10
0.30487507
 20
8.40126775
  0
VERTEX
  8
0
 10
0.31631033
 20
8.40312974
  0
VERTEX
  8
0
 10
0.32688675
 20
8.40623889
  0
VERTEX
  8
0
 10
0.33660432
 20
8.41059518
  0
VERTEX
  8
0
 10
0.34535553
 20
8.41611273
  0
VERTEX
  8
0
 10
0.35303286
 20
8.42270564
  0
VERTEX
  8
0
 10
0.35963630
 20
8.43037391
  0
VERTEX
  8
0
 10
0.36516586
 20
8.43911753
  0
VERTEX
  8
0
 10
0.36953561
 20
8.44900106
  0
VERTEX
  8
0
 10
0.37265939
 20
8.45974513
  0
VERTEX
  8
0
 10
0.37453720
 20
8.47134976
  0
VERTEX
  8
0
 10
0.37516904
 20
8.48381494
  0
VERTEX
  8
0
 10
0.37517234
 20
8.48862925
  0
VERTEX
  8
0
 10
0.37455715
 20
8.50040752
  0
VERTEX
  8
0
 10
0.37269480
 20
8.51132696
  0
VERTEX
  8
0
 10
0.36958530
 20
8.52138756
  0
VERTEX
  8
0
 10
0.36522865
 20
8.53058931
  0
VERTEX
  8
0
 10
0.35971087
 20
8.53899665
  0
VERTEX
  8
0
 10
0.35311772
 20
8.54633009
  0
VERTEX
  8
0
 10
0.34544922
 20
8.55258966
  0
VERTEX
  8
0
 10
0.33670536
 20
8.55777534
  0
VERTEX
  8
0
 10
0.32699367
 20
8.56199452
  0
VERTEX
  8
0
 10
0.31642146
 20
8.56501072
  0
VERTEX
  8
0
 10
0.30498873
 20
8.56682394
  0
VERTEX
  8
0
 10
0.29269547
 20
8.56743416
  0
VERTEX
  8
0
 10
0.28055184
 20
8.56684071
  0
VERTEX
  8
0
 10
0.26922409
 20
8.56504312
  0
VERTEX
  8
0
 10
0.25871222
 20
8.56204140
  0
VERTEX
  8
0
 10
0.24901624
 20
8.55783554
  0
VERTEX
  8
0
 10
0.24026527
 20
8.55266187
  0
VERTEX
  8
0
 10
0.23258818
 20
8.54641284
  0
VERTEX
  8
0
 10
0.22598497
 20
8.53908845
  0
VERTEX
  8
0
 10
0.22045565
 20
8.53068870
  0
VERTEX
  8
0
 10
0.21608627
 20
8.52134249
  0
VERTEX
  8
0
 10
0.21296289
 20
8.51117871
  0
VERTEX
  8
0
 10
0.21108551
 20
8.50019736
  0
VERTEX
  8
0
 10
0.21045412
 20
8.48839844
  0
VERTEX
  8
0
 10
0.21045058
 20
8.48324026
  0
VERTEX
  8
0
 10
0.21106542
 20
8.47094616
  0
VERTEX
  8
0
 10
0.21292742
 20
8.45951091
  0
VERTEX
  8
0
 10
0.21603656
 20
8.44893449
  0
VERTEX
  8
0
 10
0.22039285
 20
8.43921692
  0
VERTEX
  8
0
 10
0.22591040
 20
8.43046571
  0
VERTEX
  8
0
 10
0.23250331
 20
8.42278838
  0
VERTEX
  8
0
 10
0.24017158
 20
8.41618494
  0
VERTEX
  8
0
 10
0.24891521
 20
8.41065538
  0
VERTEX
  8
0
 10
0.25860530
 20
8.40628576
  0
VERTEX
  8
0
 10
0.26911296
 20
8.40316214
  0
VERTEX
  8
0
 10
0.28043818
 20
8.40128453
  0
VERTEX
  8
0
 10
0.29258098
 20
8.40065291
  0
SEQEND
  0
POLYLINE
  8
Default_Layer
 62
256
 66
   1
 39
0.000000
 70
    1
  0
VERTEX
  8
0
 10
0.26600402
 20
10.13014774
  0
VERTEX
  8
0
 10
0.20616909
 20
10.13018882
  0
VERTEX
  8
0
 10
0.20647173
 20
10.57104153
  0
VERTEX
  8
0
 10
0.12493774
 20
10.52054729
  0
VERTEX
  8
0
 10
0.12498047
 20
10.58278936
  0
VERTEX
  8
0
 10
0.19619597
 20
10.63019578
  0
VERTEX
  8
0
 10
0.26634726
 20
10.63014762
  0
VERTEX
  8
0
 10
0.26600402
 20
10.13014774
  0
SEQEND
  0
POLYLINE
  8
Default_Layer
 62
256
 66
   1
 39
0.000000
 70
    1
  0
VERTEX
  8
0
 10
0.52254135
 20
10.63637533
  0
VERTEX
  8
0
 10
0.53955220
 20
10.63577799
  0
VERTEX
  8
0
 10
0.55550912
 20
10.63401002
  0
VERTEX
  8
0
 10
0.57041211
 20
10.63107145
  0
VERTEX
  8
0
 10
0.58426117
 20
10.62696226
  0
VERTEX
  8
0
 10
0.59705629
 20
10.62168245
  0
VERTEX
  8
0
 10
0.60879748
 20
10.61523203
  0
VERTEX
  8
0
 10
0.61948474
 20
10.60761100
  0
VERTEX
  8
0
 10
0.62911806
 20
10.59881935
  0
VERTEX
  8
0
 10
0.63757396
 20
10.58898076
  0
VERTEX
  8
0
 10
0.64490087
 20
10.57821876
  0
VERTEX
  8
0
 10
0.65109879
 20
10.56653337
  0
VERTEX
  8
0
 10
0.65616772
 20
10.55392457
  0
VERTEX
  8
0
 10
0.66010766
 20
10.54039237
  0
VERTEX
  8
0
 10
0.66291862
 20
10.52593678
  0
VERTEX
  8
0
 10
0.66460060
 20
10.51055778
  0
VERTEX
  8
0
 10
0.66515358
 20
10.49425539
  0
VERTEX
  8
0
 10
0.66499754
 20
10.26695145
  0
VERTEX
  8
0
 10
0.66441675
 20
10.25057461
  0
VERTEX
  8
0
 10
0.66269750
 20
10.23514422
  0
VERTEX
  8
0
 10
0.65983981
 20
10.22066028
  0
VERTEX
  8
0
 10
0.65584367
 20
10.20712278
  0
VERTEX
  8
0
 10
0.65070908
 20
10.19453174
  0
VERTEX
  8
0
 10
0.64443604
 20
10.18288714
  0
VERTEX
  8
0
 10
0.63702455
 20
10.17218900
  0
VERTEX
  8
0
 10
0.62847461
 20
10.16243730
  0
VERTEX
  8
0
 10
0.61883460
 20
10.15365888
  0
VERTEX
  8
0
 10
0.60815301
 20
10.14605252
  0
VERTEX
  8
0
 10
0.59642984
 20
10.13961821
  0
VERTEX
  8
0
 10
0.58366509
 20
10.13435595
  0
VERTEX
  8
0
 10
0.56985876
 20
10.13026574
  0
VERTEX
  8
0
 10
0.55501086
 20
10.12734759
  0
VERTEX
  8
0
 10
0.53912137
 20
10.12560149
  0
VERTEX
  8
0
 10
0.52219031
 20
10.12502745
  0
VERTEX
  8
0
 10
0.50518482
 20
10.12561942
  0
VERTEX
  8
0
 10
0.48924401
 20
10.12737125
  0
VERTEX
  8
0
 10
0.47436787
 20
10.13028294
  0
VERTEX
  8
0
 10
0.46055639
 20
10.13435449
  0
VERTEX
  8
0
 10
0.44780960
 20
10.13958591
  0
VERTEX
  8
0
 10
0.43612747
 20
10.14597718
  0
VERTEX
  8
0
 10
0.42551002
 20
10.15352832
  0
VERTEX
  8
0
 10
0.41595723
 20
10.16223931
  0
VERTEX
  8
0
 10
0.40742069
 20
10.17200811
  0
VERTEX
  8
0
 10
0.40002391
 20
10.18273254
  0
VERTEX
  8
0
 10
0.39376688
 20
10.19441261
  0
VERTEX
  8
0
 10
0.38864961
 20
10.20704830
  0
VERTEX
  8
0
 10
0.38467209
 20
10.22063963
  0
VERTEX
  8
0
 10
0.38183433
 20
10.23518658
  0
VERTEX
  8
0
 10
0.38013632
 20
10.25068917
  0
VERTEX
  8
0
 10
0.37957807
 20
10.26714739
  0
VERTEX
  8
0
 10
0.37973412
 20
10.49445133
  0
VERTEX
  8
0
 10
0.38031491
 20
10.51083354
  0
VERTEX
  8
0
 10
0.38203416
 20
10.52628005
  0
VERTEX
  8
0
 10
0.38489187
 20
10.54079086
  0
VERTEX
  8
0
 10
0.38888804
 20
10.55436596
  0
VERTEX
  8
0
 10
0.39402266
 20
10.56700537
  0
VERTEX
  8
0
 10
0.40029575
 20
10.57870907
  0
VERTEX
  8
0
 10
0.40770728
 20
10.58947706
  0
VERTEX
  8
0
 10
0.41625728
 20
10.59930936
  0
VERTEX
  8
0
 10
0.42589723
 20
10.60800718
  0
VERTEX
  8
0
 10
0.43657878
 20
10.61554369
  0
VERTEX
  8
0
 10
0.44830191
 20
10.62191890
  0
VERTEX
  8
0
 10
0.46106662
 20
10.62713280
  0
VERTEX
  8
0
 10
0.47487292
 20
10.63118539
  0
VERTEX
  8
0
 10
0.48972081
 20
10.63407668
  0
VERTEX
  8
0
 10
0.50561029
 20
10.63580666
  0
VERTEX
  8
0
 10
0.52254135
 20
10.63637533
  0
SEQEND
  0
POLYLINE
  8
Default_Layer
 62
256
 66
   1
 39
0.000000
 70
    1
  0
VERTEX
  8
0
 10
0.52250263
 20
10.57997920
  0
VERTEX
  8
0
 10
0.50259970
 20
10.57861734
  0
VERTEX
  8
0
 10
0.49371140
 20
10.57690405
  0
VERTEX
  8
0
 10
0.48553187
 20
10.57450251
  0
VERTEX
  8
0
 10
0.47806113
 20
10.57141273
  0
VERTEX
  8
0
 10
0.47129916
 20
10.56763470
  0
VERTEX
  8
0
 10
0.46524598
 20
10.56316843
  0
VERTEX
  8
0
 10
0.45990157
 20
10.55801391
  0
VERTEX
  8
0
 10
0.45514233
 20
10.55213363
  0
VERTEX
  8
0
 10
0.45101671
 20
10.54566186
  0
VERTEX
  8
0
 10
0.44752471
 20
10.53859862
  0
VERTEX
  8
0
 10
0.44466634
 20
10.53094390
  0
VERTEX
  8
0
 10
0.44085045
 20
10.51386003
  0
VERTEX
  8
0
 10
0.43956904
 20
10.49441025
  0
VERTEX
  8
0
 10
0.43941300
 20
10.26710631
  0
VERTEX
  8
0
 10
0.44066761
 20
10.24752584
  0
VERTEX
  8
0
 10
0.44224659
 20
10.23865375
  0
VERTEX
  8
0
 10
0.44446001
 20
10.23039376
  0
VERTEX
  8
0
 10
0.44730788
 20
10.22274587
  0
VERTEX
  8
0
 10
0.45079020
 20
10.21571008
  0
VERTEX
  8
0
 10
0.45490697
 20
10.20928639
  0
VERTEX
  8
0
 10
0.45965818
 20
10.20347480
  0
VERTEX
  8
0
 10
0.46499551
 20
10.19831295
  0
VERTEX
  8
0
 10
0.47104256
 20
10.19383837
  0
VERTEX
  8
0
 10
0.47779933
 20
10.19005106
  0
VERTEX
  8
0
 10
0.48526582
 20
10.18695102
  0
VERTEX
  8
0
 10
0.49344204
 20
10.18453826
  0
VERTEX
  8
0
 10
0.50232798
 20
10.18281276
  0
VERTEX
  8
0
 10
0.52222902
 20
10.18142358
  0
VERTEX
  8
0
 10
0.54215345
 20
10.18278542
  0
VERTEX
  8
0
 10
0.55106862
 20
10.18449870
  0
VERTEX
  8
0
 10
0.55928575
 20
10.18690021
  0
VERTEX
  8
0
 10
0.56680485
 20
10.18998996
  0
VERTEX
  8
0
 10
0.57362592
 20
10.19376794
  0
VERTEX
  8
0
 10
0.57974896
 20
10.19823417
  0
VERTEX
  8
0
 10
0.58517397
 20
10.20338863
  0
VERTEX
  8
0
 10
0.58985256
 20
10.20919375
  0
VERTEX
  8
0
 10
0.59390829
 20
10.21561183
  0
VERTEX
  8
0
 10
0.59734116
 20
10.22264288
  0
VERTEX
  8
0
 10
0.60015117
 20
10.23028688
  0
VERTEX
  8
0
 10
0.60390261
 20
10.24741378
  0
VERTEX
  8
0
 10
0.60516261
 20
10.26699253
  0
VERTEX
  8
0
 10
0.60531866
 20
10.49429646
  0
VERTEX
  8
0
 10
0.60406396
 20
10.51374798
  0
VERTEX
  8
0
 10
0.60027153
 20
10.53083708
  0
VERTEX
  8
0
 10
0.59742366
 20
10.53849571
  0
VERTEX
  8
0
 10
0.59394137
 20
10.54556374
  0
VERTEX
  8
0
 10
0.58982464
 20
10.55204117
  0
VERTEX
  8
0
 10
0.58507348
 20
10.55792798
  0
VERTEX
  8
0
 10
0.57966093
 20
10.56308989
  0
VERTEX
  8
0
 10
0.57356014
 20
10.56756450
  0
VERTEX
  8
0
 10
0.56677113
 20
10.57135183
  0
VERTEX
  8
0
 10
0.55929389
 20
10.57445188
  0
VERTEX
  8
0
 10
0.55112842
 20
10.57686463
  0
VERTEX
  8
0
 10
0.54227472
 20
10.57859011
  0
VERTEX
  8
0
 10
0.52250263
 20
10.57997920
  0
SEQEND
  0
POLYLINE
  8
Default_Layer
 62
256
 66
   1
 39
0.000000
 70
    1
  0
VERTEX
  8
0
 10
0.26959803
 20
12.06922505
  0
VERTEX
  8
0
 10
0.20976310
 20
12.06926612
  0
VERTEX
  8
0
 10
0.21006575
 20
12.51011884
  0
VERTEX
  8
0
 10
0.12853175
 20
12.45962459
  0
VERTEX
  8
0
 10
0.12857448
 20
12.52186667
  0
VERTEX
  8
0
 10
0.19978998
 20
12.56927309
  0
VERTEX
  8
0
 10
0.26994127
 20
12.56922493
  0
VERTEX
  8
0
 10
0.26959803
 20
12.06922505
  0
SEQEND
  0
POLYLINE
  8
Default_Layer
 62
256
 66
   1
 39
0.000000
 70
    1
  0
VERTEX
  8
0
 10
0.37554749
 20
12.11990780
  0
VERTEX
  8
0
 10
0.55693597
 20
12.35912308
  0
VERTEX
  8
0
 10
0.56489573
 20
12.37014324
  0
VERTEX
  8
0
 10
0.57190986
 20
12.38120703
  0
VERTEX
  8
0
 10
0.57797836
 20
12.39231446
  0
VERTEX
  8
0
 10
0.58310121
 20
12.40346552
  0
VERTEX
  8
0
 10
0.58717078
 20
12.41438088
  0
VERTEX
  8
0
 10
0.59007940
 20
12.42478123
  0
VERTEX
  8
0
 10
0.59182707
 20
12.43466655
  0
VERTEX
  8
0
 10
0.59241380
 20
12.44403685
  0
VERTEX
  8
0
 10
0.59241427
 20
12.44472461
  0
VERTEX
  8
0
 10
0.59115756
 20
12.46125316
  0
VERTEX
  8
0
 10
0.58736336
 20
12.47576316
  0
VERTEX
  8
0
 10
0.58451470
 20
12.48226120
  0
VERTEX
  8
0
 10
0.58103167
 20
12.48825461
  0
VERTEX
  8
0
 10
0.57691426
 20
12.49374338
  0
VERTEX
  8
0
 10
0.57216248
 20
12.49872752
  0
VERTEX
  8
0
 10
0.56683008
 20
12.50324459
  0
VERTEX
  8
0
 10
0.56097071
 20
12.50716024
  0
VERTEX
  8
0
 10
0.55458436
 20
12.51047446
  0
VERTEX
  8
0
 10
0.54767103
 20
12.51318725
  0
VERTEX
  8
0
 10
0.53226343
 20
12.51680856
  0
VERTEX
  8
0
 10
0.51474793
 20
12.51802416
  0
VERTEX
  8
0
 10
0.49819787
 20
12.51674597
  0
VERTEX
  8
0
 10
0.48327947
 20
12.51288758
  0
VERTEX
  8
0
 10
0.47643214
 20
12.50999080
  0
VERTEX
  8
0
 10
0.46999272
 20
12.50644897
  0
VERTEX
  8
0
 10
0.46396122
 20
12.50226208
  0
VERTEX
  8
0
 10
0.45833763
 20
12.49743014
  0
VERTEX
  8
0
 10
0.45318109
 20
12.49200147
  0
VERTEX
  8
0
 10
0.44855074
 20
12.48602437
  0
VERTEX
  8
0
 10
0.44086860
 20
12.47242493
  0
VERTEX
  8
0
 10
0.43529122
 20
12.45663182
  0
VERTEX
  8
0
 10
0.43181859
 20
12.43864503
  0
VERTEX
  8
0
 10
0.43181835
 20
12.43830115
  0
VERTEX
  8
0
 10
0.36957628
 20
12.43834388
  0
VERTEX
  8
0
 10
0.36957651
 20
12.43868776
  0
VERTEX
  8
0
 10
0.37348085
 20
12.45938230
  0
VERTEX
  8
0
 10
0.37897454
 20
12.47848531
  0
VERTEX
  8
0
 10
0.38605757
 20
12.49599678
  0
VERTEX
  8
0
 10
0.39472995
 20
12.51191673
  0
VERTEX
  8
0
 10
0.40505619
 20
12.52628808
  0
VERTEX
  8
0
 10
0.41675667
 20
12.53881014
  0
VERTEX
  8
0
 10
0.42983140
 20
12.54948291
  0
VERTEX
  8
0
 10
0.44428038
 20
12.55830638
  0
VERTEX
  8
0
 10
0.45999620
 20
12.56536661
  0
VERTEX
  8
0
 10
0.47687122
 20
12.57040574
  0
VERTEX
  8
0
 10
0.49490545
 20
12.57342380
  0
VERTEX
  8
0
 10
0.51409889
 20
12.57442077
  0
VERTEX
  8
0
 10
0.53563364
 20
12.57343882
  0
VERTEX
  8
0
 10
0.55553363
 20
12.57052368
  0
VERTEX
  8
0
 10
0.57379888
 20
12.56567534
  0
VERTEX
  8
0
 10
0.59042937
 20
12.55889381
  0
VERTEX
  8
0
 10
0.60529634
 20
12.55043707
  0
VERTEX
  8
0
 10
0.61827075
 20
12.54021926
  0
VERTEX
  8
0
 10
0.62935263
 20
12.52824036
  0
VERTEX
  8
0
 10
0.63854196
 20
12.51450038
  0
VERTEX
  8
0
 10
0.64575287
 20
12.49912834
  0
VERTEX
  8
0
 10
0.65089947
 20
12.48225324
  0
VERTEX
  8
0
 10
0.65398176
 20
12.46387509
  0
VERTEX
  8
0
 10
0.65499975
 20
12.44399388
  0
VERTEX
  8
0
 10
0.65499952
 20
12.44365001
  0
VERTEX
  8
0
 10
0.65421708
 20
12.43097000
  0
VERTEX
  8
0
 10
0.65188678
 20
12.41768927
  0
VERTEX
  8
0
 10
0.64800862
 20
12.40380782
  0
VERTEX
  8
0
 10
0.64258258
 20
12.38932564
  0
VERTEX
  8
0
 10
0.63593128
 20
12.37456490
  0
VERTEX
  8
0
 10
0.62803345
 20
12.35984800
  0
VERTEX
  8
0
 10
0.61888909
 20
12.34517494
  0
VERTEX
  8
0
 10
0.60849820
 20
12.33054573
  0
VERTEX
  8
0
 10
0.45326813
 20
12.12570038
  0
VERTEX
  8
0
 10
0.65753218
 20
12.12556016
  0
VERTEX
  8
0
 10
0.65749347
 20
12.06916402
  0
VERTEX
  8
0
 10
0.37551279
 20
12.06935760
  0
VERTEX
  8
0
 10
0.37554749
 20
12.11990780
  0
SEQEND
  0
POLYLINE
  8
Default_Layer
 62
256
 66
   1
 39
0.000000
 70
    1
  0
VERTEX
  8
0
 10
0.25219404
 20
14.20317926
  0
VERTEX
  8
0
 10
0.19235912
 20
14.20322033
  0
VERTEX
  8
0
 10
0.19266176
 20
14.64407305
  0
VERTEX
  8
0
 10
0.11112776
 20
14.59357880
  0
VERTEX
  8
0
 10
0.11117049
 20
14.65582088
  0
VERTEX
  8
0
 10
0.18238600
 20
14.70322730
  0
VERTEX
  8
0
 10
0.25253729
 20
14.70317914
  0
VERTEX
  8
0
 10
0.25219404
 20
14.20317926
  0
SEQEND
  0
POLYLINE
  8
Default_Layer
 62
256
 66
   1
 39
0.000000
 70
    1
  0
VERTEX
  8
0
 10
0.35888391
 20
14.33055915
  0
VERTEX
  8
0
 10
0.52695247
 20
14.70286477
  0
VERTEX
  8
0
 10
0.58885066
 20
14.70282228
  0
VERTEX
  8
0
 10
0.42491149
 20
14.33464037
  0
VERTEX
  8
0
 10
0.68041349
 20
14.33446497
  0
VERTEX
  8
0
 10
0.68037596
 20
14.27978823
  0
VERTEX
  8
0
 10
0.35884921
 20
14.28000896
  0
VERTEX
  8
0
 10
0.35888391
 20
14.33055915
  0
SEQEND
  0
POLYLINE
  8
Default_Layer
 62
256
 66
   1
 39
0.000000
 70
    1
  0
VERTEX
  8
0
 10
0.57976864
 20
14.49718885
  0
VERTEX
  8
0
 10
0.63788417
 20
14.49714895
  0
VERTEX
  8
0
 10
0.63768210
 20
14.20278864
  0
VERTEX
  8
0
 10
0.57956657
 20
14.20282853
  0
VERTEX
  8
0
 10
0.57976864
 20
14.49718885
  0
SEQEND
  0
POLYLINE
  8
Default_Layer
 62
256
 66
   1
 39
0.000000
 70
    1
  0
VERTEX
  8
0
 10
0.27759303
 20
16.14124440
  0
VERTEX
  8
0
 10
0.21775811
 20
16.14128548
  0
VERTEX
  8
0
 10
0.21806075
 20
16.58213819
  0
VERTEX
  8
0
 10
0.13652675
 20
16.53164395
  0
VERTEX
  8
0
 10
0.13656948
 20
16.59388602
  0
VERTEX
  8
0
 10
0.20778499
 20
16.64129244
  0
VERTEX
  8
0
 10
0.27793628
 20
16.64124428
  0
VERTEX
  8
0
 10
0.27759303
 20
16.14124440
  0
SEQEND
  0
POLYLINE
  8
Default_Layer
 62
256
 66
   1
 39
0.000000
 70
    1
  0
VERTEX
  8
0
 10
0.52002416
 20
16.13612422
  0
VERTEX
  8
0
 10
0.49881189
 20
16.13723490
  0
VERTEX
  8
0
 10
0.47919156
 20
16.14053671
  0
VERTEX
  8
0
 10
0.46116317
 20
16.14602966
  0
VERTEX
  8
0
 10
0.44472673
 20
16.15371375
  0
VERTEX
  8
0
 10
0.43001123
 20
16.16365336
  0
VERTEX
  8
0
 10
0.41714544
 20
16.17556900
  0
VERTEX
  8
0
 10
0.40612936
 20
16.18946068
  0
VERTEX
  8
0
 10
0.39696298
 20
16.20532839
  0
VERTEX
  8
0
 10
0.38990424
 20
16.22321495
  0
VERTEX
  8
0
 10
0.38486698
 20
16.24281951
  0
VERTEX
  8
0
 10
0.38185118
 20
16.26414208
  0
VERTEX
  8
0
 10
0.38085686
 20
16.28718266
  0
VERTEX
  8
0
 10
0.38085709
 20
16.28752654
  0
VERTEX
  8
0
 10
0.38127513
 20
16.30162529
  0
VERTEX
  8
0
 10
0.38251011
 20
16.31606736
  0
VERTEX
  8
0
 10
0.38456204
 20
16.33085275
  0
VERTEX
  8
0
 10
0.38743092
 20
16.34598146
  0
VERTEX
  8
0
 10
0.39544694
 20
16.37632328
  0
VERTEX
  8
0
 10
0.40638557
 20
16.40614728
  0
VERTEX
  8
0
 10
0.41086284
 20
16.41611670
  0
VERTEX
  8
0
 10
0.41568399
 20
16.42608588
  0
VERTEX
  8
0
 10
0.52449750
 20
16.64127946
  0
VERTEX
  8
0
 10
0.58983448
 20
16.64123460
  0
VERTEX
  8
0
 10
0.46208427
 20
16.39201000
  0
VERTEX
  8
0
 10
0.46243665
 20
16.40438941
  0
VERTEX
  8
0
 10
0.46762156
 20
16.41201566
  0
VERTEX
  8
0
 10
0.47388048
 20
16.41873850
  0
VERTEX
  8
0
 10
0.48121339
 20
16.42455792
  0
VERTEX
  8
0
 10
0.48962031
 20
16.42947391
  0
VERTEX
  8
0
 10
0.49905817
 20
16.43337906
  0
VERTEX
  8
0
 10
0.50914004
 20
16.43616615
  0
VERTEX
  8
0
 10
0.51986592
 20
16.43783520
  0
VERTEX
  8
0
 10
0.53123579
 20
16.43838620
  0
VERTEX
  8
0
 10
0.55079315
 20
16.43727666
  0
VERTEX
  8
0
 10
0.56888752
 20
16.43397589
  0
VERTEX
  8
0
 10
0.58551890
 20
16.42848390
  0
VERTEX
  8
0
 10
0.60068729
 20
16.42080069
  0
VERTEX
  8
0
 10
0.61439274
 20
16.41101222
  0
VERTEX
  8
0
 10
0.62629145
 20
16.39920470
  0
VERTEX
  8
0
 10
0.63638340
 20
16.38537814
  0
VERTEX
  8
0
 10
0.64466861
 20
16.36953252
  0
VERTEX
  8
0
 10
0.65127624
 20
16.35199015
  0
VERTEX
  8
0
 10
0.65599135
 20
16.33272969
  0
VERTEX
  8
0
 10
0.65881395
 20
16.31175113
  0
VERTEX
  8
0
 10
0.65974404
 20
16.28905448
  0
VERTEX
  8
0
 10
0.65974380
 20
16.28871060
  0
VERTEX
  8
0
 10
0.65869623
 20
16.26549948
  0
VERTEX
  8
0
 10
0.65558657
 20
16.24400918
  0
VERTEX
  8
0
 10
0.65041481
 20
16.22423968
  0
VERTEX
  8
0
 10
0.64318096
 20
16.20619100
  0
VERTEX
  8
0
 10
0.63412155
 20
16.19003491
  0
VERTEX
  8
0
 10
0.62312924
 20
16.17594341
  0
VERTEX
  8
0
 10
0.61020403
 20
16.16391652
  0
VERTEX
  8
0
 10
0.59534591
 20
16.15395423
  0
VERTEX
  8
0
 10
0.57889883
 20
16.14614227
  0
VERTEX
  8
0
 10
0.56086285
 20
16.14056662
  0
VERTEX
  8
0
 10
0.54123796
 20
16.13722727
  0
VERTEX
  8
0
 10
0.52002416
 20
16.13612422
  0
SEQEND
  0
POLYLINE
  8
Default_Layer
 62
256
 66
   1
 39
0.000000
 70
    1
  0
VERTEX
  8
0
 10
0.52006335
 20
16.19320812
  0
VERTEX
  8
0
 10
0.52933221
 20
16.19356713
  0
VERTEX
  8
0
 10
0.53805352
 20
16.19465725
  0
VERTEX
  8
0
 10
0.54622727
 20
16.19647850
  0
VERTEX
  8
0
 10
0.55385347
 20
16.19903086
  0
VERTEX
  8
0
 10
0.56093210
 20
16.20231435
  0
VERTEX
  8
0
 10
0.56746319
 20
16.20632895
  0
VERTEX
  8
0
 10
0.57344672
 20
16.21107467
  0
VERTEX
  8
0
 10
0.57888269
 20
16.21655151
  0
VERTEX
  8
0
 10
0.58380331
 20
16.22270035
  0
VERTEX
  8
0
 10
0.58806883
 20
16.22946216
  0
VERTEX
  8
0
 10
0.59167925
 20
16.23683696
  0
VERTEX
  8
0
 10
0.59463457
 20
16.24482475
  0
VERTEX
  8
0
 10
0.59693479
 20
16.25342552
  0
VERTEX
  8
0
 10
0.59857991
 20
16.26263927
  0
VERTEX
  8
0
 10
0.59990487
 20
16.28290573
  0
VERTEX
  8
0
 10
0.59990510
 20
16.28324961
  0
VERTEX
  8
0
 10
0.59856622
 20
16.30530178
  0
VERTEX
  8
0
 10
0.59688057
 20
16.31532916
  0
VERTEX
  8
0
 10
0.59451746
 20
16.32469074
  0
VERTEX
  8
0
 10
0.59147687
 20
16.33338652
  0
VERTEX
  8
0
 10
0.58775882
 20
16.34141649
  0
VERTEX
  8
0
 10
0.58336330
 20
16.34878067
  0
VERTEX
  8
0
 10
0.57829031
 20
16.35547905
  0
VERTEX
  8
0
 10
0.57259359
 20
16.36152771
  0
VERTEX
  8
0
 10
0.56632677
 20
16.36677079
  0
VERTEX
  8
0
 10
0.55948985
 20
16.37120830
  0
VERTEX
  8
0
 10
0.55208282
 20
16.37484024
  0
VERTEX
  8
0
 10
0.54410569
 20
16.37766660
  0
VERTEX
  8
0
 10
0.53555846
 20
16.37968738
  0
VERTEX
  8
0
 10
0.52644113
 20
16.38090259
  0
VERTEX
  8
0
 10
0.51675369
 20
16.38131222
  0
VERTEX
  8
0
 10
0.50797913
 20
16.38091526
  0
VERTEX
  8
0
 10
0.49970909
 20
16.37971199
  0
VERTEX
  8
0
 10
0.49194357
 20
16.37770240
  0
VERTEX
  8
0
 10
0.48468256
 20
16.37488651
  0
VERTEX
  8
0
 10
0.47792608
 20
16.37126430
  0
VERTEX
  8
0
 10
0.47167411
 20
16.36683577
  0
VERTEX
  8
0
 10
0.46592666
 20
16.36160093
  0
VERTEX
  8
0
 10
0.46068373
 20
16.35555979
  0
VERTEX
  8
0
 10
0.45600453
 20
16.34886273
  0
VERTEX
  8
0
 10
0.45194814
 20
16.34148823
  0
VERTEX
  8
0
 10
0.44851457
 20
16.33343630
  0
VERTEX
  8
0
 10
0.44570381
 20
16.32470693
  0
VERTEX
  8
0
 10
0.44195075
 20
16.30521586
  0
VERTEX
  8
0
 10
0.44068895
 20
16.28301504
  0
VERTEX
  8
0
 10
0.44068871
 20
16.28267116
  0
VERTEX
  8
0
 10
0.44196445
 20
16.26255336
  0
VERTEX
  8
0
 10
0.44357009
 20
16.25339648
  0
VERTEX
  8
0
 10
0.44582093
 20
16.24484094
  0
VERTEX
  8
0
 10
0.44871695
 20
16.23688675
  0
VERTEX
  8
0
 10
0.45225815
 20
16.22953390
  0
VERTEX
  8
0
 10
0.45644454
 20
16.22278240
  0
VERTEX
  8
0
 10
0.46127612
 20
16.21663225
  0
VERTEX
  8
0
 10
0.46677979
 20
16.21114790
  0
VERTEX
  8
0
 10
0.47281053
 20
16.20639393
  0
VERTEX
  8
0
 10
0.47936833
 20
16.20237034
  0
VERTEX
  8
0
 10
0.48645321
 20
16.19907713
  0
VERTEX
  8
0
 10
0.49406514
 20
16.19651431
  0
VERTEX
  8
0
 10
0.50220415
 20
16.19468186
  0
VERTEX
  8
0
 10
0.51087022
 20
16.19357980
  0
VERTEX
  8
0
 10
0.52006335
 20
16.19320812
  0
SEQEND
  0
POLYLINE
  8
Default_Layer
 62
256
 66
   1
 39
0.000000
 70
    1
  0
VERTEX
  8
0
 10
0.31251654
 20
18.22059147
  0
VERTEX
  8
0
 10
0.25268162
 20
18.22063255
  0
VERTEX
  8
0
 10
0.25298426
 20
18.66148527
  0
VERTEX
  8
0
 10
0.17145027
 20
18.61099102
  0
VERTEX
  8
0
 10
0.17149300
 20
18.67323310
  0
VERTEX
  8
0
 10
0.24270850
 20
18.72063951
  0
VERTEX
  8
0
 10
0.31285979
 20
18.72059136
  0
VERTEX
  8
0
 10
0.31251654
 20
18.22059147
  0
SEQEND
  0
POLYLINE
  8
Default_Layer
 62
256
 66
   1
 39
0.000000
 70
    1
  0
VERTEX
  8
0
 10
0.57267978
 20
18.72578742
  0
VERTEX
  8
0
 10
0.59513866
 20
18.72474036
  0
VERTEX
  8
0
 10
0.61609166
 20
18.72163107
  0
VERTEX
  8
0
 10
0.63553877
 20
18.71645953
  0
VERTEX
  8
0
 10
0.65347999
 20
18.70922576
  0
VERTEX
  8
0
 10
0.66952844
 20
18.69990851
  0
VERTEX
  8
0
 10
0.68364137
 20
18.68883022
  0
VERTEX
  8
0
 10
0.69581877
 20
18.67599087
  0
VERTEX
  8
0
 10
0.70606064
 20
18.66139048
  0
VERTEX
  8
0
 10
0.71402310
 20
18.64502926
  0
VERTEX
  8
0
 10
0.71970640
 20
18.62725111
  0
VERTEX
  8
0
 10
0.72311052
 20
18.60805603
  0
VERTEX
  8
0
 10
0.72423547
 20
18.58744401
  0
VERTEX
  8
0
 10
0.72423098
 20
18.58091031
  0
VERTEX
  8
0
 10
0.72307893
 20
18.56204074
  0
VERTEX
  8
0
 10
0.71964921
 20
18.54394646
  0
VERTEX
  8
0
 10
0.71394182
 20
18.52662747
  0
VERTEX
  8
0
 10
0.70595677
 20
18.51008377
  0
VERTEX
  8
0
 10
0.69582337
 20
18.49485259
  0
VERTEX
  8
0
 10
0.68401484
 20
18.48147090
  0
VERTEX
  8
0
 10
0.67053116
 20
18.46993872
  0
VERTEX
  8
0
 10
0.65537235
 20
18.46025604
  0
VERTEX
  8
0
 10
0.66824047
 20
18.45173620
  0
VERTEX
  8
0
 10
0.67968903
 20
18.44166988
  0
VERTEX
  8
0
 10
0.68971803
 20
18.43005707
  0
VERTEX
  8
0
 10
0.69832746
 20
18.41689779
  0
VERTEX
  8
0
 10
0.70508770
 20
18.40251471
  0
VERTEX
  8
0
 10
0.70991325
 20
18.38757415
  0
VERTEX
  8
0
 10
0.71280409
 20
18.37207611
  0
VERTEX
  8
0
 10
0.71376022
 20
18.35602061
  0
VERTEX
  8
0
 10
0.71375432
 20
18.34742363
  0
VERTEX
  8
0
 10
0.71266625
 20
18.32782328
  0
VERTEX
  8
0
 10
0.70942987
 20
18.30959991
  0
VERTEX
  8
0
 10
0.70404519
 20
18.29275353
  0
VERTEX
  8
0
 10
0.69651222
 20
18.27728415
  0
VERTEX
  8
0
 10
0.68700290
 20
18.26321313
  0
VERTEX
  8
0
 10
0.67568943
 20
18.25090573
  0
VERTEX
  8
0
 10
0.66257180
 20
18.24036194
  0
VERTEX
  8
0
 10
0.64765002
 20
18.23158178
  0
VERTEX
  8
0
 10
0.63094555
 20
18.22452223
  0
VERTEX
  8
0
 10
0.61282397
 20
18.21948395
  0
VERTEX
  8
0
 10
0.59328527
 20
18.21646693
  0
VERTEX
  8
0
 10
0.57232945
 20
18.21547117
  0
VERTEX
  8
0
 10
0.55124607
 20
18.21649579
  0
VERTEX
  8
0
 10
0.53166855
 20
18.21953966
  0
VERTEX
  8
0
 10
0.51359689
 20
18.22460279
  0
VERTEX
  8
0
 10
0.49703108
 20
18.23168518
  0
VERTEX
  8
0
 10
0.48199241
 20
18.24048591
  0
VERTEX
  8
0
 10
0.46884629
 20
18.25104772
  0
VERTEX
  8
0
 10
0.45759271
 20
18.26337062
  0
VERTEX
  8
0
 10
0.44823167
 20
18.27745459
  0
VERTEX
  8
0
 10
0.44071995
 20
18.29293430
  0
VERTEX
  8
0
 10
0.43535841
 20
18.30978806
  0
VERTEX
  8
0
 10
0.43214705
 20
18.32801585
  0
VERTEX
  8
0
 10
0.43108589
 20
18.34761768
  0
VERTEX
  8
0
 10
0.43109179
 20
18.35621466
  0
VERTEX
  8
0
 10
0.43209176
 20
18.37269867
  0
VERTEX
  8
0
 10
0.43506853
 20
18.38845059
  0
VERTEX
  8
0
 10
0.44002210
 20
18.40347040
  0
VERTEX
  8
0
 10
0.44695248
 20
18.41775811
  0
VERTEX
  8
0
 10
0.45562284
 20
18.43073360
  0
VERTEX
  8
0
 10
0.46579660
 20
18.44216059
  0
VERTEX
  8
0
 10
0.47747378
 20
18.45203910
  0
VERTEX
  8
0
 10
0.49065436
 20
18.46036911
  0
VERTEX
  8
0
 10
0.47520807
 20
18.47022326
  0
VERTEX
  8
0
 10
0.46152538
 20
18.48188155
  0
VERTEX
  8
0
 10
0.44960632
 20
18.49534400
  0
VERTEX
  8
0
 10
0.43945088
 20
18.51061060
  0
VERTEX
  8
0
 10
0.43133800
 20
18.52701491
  0
VERTEX
  8
0
 10
0.42554686
 20
18.54423432
  0
VERTEX
  8
0
 10
0.42207747
 20
18.56226886
  0
VERTEX
  8
0
 10
0.42092981
 20
18.58111852
  0
VERTEX
  8
0
 10
0.42093430
 20
18.58765222
  0
VERTEX
  8
0
 10
0.42208755
 20
18.60826268
  0
VERTEX
  8
0
 10
0.42551802
 20
18.62745307
  0
VERTEX
  8
0
 10
0.43122572
 20
18.64522340
  0
VERTEX
  8
0
 10
0.43921063
 20
18.66157367
  0
VERTEX
  8
0
 10
0.44934359
 20
18.67616008
  0
VERTEX
  8
0
 10
0.46149562
 20
18.68898272
  0
VERTEX
  8
0
 10
0.47566673
 20
18.70004160
  0
VERTEX
  8
0
 10
0.49185692
 20
18.70933671
  0
VERTEX
  8
0
 10
0.50967910
 20
18.71654594
  0
VERTEX
  8
0
 10
0.52909030
 20
18.72169080
  0
VERTEX
  8
0
 10
0.55009053
 20
18.72477129
  0
VERTEX
  8
0
 10
0.57267978
 20
18.72578742
  0
SEQEND
  0
POLYLINE
  8
Default_Layer
 62
256
 66
   1
 39
0.000000
 70
    1
  0
VERTEX
  8
0
 10
0.57264107
 20
18.66939128
  0
VERTEX
  8
0
 10
0.55901442
 20
18.66875587
  0
VERTEX
  8
0
 10
0.54633256
 20
18.66683025
  0
VERTEX
  8
0
 10
0.53459548
 20
18.66361444
  0
VERTEX
  8
0
 10
0.52380319
 20
18.65910844
  0
VERTEX
  8
0
 10
0.51408468
 20
18.65339812
  0
VERTEX
  8
0
 10
0.50556899
 20
18.64656937
  0
VERTEX
  8
0
 10
0.49825610
 20
18.63862219
  0
VERTEX
  8
0
 10
0.49214603
 20
18.62955658
  0
VERTEX
  8
0
 10
0.48732470
 20
18.61932948
  0
VERTEX
  8
0
 10
0.48387830
 20
18.60824175
  0
VERTEX
  8
0
 10
0.48180682
 20
18.59629338
  0
VERTEX
  8
0
 10
0.48111027
 20
18.58348436
  0
VERTEX
  8
0
 10
0.48110814
 20
18.58038945
  0
VERTEX
  8
0
 10
0.48178702
 20
18.56745054
  0
VERTEX
  8
0
 10
0.48384206
 20
18.55545634
  0
VERTEX
  8
0
 10
0.48727327
 20
18.54440687
  0
VERTEX
  8
0
 10
0.49208064
 20
18.53430213
  0
VERTEX
  8
0
 10
0.49817816
 20
18.52507769
  0
VERTEX
  8
0
 10
0.50548005
 20
18.51701301
  0
VERTEX
  8
0
 10
0.51398631
 20
18.51010809
  0
VERTEX
  8
0
 10
0.52369695
 20
18.50436295
  0
VERTEX
  8
0
 10
0.53448295
 20
18.49969168
  0
VERTEX
  8
0
 10
0.54621553
 20
18.49635230
  0
VERTEX
  8
0
 10
0.55889469
 20
18.49434480
  0
VERTEX
  8
0
 10
0.57252044
 20
18.49366918
  0
VERTEX
  8
0
 10
0.58614709
 20
18.49432609
  0
VERTEX
  8
0
 10
0.59882900
 20
18.49631618
  0
VERTEX
  8
0
 10
0.61056615
 20
18.49963945
  0
VERTEX
  8
0
 10
0.62135855
 20
18.50429590
  0
VERTEX
  8
0
 10
0.63092662
 20
18.51002782
  0
VERTEX
  8
0
 10
0.63933490
 20
18.51692112
  0
VERTEX
  8
0
 10
0.64658338
 20
18.52497581
  0
VERTEX
  8
0
 10
0.65267207
 20
18.53419188
  0
VERTEX
  8
0
 10
0.65749341
 20
18.54444047
  0
VERTEX
  8
0
 10
0.66093986
 20
18.55559268
  0
VERTEX
  8
0
 10
0.66301141
 20
18.56764851
  0
VERTEX
  8
0
 10
0.66370806
 20
18.58060798
  0
VERTEX
  8
0
 10
0.66371042
 20
18.58404677
  0
VERTEX
  8
0
 10
0.66303134
 20
18.59668479
  0
VERTEX
  8
0
 10
0.66097615
 20
18.60846405
  0
VERTEX
  8
0
 10
0.65754486
 20
18.61938457
  0
VERTEX
  8
0
 10
0.65273746
 20
18.62944633
  0
VERTEX
  8
0
 10
0.64666133
 20
18.63852031
  0
VERTEX
  8
0
 10
0.63942384
 20
18.64647748
  0
VERTEX
  8
0
 10
0.63102499
 20
18.65331784
  0
VERTEX
  8
0
 10
0.62146479
 20
18.65904140
  0
VERTEX
  8
0
 10
0.61067868
 20
18.66356221
  0
VERTEX
  8
0
 10
0.59894603
 20
18.66679413
  0
VERTEX
  8
0
 10
0.58626683
 20
18.66873716
  0
VERTEX
  8
0
 10
0.57264107
 20
18.66939128
  0
SEQEND
  0
POLYLINE
  8
Default_Layer
 62
256
 66
   1
 39
0.000000
 70
    1
  0
VERTEX
  8
0
 10
0.57248243
 20
18.43830468
  0
VERTEX
  8
0
 10
0.56018833
 20
18.43768984
  0
VERTEX
  8
0
 10
0.54875307
 20
18.43582785
  0
VERTEX
  8
0
 10
0.53817666
 20
18.43271871
  0
VERTEX
  8
0
 10
0.52845909
 20
18.42836241
  0
VERTEX
  8
0
 10
0.51970788
 20
18.42284486
  0
VERTEX
  8
0
 10
0.51203055
 20
18.41625195
  0
VERTEX
  8
0
 10
0.50542711
 20
18.40858369
  0
VERTEX
  8
0
 10
0.49989755
 20
18.39984006
  0
VERTEX
  8
0
 10
0.49552780
 20
18.38995654
  0
VERTEX
  8
0
 10
0.49240402
 20
18.37921246
  0
VERTEX
  8
0
 10
0.49052621
 20
18.36760783
  0
VERTEX
  8
0
 10
0.48989437
 20
18.35514265
  0
VERTEX
  8
0
 10
0.48989106
 20
18.35032835
  0
VERTEX
  8
0
 10
0.49050626
 20
18.33855007
  0
VERTEX
  8
0
 10
0.49236861
 20
18.32763063
  0
VERTEX
  8
0
 10
0.49547810
 20
18.31757003
  0
VERTEX
  8
0
 10
0.49983475
 20
18.30836828
  0
VERTEX
  8
0
 10
0.50535254
 20
18.29996095
  0
VERTEX
  8
0
 10
0.51194568
 20
18.29262750
  0
VERTEX
  8
0
 10
0.51961419
 20
18.28636793
  0
VERTEX
  8
0
 10
0.52835805
 20
18.28118225
  0
VERTEX
  8
0
 10
0.53806973
 20
18.27696307
  0
VERTEX
  8
0
 10
0.54864194
 20
18.27394687
  0
VERTEX
  8
0
 10
0.56007468
 20
18.27213366
  0
VERTEX
  8
0
 10
0.57236793
 20
18.27152343
  0
VERTEX
  8
0
 10
0.58451157
 20
18.27211688
  0
VERTEX
  8
0
 10
0.59583932
 20
18.27391447
  0
VERTEX
  8
0
 10
0.60635118
 20
18.27691619
  0
VERTEX
  8
0
 10
0.61604716
 20
18.28112206
  0
VERTEX
  8
0
 10
0.62479814
 20
18.28629573
  0
VERTEX
  8
0
 10
0.63247523
 20
18.29254476
  0
VERTEX
  8
0
 10
0.63907843
 20
18.29986914
  0
VERTEX
  8
0
 10
0.64460776
 20
18.30826889
  0
VERTEX
  8
0
 10
0.64897714
 20
18.31761510
  0
VERTEX
  8
0
 10
0.65210052
 20
18.32777888
  0
VERTEX
  8
0
 10
0.65397790
 20
18.33876023
  0
VERTEX
  8
0
 10
0.65460928
 20
18.35055915
  0
VERTEX
  8
0
 10
0.65461282
 20
18.35571733
  0
VERTEX
  8
0
 10
0.65399798
 20
18.36801143
  0
VERTEX
  8
0
 10
0.65213599
 20
18.37944668
  0
VERTEX
  8
0
 10
0.64902685
 20
18.39002310
  0
VERTEX
  8
0
 10
0.64467055
 20
18.39974067
  0
VERTEX
  8
0
 10
0.63915300
 20
18.40849188
  0
VERTEX
  8
0
 10
0.63256009
 20
18.41616921
  0
VERTEX
  8
0
 10
0.62489183
 20
18.42277265
  0
VERTEX
  8
0
 10
0.61614820
 20
18.42830221
  0
VERTEX
  8
0
 10
0.60645811
 20
18.43267183
  0
VERTEX
  8
0
 10
0.59595045
 20
18.43579545
  0
VERTEX
  8
0
 10
0.58462522
 20
18.43767306
  0
VERTEX
  8
0
 10
0.57248243
 20
18.43830468
  0
SEQEND
  0
POLYLINE
  8
Default_Layer
 62
256
 66
   1
 39
0.000000
 70
    1
  0
VERTEX
  8
0
 10
0.11870498
 20
20.29893802
  0
VERTEX
  8
0
 10
0.30770434
 20
20.53218676
  0
VERTEX
  8
0
 10
0.31601493
 20
20.54294482
  0
VERTEX
  8
0
 10
0.32338178
 20
20.55377695
  0
VERTEX
  8
0
 10
0.32980489
 20
20.56468315
  0
VERTEX
  8
0
 10
0.33528425
 20
20.57566341
  0
VERTEX
  8
0
 10
0.33970329
 20
20.58644204
  0
VERTEX
  8
0
 10
0.34294539
 20
20.59674330
  0
VERTEX
  8
0
 10
0.34501055
 20
20.60656720
  0
VERTEX
  8
0
 10
0.34589879
 20
20.61591374
  0
VERTEX
  8
0
 10
0.34592141
 20
20.61660113
  0
VERTEX
  8
0
 10
0.34519774
 20
20.63316158
  0
VERTEX
  8
0
 10
0.34187286
 20
20.64778626
  0
VERTEX
  8
0
 10
0.33923498
 20
20.65437269
  0
VERTEX
  8
0
 10
0.33594680
 20
20.66047518
  0
VERTEX
  8
0
 10
0.33200832
 20
20.66609372
  0
VERTEX
  8
0
 10
0.32741954
 20
20.67122832
  0
VERTEX
  8
0
 10
0.32223540
 20
20.67591480
  0
VERTEX
  8
0
 10
0.31650519
 20
20.68001715
  0
VERTEX
  8
0
 10
0.31022890
 20
20.68353535
  0
VERTEX
  8
0
 10
0.30340653
 20
20.68646941
  0
VERTEX
  8
0
 10
0.28812357
 20
20.69058511
  0
VERTEX
  8
0
 10
0.27065631
 20
20.69236424
  0
VERTEX
  8
0
 10
0.25407367
 20
20.69161979
  0
VERTEX
  8
0
 10
0.23903873
 20
20.68824391
  0
VERTEX
  8
0
 10
0.23210165
 20
20.68556918
  0
VERTEX
  8
0
 10
0.22555150
 20
20.68223660
  0
VERTEX
  8
0
 10
0.21938826
 20
20.67824616
  0
VERTEX
  8
0
 10
0.21361196
 20
20.67359786
  0
VERTEX
  8
0
 10
0.20828324
 20
20.66833809
  0
VERTEX
  8
0
 10
0.20346277
 20
20.66251324
  0
VERTEX
  8
0
 10
0.19534659
 20
20.64916829
  0
VERTEX
  8
0
 10
0.18926341
 20
20.63356302
  0
VERTEX
  8
0
 10
0.18521324
 20
20.61569741
  0
VERTEX
  8
0
 10
0.18520193
 20
20.61535372
  0
VERTEX
  8
0
 10
0.12299352
 20
20.61740121
  0
VERTEX
  8
0
 10
0.12300483
 20
20.61774490
  0
VERTEX
  8
0
 10
0.12757371
 20
20.63830295
  0
VERTEX
  8
0
 10
0.13367984
 20
20.65721910
  0
VERTEX
  8
0
 10
0.14132323
 20
20.67449334
  0
VERTEX
  8
0
 10
0.15050389
 20
20.69012570
  0
VERTEX
  8
0
 10
0.16128766
 20
20.70415699
  0
VERTEX
  8
0
 10
0.17338540
 20
20.71629569
  0
VERTEX
  8
0
 10
0.18679711
 20
20.72654179
  0
VERTEX
  8
0
 10
0.20152279
 20
20.73489529
  0
VERTEX
  8
0
 10
0.21745787
 20
20.74144565
  0
VERTEX
  8
0
 10
0.23448644
 20
20.74593864
  0
VERTEX
  8
0
 10
0.25260852
 20
20.74837425
  0
VERTEX
  8
0
 10
0.27182411
 20
20.74875249
  0
VERTEX
  8
0
 10
0.29331606
 20
20.74707744
  0
VERTEX
  8
0
 10
0.31311184
 20
20.74352284
  0
VERTEX
  8
0
 10
0.33121144
 20
20.73808870
  0
VERTEX
  8
0
 10
0.34761488
 20
20.73077503
  0
VERTEX
  8
0
 10
0.36220174
 20
20.72184382
  0
VERTEX
  8
0
 10
0.37484032
 20
20.71121341
  0
VERTEX
  8
0
 10
0.38553061
 20
20.69888379
  0
VERTEX
  8
0
 10
0.39427261
 20
20.68485495
  0
VERTEX
  8
0
 10
0.40098465
 20
20.66925863
  0
VERTEX
  8
0
 10
0.40558505
 20
20.65222651
  0
VERTEX
  8
0
 10
0.40807379
 20
20.63375862
  0
VERTEX
  8
0
 10
0.40845089
 20
20.61385494
  0
VERTEX
  8
0
 10
0.40843958
 20
20.61351125
  0
VERTEX
  8
0
 10
0.40724913
 20
20.60086303
  0
VERTEX
  8
0
 10
0.40449228
 20
20.58766425
  0
VERTEX
  8
0
 10
0.40016901
 20
20.57391491
  0
VERTEX
  8
0
 10
0.39427932
 20
20.55961501
  0
VERTEX
  8
0
 10
0.38715604
 20
20.54507617
  0
VERTEX
  8
0
 10
0.37878828
 20
20.53062129
  0
VERTEX
  8
0
 10
0.36917606
 20
20.51625038
  0
VERTEX
  8
0
 10
0.35831936
 20
20.50196344
  0
VERTEX
  8
0
 10
0.19657187
 20
20.30222426
  0
VERTEX
  8
0
 10
0.40072542
 20
20.29550487
  0
VERTEX
  8
0
 10
0.39887023
 20
20.23913924
  0
VERTEX
  8
0
 10
0.11704210
 20
20.24841517
  0
VERTEX
  8
0
 10
0.11870498
 20
20.29893802
  0
SEQEND
  0
POLYLINE
  8
Default_Layer
 62
256
 66
   1
 39
0.000000
 70
    1
  0
VERTEX
  8
0
 10
0.63070163
 20
20.22660630
  0
VERTEX
  8
0
 10
0.61371884
 20
20.22775125
  0
VERTEX
  8
0
 10
0.59782714
 20
20.23003226
  0
VERTEX
  8
0
 10
0.58302653
 20
20.23344933
  0
VERTEX
  8
0
 10
0.56931702
 20
20.23800245
  0
VERTEX
  8
0
 10
0.55669859
 20
20.24369164
  0
VERTEX
  8
0
 10
0.54517126
 20
20.25051689
  0
VERTEX
  8
0
 10
0.53473502
 20
20.25847820
  0
VERTEX
  8
0
 10
0.52538987
 20
20.26757557
  0
VERTEX
  8
0
 10
0.51725526
 20
20.27768143
  0
VERTEX
  8
0
 10
0.51027879
 20
20.28867383
  0
VERTEX
  8
0
 10
0.50446047
 20
20.30055280
  0
VERTEX
  8
0
 10
0.49980029
 20
20.31331832
  0
VERTEX
  8
0
 10
0.49629825
 20
20.32697040
  0
VERTEX
  8
0
 10
0.49395436
 20
20.34150903
  0
VERTEX
  8
0
 10
0.49276861
 20
20.35693422
  0
VERTEX
  8
0
 10
0.49274100
 20
20.37324597
  0
VERTEX
  8
0
 10
0.50021830
 20
20.60042694
  0
VERTEX
  8
0
 10
0.50132628
 20
20.61677658
  0
VERTEX
  8
0
 10
0.50354164
 20
20.63214359
  0
VERTEX
  8
0
 10
0.50686437
 20
20.64652797
  0
VERTEX
  8
0
 10
0.51129447
 20
20.65992973
  0
VERTEX
  8
0
 10
0.51683195
 20
20.67234885
  0
VERTEX
  8
0
 10
0.52347680
 20
20.68378536
  0
VERTEX
  8
0
 10
0.53122902
 20
20.69423923
  0
VERTEX
  8
0
 10
0.54008862
 20
20.70371048
  0
VERTEX
  8
0
 10
0.55000638
 20
20.71217384
  0
VERTEX
  8
0
 10
0.56092743
 20
20.71943221
  0
VERTEX
  8
0
 10
0.57285176
 20
20.72548559
  0
VERTEX
  8
0
 10
0.58577938
 20
20.73033397
  0
VERTEX
  8
0
 10
0.59971029
 20
20.73397736
  0
VERTEX
  8
0
 10
0.61464448
 20
20.73641575
  0
VERTEX
  8
0
 10
0.63058197
 20
20.73764915
  0
VERTEX
  8
0
 10
0.64752273
 20
20.73767756
  0
VERTEX
  8
0
 10
0.66450033
 20
20.73653816
  0
VERTEX
  8
0
 10
0.68037645
 20
20.73427379
  0
VERTEX
  8
0
 10
0.69515109
 20
20.73088446
  0
VERTEX
  8
0
 10
0.70882425
 20
20.72637016
  0
VERTEX
  8
0
 10
0.72139593
 20
20.72073089
  0
VERTEX
  8
0
 10
0.73286614
 20
20.71396666
  0
VERTEX
  8
0
 10
0.74323487
 20
20.70607746
  0
VERTEX
  8
0
 10
0.75250211
 20
20.69706329
  0
VERTEX
  8
0
 10
0.76071958
 20
20.68702460
  0
VERTEX
  8
0
 10
0.76776709
 20
20.67606749
  0
VERTEX
  8
0
 10
0.77364467
 20
20.66419195
  0
VERTEX
  8
0
 10
0.77835229
 20
20.65139799
  0
VERTEX
  8
0
 10
0.78188998
 20
20.63768560
  0
VERTEX
  8
0
 10
0.78425772
 20
20.62305479
  0
VERTEX
  8
0
 10
0.78545551
 20
20.60750555
  0
VERTEX
  8
0
 10
0.78548336
 20
20.59103789
  0
VERTEX
  8
0
 10
0.77800606
 20
20.36385692
  0
VERTEX
  8
0
 10
0.77689790
 20
20.34750192
  0
VERTEX
  8
0
 10
0.77468202
 20
20.33211880
  0
VERTEX
  8
0
 10
0.77135841
 20
20.31770756
  0
VERTEX
  8
0
 10
0.76692707
 20
20.30426821
  0
VERTEX
  8
0
 10
0.76138800
 20
20.29180075
  0
VERTEX
  8
0
 10
0.75474120
 20
20.28030518
  0
VERTEX
  8
0
 10
0.74698668
 20
20.26978149
  0
VERTEX
  8
0
 10
0.73812443
 20
20.26022969
  0
VERTEX
  8
0
 10
0.72820932
 20
20.25184688
  0
VERTEX
  8
0
 10
0.71729057
 20
20.24465832
  0
VERTEX
  8
0
 10
0.70536818
 20
20.23866402
  0
VERTEX
  8
0
 10
0.69244215
 20
20.23386397
  0
VERTEX
  8
0
 10
0.67851248
 20
20.23025817
  0
VERTEX
  8
0
 10
0.66357917
 20
20.22784663
  0
VERTEX
  8
0
 10
0.64764222
 20
20.22662934
  0
VERTEX
  8
0
 10
0.63070163
 20
20.22660630
  0
SEQEND
  0
POLYLINE
  8
Default_Layer
 62
256
 66
   1
 39
0.000000
 70
    1
  0
VERTEX
  8
0
 10
0.63255682
 20
20.28297193
  0
VERTEX
  8
0
 10
0.65249329
 20
20.28369201
  0
VERTEX
  8
0
 10
0.66143216
 20
20.28511813
  0
VERTEX
  8
0
 10
0.66968479
 20
20.28725496
  0
VERTEX
  8
0
 10
0.67725118
 20
20.29010251
  0
VERTEX
  8
0
 10
0.68413132
 20
20.29366078
  0
VERTEX
  8
0
 10
0.69032523
 20
20.29792976
  0
VERTEX
  8
0
 10
0.69583289
 20
20.30290947
  0
VERTEX
  8
0
 10
0.70077906
 20
20.30863341
  0
VERTEX
  8
0
 10
0.70511099
 20
20.31496893
  0
VERTEX
  8
0
 10
0.70882868
 20
20.32191604
  0
VERTEX
  8
0
 10
0.71193212
 20
20.32947472
  0
VERTEX
  8
0
 10
0.71629630
 20
20.34642681
  0
VERTEX
  8
0
 10
0.71820351
 20
20.36582523
  0
VERTEX
  8
0
 10
0.72568081
 20
20.59300620
  0
VERTEX
  8
0
 10
0.72505752
 20
20.61261692
  0
VERTEX
  8
0
 10
0.72376513
 20
20.62153527
  0
VERTEX
  8
0
 10
0.72181891
 20
20.62986226
  0
VERTEX
  8
0
 10
0.71921885
 20
20.63759791
  0
VERTEX
  8
0
 10
0.71596496
 20
20.64474222
  0
VERTEX
  8
0
 10
0.71205723
 20
20.65129518
  0
VERTEX
  8
0
 10
0.70749567
 20
20.65725679
  0
VERTEX
  8
0
 10
0.70232737
 20
20.66258787
  0
VERTEX
  8
0
 10
0.69642758
 20
20.66725490
  0
VERTEX
  8
0
 10
0.68979630
 20
20.67125788
  0
VERTEX
  8
0
 10
0.68243353
 20
20.67459680
  0
VERTEX
  8
0
 10
0.67433927
 20
20.67727166
  0
VERTEX
  8
0
 10
0.66551352
 20
20.67928248
  0
VERTEX
  8
0
 10
0.64566755
 20
20.68131193
  0
VERTEX
  8
0
 10
0.62570960
 20
20.68059256
  0
VERTEX
  8
0
 10
0.61674387
 20
20.67916733
  0
VERTEX
  8
0
 10
0.60845365
 20
20.67703173
  0
VERTEX
  8
0
 10
0.60083893
 20
20.67418577
  0
VERTEX
  8
0
 10
0.59389971
 20
20.67062945
  0
VERTEX
  8
0
 10
0.58763600
 20
20.66636276
  0
VERTEX
  8
0
 10
0.58204778
 20
20.66138571
  0
VERTEX
  8
0
 10
0.57718464
 20
20.65573430
  0
VERTEX
  8
0
 10
0.57292429
 20
20.64945018
  0
VERTEX
  8
0
 10
0.56926673
 20
20.64253335
  0
VERTEX
  8
0
 10
0.56621197
 20
20.63498382
  0
VERTEX
  8
0
 10
0.56191083
 20
20.61798664
  0
VERTEX
  8
0
 10
0.56002086
 20
20.59845863
  0
VERTEX
  8
0
 10
0.55254355
 20
20.37127766
  0
VERTEX
  8
0
 10
0.55317108
 20
20.35179582
  0
VERTEX
  8
0
 10
0.55641111
 20
20.33459345
  0
VERTEX
  8
0
 10
0.55901082
 20
20.32684705
  0
VERTEX
  8
0
 10
0.56226365
 20
20.31967053
  0
VERTEX
  8
0
 10
0.56616961
 20
20.31306387
  0
VERTEX
  8
0
 10
0.57072869
 20
20.30702707
  0
VERTEX
  8
0
 10
0.57597217
 20
20.30169351
  0
VERTEX
  8
0
 10
0.58192566
 20
20.29702472
  0
VERTEX
  8
0
 10
0.58858916
 20
20.29302068
  0
VERTEX
  8
0
 10
0.59596267
 20
20.28968141
  0
VERTEX
  8
0
 10
0.60404619
 20
20.28700690
  0
VERTEX
  8
0
 10
0.61283973
 20
20.28499715
  0
VERTEX
  8
0
 10
0.63255682
 20
20.28297193
  0
SEQEND
  0
POLYLINE
  8
Default_Layer
 62
256
 66
   1
 39
0.000000
 70
    1
  0
VERTEX
  8
0
 10
0.12539464
 20
22.16657673
  0
VERTEX
  8
0
 10
0.30678312
 20
22.40579202
  0
VERTEX
  8
0
 10
0.31474288
 20
22.41681218
  0
VERTEX
  8
0
 10
0.32175701
 20
22.42787597
  0
VERTEX
  8
0
 10
0.32782551
 20
22.43898340
  0
VERTEX
  8
0
 10
0.33294836
 20
22.45013445
  0
VERTEX
  8
0
 10
0.33701793
 20
22.46104982
  0
VERTEX
  8
0
 10
0.33992655
 20
22.47145016
  0
VERTEX
  8
0
 10
0.34167422
 20
22.48133549
  0
VERTEX
  8
0
 10
0.34226095
 20
22.49070579
  0
VERTEX
  8
0
 10
0.34226142
 20
22.49139355
  0
VERTEX
  8
0
 10
0.34100471
 20
22.50792209
  0
VERTEX
  8
0
 10
0.33721051
 20
22.52243210
  0
VERTEX
  8
0
 10
0.33436185
 20
22.52893014
  0
VERTEX
  8
0
 10
0.33087882
 20
22.53492355
  0
VERTEX
  8
0
 10
0.32676141
 20
22.54041232
  0
VERTEX
  8
0
 10
0.32200963
 20
22.54539646
  0
VERTEX
  8
0
 10
0.31667723
 20
22.54991353
  0
VERTEX
  8
0
 10
0.31081786
 20
22.55382918
  0
VERTEX
  8
0
 10
0.30443151
 20
22.55714340
  0
VERTEX
  8
0
 10
0.29751818
 20
22.55985619
  0
VERTEX
  8
0
 10
0.28211058
 20
22.56347750
  0
VERTEX
  8
0
 10
0.26459508
 20
22.56469310
  0
VERTEX
  8
0
 10
0.24804502
 20
22.56341491
  0
VERTEX
  8
0
 10
0.23312662
 20
22.55955651
  0
VERTEX
  8
0
 10
0.22627929
 20
22.55665974
  0
VERTEX
  8
0
 10
0.21983987
 20
22.55311790
  0
VERTEX
  8
0
 10
0.21380837
 20
22.54893102
  0
VERTEX
  8
0
 10
0.20818478
 20
22.54409908
  0
VERTEX
  8
0
 10
0.20302824
 20
22.53867041
  0
VERTEX
  8
0
 10
0.19839789
 20
22.53269331
  0
VERTEX
  8
0
 10
0.19071575
 20
22.51909387
  0
VERTEX
  8
0
 10
0.18513837
 20
22.50330076
  0
VERTEX
  8
0
 10
0.18166574
 20
22.48531397
  0
VERTEX
  8
0
 10
0.18166550
 20
22.48497009
  0
VERTEX
  8
0
 10
0.11942343
 20
22.48501282
  0
VERTEX
  8
0
 10
0.11942366
 20
22.48535670
  0
VERTEX
  8
0
 10
0.12332800
 20
22.50605124
  0
VERTEX
  8
0
 10
0.12882169
 20
22.52515425
  0
VERTEX
  8
0
 10
0.13590472
 20
22.54266572
  0
VERTEX
  8
0
 10
0.14457710
 20
22.55858567
  0
VERTEX
  8
0
 10
0.15490334
 20
22.57295702
  0
VERTEX
  8
0
 10
0.16660382
 20
22.58547908
  0
VERTEX
  8
0
 10
0.17967855
 20
22.59615185
  0
VERTEX
  8
0
 10
0.19412753
 20
22.60497532
  0
VERTEX
  8
0
 10
0.20984335
 20
22.61203554
  0
VERTEX
  8
0
 10
0.22671837
 20
22.61707468
  0
VERTEX
  8
0
 10
0.24475260
 20
22.62009274
  0
VERTEX
  8
0
 10
0.26394604
 20
22.62108970
  0
VERTEX
  8
0
 10
0.28548079
 20
22.62010776
  0
VERTEX
  8
0
 10
0.30538078
 20
22.61719262
  0
VERTEX
  8
0
 10
0.32364603
 20
22.61234428
  0
VERTEX
  8
0
 10
0.34027652
 20
22.60556275
  0
VERTEX
  8
0
 10
0.35514349
 20
22.59710601
  0
VERTEX
  8
0
 10
0.36811790
 20
22.58688820
  0
VERTEX
  8
0
 10
0.37919978
 20
22.57490930
  0
VERTEX
  8
0
 10
0.38838911
 20
22.56116932
  0
VERTEX
  8
0
 10
0.39560002
 20
22.54579728
  0
VERTEX
  8
0
 10
0.40074662
 20
22.52892218
  0
VERTEX
  8
0
 10
0.40382891
 20
22.51054403
  0
VERTEX
  8
0
 10
0.40484690
 20
22.49066282
  0
VERTEX
  8
0
 10
0.40484667
 20
22.49031894
  0
VERTEX
  8
0
 10
0.40406424
 20
22.47763894
  0
VERTEX
  8
0
 10
0.40173393
 20
22.46435821
  0
VERTEX
  8
0
 10
0.39785577
 20
22.45047676
  0
VERTEX
  8
0
 10
0.39242973
 20
22.43599458
  0
VERTEX
  8
0
 10
0.38577843
 20
22.42123384
  0
VERTEX
  8
0
 10
0.37788060
 20
22.40651694
  0
VERTEX
  8
0
 10
0.36873624
 20
22.39184388
  0
VERTEX
  8
0
 10
0.35834535
 20
22.37721466
  0
VERTEX
  8
0
 10
0.20311528
 20
22.17236932
  0
VERTEX
  8
0
 10
0.40737933
 20
22.17222910
  0
VERTEX
  8
0
 10
0.40734062
 20
22.11583296
  0
VERTEX
  8
0
 10
0.12535994
 20
22.11602654
  0
VERTEX
  8
0
 10
0.12539464
 20
22.16657673
  0
SEQEND
  0
POLYLINE
  8
Default_Layer
 62
256
 66
   1
 39
0.000000
 70
    1
  0
VERTEX
  8
0
 10
0.48921858
 20
22.16657673
  0
VERTEX
  8
0
 10
0.67060705
 20
22.40579202
  0
VERTEX
  8
0
 10
0.67856682
 20
22.41681218
  0
VERTEX
  8
0
 10
0.68558095
 20
22.42787597
  0
VERTEX
  8
0
 10
0.69164944
 20
22.43898340
  0
VERTEX
  8
0
 10
0.69677230
 20
22.45013445
  0
VERTEX
  8
0
 10
0.70084186
 20
22.46104982
  0
VERTEX
  8
0
 10
0.70375048
 20
22.47145016
  0
VERTEX
  8
0
 10
0.70549815
 20
22.48133549
  0
VERTEX
  8
0
 10
0.70608488
 20
22.49070579
  0
VERTEX
  8
0
 10
0.70608535
 20
22.49139355
  0
VERTEX
  8
0
 10
0.70482865
 20
22.50792209
  0
VERTEX
  8
0
 10
0.70103445
 20
22.52243210
  0
VERTEX
  8
0
 10
0.69818579
 20
22.52893014
  0
VERTEX
  8
0
 10
0.69470275
 20
22.53492355
  0
VERTEX
  8
0
 10
0.69058535
 20
22.54041232
  0
VERTEX
  8
0
 10
0.68583356
 20
22.54539646
  0
VERTEX
  8
0
 10
0.68050117
 20
22.54991353
  0
VERTEX
  8
0
 10
0.67464179
 20
22.55382918
  0
VERTEX
  8
0
 10
0.66825544
 20
22.55714340
  0
VERTEX
  8
0
 10
0.66134211
 20
22.55985619
  0
VERTEX
  8
0
 10
0.64593452
 20
22.56347750
  0
VERTEX
  8
0
 10
0.62841901
 20
22.56469310
  0
VERTEX
  8
0
 10
0.61186896
 20
22.56341491
  0
VERTEX
  8
0
 10
0.59695055
 20
22.55955651
  0
VERTEX
  8
0
 10
0.59010322
 20
22.55665974
  0
VERTEX
  8
0
 10
0.58366381
 20
22.55311790
  0
VERTEX
  8
0
 10
0.57763230
 20
22.54893102
  0
VERTEX
  8
0
 10
0.57200871
 20
22.54409908
  0
VERTEX
  8
0
 10
0.56685217
 20
22.53867041
  0
VERTEX
  8
0
 10
0.56222182
 20
22.53269331
  0
VERTEX
  8
0
 10
0.55453969
 20
22.51909387
  0
VERTEX
  8
0
 10
0.54896230
 20
22.50330076
  0
VERTEX
  8
0
 10
0.54548967
 20
22.48531397
  0
VERTEX
  8
0
 10
0.54548944
 20
22.48497009
  0
VERTEX
  8
0
 10
0.48324736
 20
22.48501282
  0
VERTEX
  8
0
 10
0.48324760
 20
22.48535670
  0
VERTEX
  8
0
 10
0.48715193
 20
22.50605124
  0
VERTEX
  8
0
 10
0.49264562
 20
22.52515425
  0
VERTEX
  8
0
 10
0.49972865
 20
22.54266572
  0
VERTEX
  8
0
 10
0.50840104
 20
22.55858567
  0
VERTEX
  8
0
 10
0.51872727
 20
22.57295702
  0
VERTEX
  8
0
 10
0.53042776
 20
22.58547908
  0
VERTEX
  8
0
 10
0.54350249
 20
22.59615185
  0
VERTEX
  8
0
 10
0.55795146
 20
22.60497532
  0
VERTEX
  8
0
 10
0.57366728
 20
22.61203554
  0
VERTEX
  8
0
 10
0.59054231
 20
22.61707468
  0
VERTEX
  8
0
 10
0.60857654
 20
22.62009274
  0
VERTEX
  8
0
 10
0.62776997
 20
22.62108970
  0
VERTEX
  8
0
 10
0.64930472
 20
22.62010776
  0
VERTEX
  8
0
 10
0.66920472
 20
22.61719262
  0
VERTEX
  8
0
 10
0.68746996
 20
22.61234428
  0
VERTEX
  8
0
 10
0.70410046
 20
22.60556275
  0
VERTEX
  8
0
 10
0.71896742
 20
22.59710601
  0
VERTEX
  8
0
 10
0.73194184
 20
22.58688820
  0
VERTEX
  8
0
 10
0.74302371
 20
22.57490930
  0
VERTEX
  8
0
 10
0.75221305
 20
22.56116932
  0
VERTEX
  8
0
 10
0.75942395
 20
22.54579728
  0
VERTEX
  8
0
 10
0.76457055
 20
22.52892218
  0
VERTEX
  8
0
 10
0.76765285
 20
22.51054403
  0
VERTEX
  8
0
 10
0.76867084
 20
22.49066282
  0
VERTEX
  8
0
 10
0.76867060
 20
22.49031894
  0
VERTEX
  8
0
 10
0.76788817
 20
22.47763894
  0
VERTEX
  8
0
 10
0.76555787
 20
22.46435821
  0
VERTEX
  8
0
 10
0.76167970
 20
22.45047676
  0
VERTEX
  8
0
 10
0.75625366
 20
22.43599458
  0
VERTEX
  8
0
 10
0.74960237
 20
22.42123384
  0
VERTEX
  8
0
 10
0.74170454
 20
22.40651694
  0
VERTEX
  8
0
 10
0.73256018
 20
22.39184388
  0
VERTEX
  8
0
 10
0.72216929
 20
22.37721466
  0
VERTEX
  8
0
 10
0.56693922
 20
22.17236932
  0
VERTEX
  8
0
 10
0.77120327
 20
22.17222910
  0
VERTEX
  8
0
 10
0.77116455
 20
22.11583296
  0
VERTEX
  8
0
 10
0.48918388
 20
22.11602654
  0
VERTEX
  8
0
 10
0.48921858
 20
22.16657673
  0
SEQEND
  0
POLYLINE
  8
Default_Layer
 62
256
 66
   1
 39
0.000000
 70
    1
  0
VERTEX
  8
0
 10
0.10541679
 20
24.23846602
  0
VERTEX
  8
0
 10
0.28680527
 20
24.47768131
  0
VERTEX
  8
0
 10
0.29476503
 20
24.48870147
  0
VERTEX
  8
0
 10
0.30177916
 20
24.49976526
  0
VERTEX
  8
0
 10
0.30784766
 20
24.51087268
  0
VERTEX
  8
0
 10
0.31297051
 20
24.52202374
  0
VERTEX
  8
0
 10
0.31704008
 20
24.53293911
  0
VERTEX
  8
0
 10
0.31994870
 20
24.54333945
  0
VERTEX
  8
0
 10
0.32169637
 20
24.55322478
  0
VERTEX
  8
0
 10
0.32228310
 20
24.56259508
  0
VERTEX
  8
0
 10
0.32228357
 20
24.56328283
  0
VERTEX
  8
0
 10
0.32102686
 20
24.57981138
  0
VERTEX
  8
0
 10
0.31723266
 20
24.59432139
  0
VERTEX
  8
0
 10
0.31438400
 20
24.60081943
  0
VERTEX
  8
0
 10
0.31090097
 20
24.60681284
  0
VERTEX
  8
0
 10
0.30678356
 20
24.61230161
  0
VERTEX
  8
0
 10
0.30203178
 20
24.61728575
  0
VERTEX
  8
0
 10
0.29669938
 20
24.62180282
  0
VERTEX
  8
0
 10
0.29084001
 20
24.62571847
  0
VERTEX
  8
0
 10
0.28445366
 20
24.62903269
  0
VERTEX
  8
0
 10
0.27754033
 20
24.63174548
  0
VERTEX
  8
0
 10
0.26213273
 20
24.63536679
  0
VERTEX
  8
0
 10
0.24461723
 20
24.63658239
  0
VERTEX
  8
0
 10
0.22806717
 20
24.63530420
  0
VERTEX
  8
0
 10
0.21314877
 20
24.63144580
  0
VERTEX
  8
0
 10
0.20630144
 20
24.62854903
  0
VERTEX
  8
0
 10
0.19986202
 20
24.62500719
  0
VERTEX
  8
0
 10
0.19383052
 20
24.62082031
  0
VERTEX
  8
0
 10
0.18820693
 20
24.61598837
  0
VERTEX
  8
0
 10
0.18305039
 20
24.61055970
  0
VERTEX
  8
0
 10
0.17842004
 20
24.60458260
  0
VERTEX
  8
0
 10
0.17073790
 20
24.59098316
  0
VERTEX
  8
0
 10
0.16516052
 20
24.57519005
  0
VERTEX
  8
0
 10
0.16168789
 20
24.55720326
  0
VERTEX
  8
0
 10
0.16168765
 20
24.55685938
  0
VERTEX
  8
0
 10
0.09944558
 20
24.55690211
  0
VERTEX
  8
0
 10
0.09944581
 20
24.55724599
  0
VERTEX
  8
0
 10
0.10335015
 20
24.57794053
  0
VERTEX
  8
0
 10
0.10884384
 20
24.59704354
  0
VERTEX
  8
0
 10
0.11592687
 20
24.61455501
  0
VERTEX
  8
0
 10
0.12459925
 20
24.63047496
  0
VERTEX
  8
0
 10
0.13492549
 20
24.64484631
  0
VERTEX
  8
0
 10
0.14662597
 20
24.65736837
  0
VERTEX
  8
0
 10
0.15970070
 20
24.66804114
  0
VERTEX
  8
0
 10
0.17414968
 20
24.67686461
  0
VERTEX
  8
0
 10
0.18986550
 20
24.68392483
  0
VERTEX
  8
0
 10
0.20674052
 20
24.68896397
  0
VERTEX
  8
0
 10
0.22477475
 20
24.69198203
  0
VERTEX
  8
0
 10
0.24396819
 20
24.69297899
  0
VERTEX
  8
0
 10
0.26550294
 20
24.69199705
  0
VERTEX
  8
0
 10
0.28540294
 20
24.68908191
  0
VERTEX
  8
0
 10
0.30366818
 20
24.68423357
  0
VERTEX
  8
0
 10
0.32029867
 20
24.67745204
  0
VERTEX
  8
0
 10
0.33516564
 20
24.66899530
  0
VERTEX
  8
0
 10
0.34814006
 20
24.65877749
  0
VERTEX
  8
0
 10
0.35922193
 20
24.64679859
  0
VERTEX
  8
0
 10
0.36841126
 20
24.63305861
  0
VERTEX
  8
0
 10
0.37562217
 20
24.61768657
  0
VERTEX
  8
0
 10
0.38076877
 20
24.60081147
  0
VERTEX
  8
0
 10
0.38385107
 20
24.58243332
  0
VERTEX
  8
0
 10
0.38486905
 20
24.56255211
  0
VERTEX
  8
0
 10
0.38486882
 20
24.56220823
  0
VERTEX
  8
0
 10
0.38408639
 20
24.54952823
  0
VERTEX
  8
0
 10
0.38175608
 20
24.53624750
  0
VERTEX
  8
0
 10
0.37787792
 20
24.52236605
  0
VERTEX
  8
0
 10
0.37245188
 20
24.50788387
  0
VERTEX
  8
0
 10
0.36580058
 20
24.49312313
  0
VERTEX
  8
0
 10
0.35790275
 20
24.47840623
  0
VERTEX
  8
0
 10
0.34875839
 20
24.46373317
  0
VERTEX
  8
0
 10
0.33836750
 20
24.44910395
  0
VERTEX
  8
0
 10
0.18313743
 20
24.24425861
  0
VERTEX
  8
0
 10
0.38740148
 20
24.24411839
  0
VERTEX
  8
0
 10
0.38736277
 20
24.18772225
  0
VERTEX
  8
0
 10
0.10538209
 20
24.18791583
  0
VERTEX
  8
0
 10
0.10541679
 20
24.23846602
  0
SEQEND
  0
POLYLINE
  8
Default_Layer
 62
256
 66
   1
 39
0.000000
 70
    1
  0
VERTEX
  8
0
 10
0.46998113
 20
24.31516317
  0
VERTEX
  8
0
 10
0.63804969
 20
24.68746879
  0
VERTEX
  8
0
 10
0.69994789
 20
24.68742630
  0
VERTEX
  8
0
 10
0.53600871
 20
24.31924439
  0
VERTEX
  8
0
 10
0.79151071
 20
24.31906899
  0
VERTEX
  8
0
 10
0.79147318
 20
24.26439225
  0
VERTEX
  8
0
 10
0.46994643
 20
24.26461298
  0
VERTEX
  8
0
 10
0.46998113
 20
24.31516317
  0
SEQEND
  0
POLYLINE
  8
Default_Layer
 62
256
 66
   1
 39
0.000000
 70
    1
  0
VERTEX
  8
0
 10
0.69086587
 20
24.48179287
  0
VERTEX
  8
0
 10
0.74898139
 20
24.48175297
  0
VERTEX
  8
0
 10
0.74877932
 20
24.18739265
  0
VERTEX
  8
0
 10
0.69066379
 20
24.18743255
  0
VERTEX
  8
0
 10
0.69086587
 20
24.48179287
  0
SEQEND
  0
POLYLINE
  8
Default_Layer
 62
256
 66
   1
 39
0.000000
 70
    1
  0
VERTEX
  8
0
 10
0.13081578
 20
26.30617353
  0
VERTEX
  8
0
 10
0.31220426
 20
26.54538882
  0
VERTEX
  8
0
 10
0.32016402
 20
26.55640898
  0
VERTEX
  8
0
 10
0.32717815
 20
26.56747277
  0
VERTEX
  8
0
 10
0.33324665
 20
26.57858019
  0
VERTEX
  8
0
 10
0.33836950
 20
26.58973125
  0
VERTEX
  8
0
 10
0.34243907
 20
26.60064662
  0
VERTEX
  8
0
 10
0.34534769
 20
26.61104696
  0
VERTEX
  8
0
 10
0.34709536
 20
26.62093228
  0
VERTEX
  8
0
 10
0.34768209
 20
26.63030258
  0
VERTEX
  8
0
 10
0.34768256
 20
26.63099034
  0
VERTEX
  8
0
 10
0.34642585
 20
26.64751889
  0
VERTEX
  8
0
 10
0.34263165
 20
26.66202889
  0
VERTEX
  8
0
 10
0.33978299
 20
26.66852694
  0
VERTEX
  8
0
 10
0.33629996
 20
26.67452035
  0
VERTEX
  8
0
 10
0.33218255
 20
26.68000912
  0
VERTEX
  8
0
 10
0.32743077
 20
26.68499325
  0
VERTEX
  8
0
 10
0.32209837
 20
26.68951033
  0
VERTEX
  8
0
 10
0.31623900
 20
26.69342597
  0
VERTEX
  8
0
 10
0.30985265
 20
26.69674019
  0
VERTEX
  8
0
 10
0.30293932
 20
26.69945299
  0
VERTEX
  8
0
 10
0.28753172
 20
26.70307429
  0
VERTEX
  8
0
 10
0.27001622
 20
26.70428989
  0
VERTEX
  8
0
 10
0.25346616
 20
26.70301171
  0
VERTEX
  8
0
 10
0.23854776
 20
26.69915331
  0
VERTEX
  8
0
 10
0.23170043
 20
26.69625653
  0
VERTEX
  8
0
 10
0.22526101
 20
26.69271470
  0
VERTEX
  8
0
 10
0.21922951
 20
26.68852782
  0
VERTEX
  8
0
 10
0.21360592
 20
26.68369588
  0
VERTEX
  8
0
 10
0.20844938
 20
26.67826720
  0
VERTEX
  8
0
 10
0.20381903
 20
26.67229011
  0
VERTEX
  8
0
 10
0.19613689
 20
26.65869067
  0
VERTEX
  8
0
 10
0.19055951
 20
26.64289756
  0
VERTEX
  8
0
 10
0.18708688
 20
26.62491077
  0
VERTEX
  8
0
 10
0.18708664
 20
26.62456689
  0
VERTEX
  8
0
 10
0.12484457
 20
26.62460962
  0
VERTEX
  8
0
 10
0.12484480
 20
26.62495350
  0
VERTEX
  8
0
 10
0.12874914
 20
26.64564804
  0
VERTEX
  8
0
 10
0.13424283
 20
26.66475104
  0
VERTEX
  8
0
 10
0.14132586
 20
26.68226252
  0
VERTEX
  8
0
 10
0.14999824
 20
26.69818246
  0
VERTEX
  8
0
 10
0.16032448
 20
26.71255382
  0
VERTEX
  8
0
 10
0.17202496
 20
26.72507588
  0
VERTEX
  8
0
 10
0.18509969
 20
26.73574864
  0
VERTEX
  8
0
 10
0.19954867
 20
26.74457212
  0
VERTEX
  8
0
 10
0.21526449
 20
26.75163234
  0
VERTEX
  8
0
 10
0.23213951
 20
26.75667148
  0
VERTEX
  8
0
 10
0.25017374
 20
26.75968953
  0
VERTEX
  8
0
 10
0.26936718
 20
26.76068650
  0
VERTEX
  8
0
 10
0.29090193
 20
26.75970456
  0
VERTEX
  8
0
 10
0.31080192
 20
26.75678942
  0
VERTEX
  8
0
 10
0.32906717
 20
26.75194108
  0
VERTEX
  8
0
 10
0.34569766
 20
26.74515955
  0
VERTEX
  8
0
 10
0.36056463
 20
26.73670281
  0
VERTEX
  8
0
 10
0.37353905
 20
26.72648499
  0
VERTEX
  8
0
 10
0.38462092
 20
26.71450610
  0
VERTEX
  8
0
 10
0.39381025
 20
26.70076612
  0
VERTEX
  8
0
 10
0.40102116
 20
26.68539408
  0
VERTEX
  8
0
 10
0.40616776
 20
26.66851898
  0
VERTEX
  8
0
 10
0.40925006
 20
26.65014083
  0
VERTEX
  8
0
 10
0.41026804
 20
26.63025962
  0
VERTEX
  8
0
 10
0.41026781
 20
26.62991574
  0
VERTEX
  8
0
 10
0.40948538
 20
26.61723574
  0
VERTEX
  8
0
 10
0.40715507
 20
26.60395501
  0
VERTEX
  8
0
 10
0.40327691
 20
26.59007356
  0
VERTEX
  8
0
 10
0.39785087
 20
26.57559138
  0
VERTEX
  8
0
 10
0.39119957
 20
26.56083064
  0
VERTEX
  8
0
 10
0.38330174
 20
26.54611374
  0
VERTEX
  8
0
 10
0.37415738
 20
26.53144068
  0
VERTEX
  8
0
 10
0.36376649
 20
26.51681146
  0
VERTEX
  8
0
 10
0.20853642
 20
26.31196612
  0
VERTEX
  8
0
 10
0.41280047
 20
26.31182589
  0
VERTEX
  8
0
 10
0.41276176
 20
26.25542976
  0
VERTEX
  8
0
 10
0.13078108
 20
26.25562334
  0
VERTEX
  8
0
 10
0.13081578
 20
26.30617353
  0
SEQEND
  0
POLYLINE
  8
Default_Layer
 62
256
 66
   1
 39
0.000000
 70
    1
  0
VERTEX
  8
0
 10
0.63112139
 20
26.25037061
  0
VERTEX
  8
0
 10
0.60990911
 20
26.25148128
  0
VERTEX
  8
0
 10
0.59028878
 20
26.25478310
  0
VERTEX
  8
0
 10
0.57226040
 20
26.26027605
  0
VERTEX
  8
0
 10
0.55582395
 20
26.26796013
  0
VERTEX
  8
0
 10
0.54110846
 20
26.27789974
  0
VERTEX
  8
0
 10
0.52824266
 20
26.28981538
  0
VERTEX
  8
0
 10
0.51722658
 20
26.30370706
  0
VERTEX
  8
0
 10
0.50806020
 20
26.31957477
  0
VERTEX
  8
0
 10
0.50100147
 20
26.33746133
  0
VERTEX
  8
0
 10
0.49596420
 20
26.35706589
  0
VERTEX
  8
0
 10
0.49294841
 20
26.37838846
  0
VERTEX
  8
0
 10
0.49195408
 20
26.40142904
  0
VERTEX
  8
0
 10
0.49195431
 20
26.40177292
  0
VERTEX
  8
0
 10
0.49237235
 20
26.41587167
  0
VERTEX
  8
0
 10
0.49360733
 20
26.43031375
  0
VERTEX
  8
0
 10
0.49565926
 20
26.44509914
  0
VERTEX
  8
0
 10
0.49852815
 20
26.46022784
  0
VERTEX
  8
0
 10
0.50654416
 20
26.49056967
  0
VERTEX
  8
0
 10
0.51748280
 20
26.52039366
  0
VERTEX
  8
0
 10
0.52196007
 20
26.53036308
  0
VERTEX
  8
0
 10
0.52678122
 20
26.54033226
  0
VERTEX
  8
0
 10
0.63559472
 20
26.75552584
  0
VERTEX
  8
0
 10
0.70093171
 20
26.75548099
  0
VERTEX
  8
0
 10
0.57318149
 20
26.50625639
  0
VERTEX
  8
0
 10
0.57353387
 20
26.51863579
  0
VERTEX
  8
0
 10
0.57871878
 20
26.52626205
  0
VERTEX
  8
0
 10
0.58497770
 20
26.53298488
  0
VERTEX
  8
0
 10
0.59231062
 20
26.53880430
  0
VERTEX
  8
0
 10
0.60071754
 20
26.54372030
  0
VERTEX
  8
0
 10
0.61015540
 20
26.54762544
  0
VERTEX
  8
0
 10
0.62023727
 20
26.55041254
  0
VERTEX
  8
0
 10
0.63096314
 20
26.55208159
  0
VERTEX
  8
0
 10
0.64233302
 20
26.55263258
  0
VERTEX
  8
0
 10
0.66189038
 20
26.55152304
  0
VERTEX
  8
0
 10
0.67998474
 20
26.54822228
  0
VERTEX
  8
0
 10
0.69661612
 20
26.54273029
  0
VERTEX
  8
0
 10
0.71178451
 20
26.53504707
  0
VERTEX
  8
0
 10
0.72548997
 20
26.52525861
  0
VERTEX
  8
0
 10
0.73738867
 20
26.51345109
  0
VERTEX
  8
0
 10
0.74748063
 20
26.49962452
  0
VERTEX
  8
0
 10
0.75576583
 20
26.48377891
  0
VERTEX
  8
0
 10
0.76237346
 20
26.46623654
  0
VERTEX
  8
0
 10
0.76708857
 20
26.44697608
  0
VERTEX
  8
0
 10
0.76991118
 20
26.42599752
  0
VERTEX
  8
0
 10
0.77084126
 20
26.40330086
  0
VERTEX
  8
0
 10
0.77084103
 20
26.40295698
  0
VERTEX
  8
0
 10
0.76979345
 20
26.37974587
  0
VERTEX
  8
0
 10
0.76668379
 20
26.35825556
  0
VERTEX
  8
0
 10
0.76151203
 20
26.33848607
  0
VERTEX
  8
0
 10
0.75427818
 20
26.32043738
  0
VERTEX
  8
0
 10
0.74521877
 20
26.30428129
  0
VERTEX
  8
0
 10
0.73422646
 20
26.29018979
  0
VERTEX
  8
0
 10
0.72130125
 20
26.27816290
  0
VERTEX
  8
0
 10
0.70644314
 20
26.26820061
  0
VERTEX
  8
0
 10
0.68999606
 20
26.26038865
  0
VERTEX
  8
0
 10
0.67196007
 20
26.25481300
  0
VERTEX
  8
0
 10
0.65233518
 20
26.25147365
  0
VERTEX
  8
0
 10
0.63112139
 20
26.25037061
  0
SEQEND
  0
POLYLINE
  8
Default_Layer
 62
256
 66
   1
 39
0.000000
 70
    1
  0
VERTEX
  8
0
 10
0.63116058
 20
26.30745450
  0
VERTEX
  8
0
 10
0.64042944
 20
26.30781351
  0
VERTEX
  8
0
 10
0.64915074
 20
26.30890364
  0
VERTEX
  8
0
 10
0.65732449
 20
26.31072488
  0
VERTEX
  8
0
 10
0.66495069
 20
26.31327725
  0
VERTEX
  8
0
 10
0.67202933
 20
26.31656073
  0
VERTEX
  8
0
 10
0.67856041
 20
26.32057533
  0
VERTEX
  8
0
 10
0.68454394
 20
26.32532106
  0
VERTEX
  8
0
 10
0.68997992
 20
26.33079790
  0
VERTEX
  8
0
 10
0.69490053
 20
26.33694673
  0
VERTEX
  8
0
 10
0.69916605
 20
26.34370855
  0
VERTEX
  8
0
 10
0.70277647
 20
26.35108335
  0
VERTEX
  8
0
 10
0.70573179
 20
26.35907113
  0
VERTEX
  8
0
 10
0.70803201
 20
26.36767190
  0
VERTEX
  8
0
 10
0.70967714
 20
26.37688566
  0
VERTEX
  8
0
 10
0.71100209
 20
26.39715212
  0
VERTEX
  8
0
 10
0.71100232
 20
26.39749600
  0
VERTEX
  8
0
 10
0.70966344
 20
26.41954816
  0
VERTEX
  8
0
 10
0.70797779
 20
26.42957554
  0
VERTEX
  8
0
 10
0.70561468
 20
26.43893712
  0
VERTEX
  8
0
 10
0.70257409
 20
26.44763290
  0
VERTEX
  8
0
 10
0.69885604
 20
26.45566288
  0
VERTEX
  8
0
 10
0.69446052
 20
26.46302706
  0
VERTEX
  8
0
 10
0.68938753
 20
26.46972543
  0
VERTEX
  8
0
 10
0.68369081
 20
26.47577409
  0
VERTEX
  8
0
 10
0.67742399
 20
26.48101718
  0
VERTEX
  8
0
 10
0.67058707
 20
26.48545469
  0
VERTEX
  8
0
 10
0.66318004
 20
26.48908662
  0
VERTEX
  8
0
 10
0.65520292
 20
26.49191298
  0
VERTEX
  8
0
 10
0.64665569
 20
26.49393376
  0
VERTEX
  8
0
 10
0.63753835
 20
26.49514897
  0
VERTEX
  8
0
 10
0.62785092
 20
26.49555861
  0
VERTEX
  8
0
 10
0.61907636
 20
26.49516165
  0
VERTEX
  8
0
 10
0.61080631
 20
26.49395837
  0
VERTEX
  8
0
 10
0.60304079
 20
26.49194879
  0
VERTEX
  8
0
 10
0.59577979
 20
26.48913289
  0
VERTEX
  8
0
 10
0.58902330
 20
26.48551068
  0
VERTEX
  8
0
 10
0.58277133
 20
26.48108216
  0
VERTEX
  8
0
 10
0.57702388
 20
26.47584732
  0
VERTEX
  8
0
 10
0.57178096
 20
26.46980617
  0
VERTEX
  8
0
 10
0.56710175
 20
26.46310911
  0
VERTEX
  8
0
 10
0.56304536
 20
26.45573462
  0
VERTEX
  8
0
 10
0.55961179
 20
26.44768268
  0
VERTEX
  8
0
 10
0.55680104
 20
26.43895331
  0
VERTEX
  8
0
 10
0.55304797
 20
26.41946224
  0
VERTEX
  8
0
 10
0.55178617
 20
26.39726142
  0
VERTEX
  8
0
 10
0.55178593
 20
26.39691754
  0
VERTEX
  8
0
 10
0.55306167
 20
26.37679974
  0
VERTEX
  8
0
 10
0.55466732
 20
26.36764286
  0
VERTEX
  8
0
 10
0.55691815
 20
26.35908732
  0
VERTEX
  8
0
 10
0.55981417
 20
26.35113313
  0
VERTEX
  8
0
 10
0.56335537
 20
26.34378029
  0
VERTEX
  8
0
 10
0.56754176
 20
26.33702879
  0
VERTEX
  8
0
 10
0.57237334
 20
26.33087863
  0
VERTEX
  8
0
 10
0.57787701
 20
26.32539428
  0
VERTEX
  8
0
 10
0.58390775
 20
26.32064031
  0
VERTEX
  8
0
 10
0.59046556
 20
26.31661672
  0
VERTEX
  8
0
 10
0.59755043
 20
26.31332352
  0
VERTEX
  8
0
 10
0.60516237
 20
26.31076069
  0
VERTEX
  8
0
 10
0.61330137
 20
26.30892825
  0
VERTEX
  8
0
 10
0.62196744
 20
26.30782618
  0
VERTEX
  8
0
 10
0.63116058
 20
26.30745450
  0
SEQEND
  0
POLYLINE
  8
Default_Layer
 62
256
 66
   1
 39
0.000000
 70
    1
  0
VERTEX
  8
0
 10
0.11603178
 20
28.18099868
  0
VERTEX
  8
0
 10
0.29742025
 20
28.42021397
  0
VERTEX
  8
0
 10
0.30538002
 20
28.43123413
  0
VERTEX
  8
0
 10
0.31239415
 20
28.44229792
  0
VERTEX
  8
0
 10
0.31846264
 20
28.45340534
  0
VERTEX
  8
0
 10
0.32358550
 20
28.46455640
  0
VERTEX
  8
0
 10
0.32765506
 20
28.47547177
  0
VERTEX
  8
0
 10
0.33056368
 20
28.48587211
  0
VERTEX
  8
0
 10
0.33231136
 20
28.49575744
  0
VERTEX
  8
0
 10
0.33289809
 20
28.50512774
  0
VERTEX
  8
0
 10
0.33289856
 20
28.50581550
  0
VERTEX
  8
0
 10
0.33164185
 20
28.52234404
  0
VERTEX
  8
0
 10
0.32784765
 20
28.53685405
  0
VERTEX
  8
0
 10
0.32499899
 20
28.54335209
  0
VERTEX
  8
0
 10
0.32151596
 20
28.54934550
  0
VERTEX
  8
0
 10
0.31739855
 20
28.55483427
  0
VERTEX
  8
0
 10
0.31264677
 20
28.55981841
  0
VERTEX
  8
0
 10
0.30731437
 20
28.56433548
  0
VERTEX
  8
0
 10
0.30145500
 20
28.56825113
  0
VERTEX
  8
0
 10
0.29506864
 20
28.57156535
  0
VERTEX
  8
0
 10
0.28815531
 20
28.57427814
  0
VERTEX
  8
0
 10
0.27274772
 20
28.57789945
  0
VERTEX
  8
0
 10
0.25523222
 20
28.57911505
  0
VERTEX
  8
0
 10
0.23868216
 20
28.57783686
  0
VERTEX
  8
0
 10
0.22376376
 20
28.57397846
  0
VERTEX
  8
0
 10
0.21691643
 20
28.57108169
  0
VERTEX
  8
0
 10
0.21047701
 20
28.56753985
  0
VERTEX
  8
0
 10
0.20444551
 20
28.56335297
  0
VERTEX
  8
0
 10
0.19882192
 20
28.55852103
  0
VERTEX
  8
0
 10
0.19366538
 20
28.55309236
  0
VERTEX
  8
0
 10
0.18903503
 20
28.54711526
  0
VERTEX
  8
0
 10
0.18135289
 20
28.53351582
  0
VERTEX
  8
0
 10
0.17577551
 20
28.51772271
  0
VERTEX
  8
0
 10
0.17230287
 20
28.49973592
  0
VERTEX
  8
0
 10
0.17230264
 20
28.49939204
  0
VERTEX
  8
0
 10
0.11006056
 20
28.49943477
  0
VERTEX
  8
0
 10
0.11006080
 20
28.49977865
  0
VERTEX
  8
0
 10
0.11396514
 20
28.52047319
  0
VERTEX
  8
0
 10
0.11945882
 20
28.53957620
  0
VERTEX
  8
0
 10
0.12654186
 20
28.55708767
  0
VERTEX
  8
0
 10
0.13521424
 20
28.57300762
  0
VERTEX
  8
0
 10
0.14554048
 20
28.58737897
  0
VERTEX
  8
0
 10
0.15724096
 20
28.59990103
  0
VERTEX
  8
0
 10
0.17031569
 20
28.61057380
  0
VERTEX
  8
0
 10
0.18476467
 20
28.61939727
  0
VERTEX
  8
0
 10
0.20048049
 20
28.62645749
  0
VERTEX
  8
0
 10
0.21735551
 20
28.63149663
  0
VERTEX
  8
0
 10
0.23538974
 20
28.63451469
  0
VERTEX
  8
0
 10
0.25458317
 20
28.63551165
  0
VERTEX
  8
0
 10
0.27611792
 20
28.63452971
  0
VERTEX
  8
0
 10
0.29601792
 20
28.63161457
  0
VERTEX
  8
0
 10
0.31428317
 20
28.62676623
  0
VERTEX
  8
0
 10
0.33091366
 20
28.61998470
  0
VERTEX
  8
0
 10
0.34578062
 20
28.61152796
  0
VERTEX
  8
0
 10
0.35875504
 20
28.60131015
  0
VERTEX
  8
0
 10
0.36983692
 20
28.58933125
  0
VERTEX
  8
0
 10
0.37902625
 20
28.57559127
  0
VERTEX
  8
0
 10
0.38623716
 20
28.56021923
  0
VERTEX
  8
0
 10
0.39138376
 20
28.54334413
  0
VERTEX
  8
0
 10
0.39446605
 20
28.52496598
  0
VERTEX
  8
0
 10
0.39548404
 20
28.50508477
  0
VERTEX
  8
0
 10
0.39548380
 20
28.50474089
  0
VERTEX
  8
0
 10
0.39470137
 20
28.49206089
  0
VERTEX
  8
0
 10
0.39237107
 20
28.47878016
  0
VERTEX
  8
0
 10
0.38849290
 20
28.46489871
  0
VERTEX
  8
0
 10
0.38306687
 20
28.45041653
  0
VERTEX
  8
0
 10
0.37641557
 20
28.43565579
  0
VERTEX
  8
0
 10
0.36851774
 20
28.42093889
  0
VERTEX
  8
0
 10
0.35937338
 20
28.40626583
  0
VERTEX
  8
0
 10
0.34898249
 20
28.39163661
  0
VERTEX
  8
0
 10
0.19375242
 20
28.18679127
  0
VERTEX
  8
0
 10
0.39801647
 20
28.18665105
  0
VERTEX
  8
0
 10
0.39797776
 20
28.13025491
  0
VERTEX
  8
0
 10
0.11599708
 20
28.13044849
  0
VERTEX
  8
0
 10
0.11603178
 20
28.18099868
  0
SEQEND
  0
POLYLINE
  8
Default_Layer
 62
256
 66
   1
 39
0.000000
 70
    1
  0
VERTEX
  8
0
 10
0.63387521
 20
28.12519564
  0
VERTEX
  8
0
 10
0.61141633
 20
28.12624270
  0
VERTEX
  8
0
 10
0.59046334
 20
28.12935199
  0
VERTEX
  8
0
 10
0.57101623
 20
28.13452353
  0
VERTEX
  8
0
 10
0.55307501
 20
28.14175730
  0
VERTEX
  8
0
 10
0.53702655
 20
28.15107455
  0
VERTEX
  8
0
 10
0.52291362
 20
28.16215284
  0
VERTEX
  8
0
 10
0.51073622
 20
28.17499219
  0
VERTEX
  8
0
 10
0.50049435
 20
28.18959259
  0
VERTEX
  8
0
 10
0.49253189
 20
28.20595380
  0
VERTEX
  8
0
 10
0.48684860
 20
28.22373195
  0
VERTEX
  8
0
 10
0.48344448
 20
28.24292703
  0
VERTEX
  8
0
 10
0.48231953
 20
28.26353906
  0
VERTEX
  8
0
 10
0.48232401
 20
28.27007275
  0
VERTEX
  8
0
 10
0.48347607
 20
28.28894233
  0
VERTEX
  8
0
 10
0.48690579
 20
28.30703661
  0
VERTEX
  8
0
 10
0.49261317
 20
28.32435559
  0
VERTEX
  8
0
 10
0.50059822
 20
28.34089929
  0
VERTEX
  8
0
 10
0.51073162
 20
28.35613047
  0
VERTEX
  8
0
 10
0.52254016
 20
28.36951216
  0
VERTEX
  8
0
 10
0.53602383
 20
28.38104434
  0
VERTEX
  8
0
 10
0.55118265
 20
28.39072703
  0
VERTEX
  8
0
 10
0.53831453
 20
28.39924687
  0
VERTEX
  8
0
 10
0.52686597
 20
28.40931319
  0
VERTEX
  8
0
 10
0.51683697
 20
28.42092599
  0
VERTEX
  8
0
 10
0.50822753
 20
28.43408527
  0
VERTEX
  8
0
 10
0.50146729
 20
28.44846836
  0
VERTEX
  8
0
 10
0.49664175
 20
28.46340891
  0
VERTEX
  8
0
 10
0.49375091
 20
28.47890695
  0
VERTEX
  8
0
 10
0.49279477
 20
28.49496246
  0
VERTEX
  8
0
 10
0.49280067
 20
28.50355943
  0
VERTEX
  8
0
 10
0.49388875
 20
28.52315979
  0
VERTEX
  8
0
 10
0.49712512
 20
28.54138315
  0
VERTEX
  8
0
 10
0.50250980
 20
28.55822953
  0
VERTEX
  8
0
 10
0.51004277
 20
28.57369891
  0
VERTEX
  8
0
 10
0.51955209
 20
28.58776993
  0
VERTEX
  8
0
 10
0.53086556
 20
28.60007734
  0
VERTEX
  8
0
 10
0.54398319
 20
28.61062112
  0
VERTEX
  8
0
 10
0.55890497
 20
28.61940128
  0
VERTEX
  8
0
 10
0.57560944
 20
28.62646083
  0
VERTEX
  8
0
 10
0.59373103
 20
28.63149911
  0
VERTEX
  8
0
 10
0.61326973
 20
28.63451613
  0
VERTEX
  8
0
 10
0.63422554
 20
28.63551189
  0
VERTEX
  8
0
 10
0.65530892
 20
28.63448727
  0
VERTEX
  8
0
 10
0.67488644
 20
28.63144340
  0
VERTEX
  8
0
 10
0.69295811
 20
28.62638027
  0
VERTEX
  8
0
 10
0.70952392
 20
28.61929788
  0
VERTEX
  8
0
 10
0.72456258
 20
28.61049715
  0
VERTEX
  8
0
 10
0.73770871
 20
28.59993534
  0
VERTEX
  8
0
 10
0.74896228
 20
28.58761245
  0
VERTEX
  8
0
 10
0.75832332
 20
28.57352847
  0
VERTEX
  8
0
 10
0.76583505
 20
28.55804876
  0
VERTEX
  8
0
 10
0.77119659
 20
28.54119501
  0
VERTEX
  8
0
 10
0.77440794
 20
28.52296721
  0
VERTEX
  8
0
 10
0.77546911
 20
28.50336538
  0
VERTEX
  8
0
 10
0.77546320
 20
28.49476841
  0
VERTEX
  8
0
 10
0.77446324
 20
28.47828439
  0
VERTEX
  8
0
 10
0.77148647
 20
28.46253248
  0
VERTEX
  8
0
 10
0.76653289
 20
28.44751266
  0
VERTEX
  8
0
 10
0.75960252
 20
28.43322495
  0
VERTEX
  8
0
 10
0.75093216
 20
28.42024947
  0
VERTEX
  8
0
 10
0.74075839
 20
28.40882247
  0
VERTEX
  8
0
 10
0.72908121
 20
28.39894397
  0
VERTEX
  8
0
 10
0.71590063
 20
28.39061395
  0
VERTEX
  8
0
 10
0.73134693
 20
28.38075981
  0
VERTEX
  8
0
 10
0.74502961
 20
28.36910151
  0
VERTEX
  8
0
 10
0.75694867
 20
28.35563906
  0
VERTEX
  8
0
 10
0.76710412
 20
28.34037246
  0
VERTEX
  8
0
 10
0.77521700
 20
28.32396816
  0
VERTEX
  8
0
 10
0.78100813
 20
28.30674874
  0
VERTEX
  8
0
 10
0.78447753
 20
28.28871420
  0
VERTEX
  8
0
 10
0.78562518
 20
28.26986454
  0
VERTEX
  8
0
 10
0.78562069
 20
28.26333084
  0
VERTEX
  8
0
 10
0.78446745
 20
28.24272038
  0
VERTEX
  8
0
 10
0.78103697
 20
28.22352999
  0
VERTEX
  8
0
 10
0.77532928
 20
28.20575966
  0
VERTEX
  8
0
 10
0.76734436
 20
28.18940940
  0
VERTEX
  8
0
 10
0.75721141
 20
28.17482299
  0
VERTEX
  8
0
 10
0.74505938
 20
28.16200034
  0
VERTEX
  8
0
 10
0.73088827
 20
28.15094146
  0
VERTEX
  8
0
 10
0.71469808
 20
28.14164635
  0
VERTEX
  8
0
 10
0.69687590
 20
28.13443713
  0
VERTEX
  8
0
 10
0.67746469
 20
28.12929227
  0
VERTEX
  8
0
 10
0.65646446
 20
28.12621177
  0
VERTEX
  8
0
 10
0.63387521
 20
28.12519564
  0
SEQEND
  0
POLYLINE
  8
Default_Layer
 62
256
 66
   1
 39
0.000000
 70
    1
  0
VERTEX
  8
0
 10
0.63391393
 20
28.18159178
  0
VERTEX
  8
0
 10
0.64754057
 20
28.18222720
  0
VERTEX
  8
0
 10
0.66022243
 20
28.18415281
  0
VERTEX
  8
0
 10
0.67195951
 20
28.18736862
  0
VERTEX
  8
0
 10
0.68275181
 20
28.19187462
  0
VERTEX
  8
0
 10
0.69247031
 20
28.19758494
  0
VERTEX
  8
0
 10
0.70098601
 20
28.20441369
  0
VERTEX
  8
0
 10
0.70829889
 20
28.21236087
  0
VERTEX
  8
0
 10
0.71440897
 20
28.22142649
  0
VERTEX
  8
0
 10
0.71923029
 20
28.23165358
  0
VERTEX
  8
0
 10
0.72267670
 20
28.24274131
  0
VERTEX
  8
0
 10
0.72474817
 20
28.25468969
  0
VERTEX
  8
0
 10
0.72544472
 20
28.26749870
  0
VERTEX
  8
0
 10
0.72544685
 20
28.27059361
  0
VERTEX
  8
0
 10
0.72476797
 20
28.28353253
  0
VERTEX
  8
0
 10
0.72271293
 20
28.29552672
  0
VERTEX
  8
0
 10
0.71928173
 20
28.30657619
  0
VERTEX
  8
0
 10
0.71447436
 20
28.31668093
  0
VERTEX
  8
0
 10
0.70837684
 20
28.32590538
  0
VERTEX
  8
0
 10
0.70107495
 20
28.33397005
  0
VERTEX
  8
0
 10
0.69256868
 20
28.34087497
  0
VERTEX
  8
0
 10
0.68285804
 20
28.34662011
  0
VERTEX
  8
0
 10
0.67207204
 20
28.35129138
  0
VERTEX
  8
0
 10
0.66033946
 20
28.35463076
  0
VERTEX
  8
0
 10
0.64766030
 20
28.35663826
  0
VERTEX
  8
0
 10
0.63403456
 20
28.35731388
  0
VERTEX
  8
0
 10
0.62040790
 20
28.35665697
  0
VERTEX
  8
0
 10
0.60772600
 20
28.35466688
  0
VERTEX
  8
0
 10
0.59598884
 20
28.35134361
  0
VERTEX
  8
0
 10
0.58519644
 20
28.34668716
  0
VERTEX
  8
0
 10
0.57562837
 20
28.34095525
  0
VERTEX
  8
0
 10
0.56722009
 20
28.33406194
  0
VERTEX
  8
0
 10
0.55997161
 20
28.32600726
  0
VERTEX
  8
0
 10
0.55388292
 20
28.31679118
  0
VERTEX
  8
0
 10
0.54906158
 20
28.30654260
  0
VERTEX
  8
0
 10
0.54561514
 20
28.29539038
  0
VERTEX
  8
0
 10
0.54354359
 20
28.28333455
  0
VERTEX
  8
0
 10
0.54284693
 20
28.27037509
  0
VERTEX
  8
0
 10
0.54284457
 20
28.26693630
  0
VERTEX
  8
0
 10
0.54352365
 20
28.25429828
  0
VERTEX
  8
0
 10
0.54557884
 20
28.24251901
  0
VERTEX
  8
0
 10
0.54901013
 20
28.23159849
  0
VERTEX
  8
0
 10
0.55381753
 20
28.22153673
  0
VERTEX
  8
0
 10
0.55989366
 20
28.21246275
  0
VERTEX
  8
0
 10
0.56713115
 20
28.20450558
  0
VERTEX
  8
0
 10
0.57553000
 20
28.19766522
  0
VERTEX
  8
0
 10
0.58509021
 20
28.19194167
  0
VERTEX
  8
0
 10
0.59587631
 20
28.18742085
  0
VERTEX
  8
0
 10
0.60760896
 20
28.18418893
  0
VERTEX
  8
0
 10
0.62028817
 20
28.18224590
  0
VERTEX
  8
0
 10
0.63391393
 20
28.18159178
  0
SEQEND
  0
POLYLINE
  8
Default_Layer
 62
256
 66
   1
 39
0.000000
 70
    1
  0
VERTEX
  8
0
 10
0.63407257
 20
28.41267838
  0
VERTEX
  8
0
 10
0.64636666
 20
28.41329322
  0
VERTEX
  8
0
 10
0.65780192
 20
28.41515521
  0
VERTEX
  8
0
 10
0.66837833
 20
28.41826436
  0
VERTEX
  8
0
 10
0.67809591
 20
28.42262065
  0
VERTEX
  8
0
 10
0.68684712
 20
28.42813820
  0
VERTEX
  8
0
 10
0.69452445
 20
28.43473111
  0
VERTEX
  8
0
 10
0.70112789
 20
28.44239938
  0
VERTEX
  8
0
 10
0.70665745
 20
28.45114300
  0
VERTEX
  8
0
 10
0.71102720
 20
28.46102653
  0
VERTEX
  8
0
 10
0.71415098
 20
28.47177060
  0
VERTEX
  8
0
 10
0.71602879
 20
28.48337523
  0
VERTEX
  8
0
 10
0.71666062
 20
28.49584041
  0
VERTEX
  8
0
 10
0.71666393
 20
28.50065472
  0
VERTEX
  8
0
 10
0.71604873
 20
28.51243299
  0
VERTEX
  8
0
 10
0.71418639
 20
28.52335243
  0
VERTEX
  8
0
 10
0.71107689
 20
28.53341303
  0
VERTEX
  8
0
 10
0.70672024
 20
28.54261478
  0
VERTEX
  8
0
 10
0.70120246
 20
28.55102212
  0
VERTEX
  8
0
 10
0.69460931
 20
28.55835556
  0
VERTEX
  8
0
 10
0.68694081
 20
28.56461513
  0
VERTEX
  8
0
 10
0.67819695
 20
28.56980081
  0
VERTEX
  8
0
 10
0.66848526
 20
28.57401999
  0
VERTEX
  8
0
 10
0.65791305
 20
28.57703619
  0
VERTEX
  8
0
 10
0.64648032
 20
28.57884941
  0
VERTEX
  8
0
 10
0.63418706
 20
28.57945963
  0
VERTEX
  8
0
 10
0.62204342
 20
28.57886618
  0
VERTEX
  8
0
 10
0.61071567
 20
28.57706859
  0
VERTEX
  8
0
 10
0.60020381
 20
28.57406687
  0
VERTEX
  8
0
 10
0.59050783
 20
28.56986101
  0
VERTEX
  8
0
 10
0.58175686
 20
28.56468734
  0
VERTEX
  8
0
 10
0.57407977
 20
28.55843831
  0
VERTEX
  8
0
 10
0.56747656
 20
28.55111392
  0
VERTEX
  8
0
 10
0.56194724
 20
28.54271417
  0
VERTEX
  8
0
 10
0.55757786
 20
28.53336796
  0
VERTEX
  8
0
 10
0.55445447
 20
28.52320418
  0
VERTEX
  8
0
 10
0.55257709
 20
28.51222283
  0
VERTEX
  8
0
 10
0.55194571
 20
28.50042391
  0
VERTEX
  8
0
 10
0.55194217
 20
28.49526573
  0
VERTEX
  8
0
 10
0.55255701
 20
28.48297163
  0
VERTEX
  8
0
 10
0.55441900
 20
28.47153638
  0
VERTEX
  8
0
 10
0.55752815
 20
28.46095996
  0
VERTEX
  8
0
 10
0.56188444
 20
28.45124239
  0
VERTEX
  8
0
 10
0.56740199
 20
28.44249118
  0
VERTEX
  8
0
 10
0.57399490
 20
28.43481385
  0
VERTEX
  8
0
 10
0.58166317
 20
28.42821041
  0
VERTEX
  8
0
 10
0.59040679
 20
28.42268085
  0
VERTEX
  8
0
 10
0.60009689
 20
28.41831123
  0
VERTEX
  8
0
 10
0.61060454
 20
28.41518761
  0
VERTEX
  8
0
 10
0.62192977
 20
28.41331000
  0
VERTEX
  8
0
 10
0.63407257
 20
28.41267838
  0
SEQEND
  0
POLYLINE
  8
Default_Layer
 62
256
 66
   1
 39
0.000000
 70
    1
  0
VERTEX
  8
0
 10
0.25785100
 20
30.20308046
  0
VERTEX
  8
0
 10
0.23749831
 20
30.20404010
  0
VERTEX
  8
0
 10
0.21839349
 20
30.20689021
  0
VERTEX
  8
0
 10
0.20053653
 20
30.21163081
  0
VERTEX
  8
0
 10
0.18392742
 20
30.21826188
  0
VERTEX
  8
0
 10
0.16871655
 20
30.22667587
  0
VERTEX
  8
0
 10
0.15505429
 20
30.23676520
  0
VERTEX
  8
0
 10
0.14294063
 20
30.24852988
  0
VERTEX
  8
0
 10
0.13237557
 20
30.26196991
  0
VERTEX
  8
0
 10
0.12363856
 20
30.27712808
  0
VERTEX
  8
0
 10
0.11666489
 20
30.29370354
  0
VERTEX
  8
0
 10
0.11145458
 20
30.31169629
  0
VERTEX
  8
0
 10
0.10800762
 20
30.33110633
  0
VERTEX
  8
0
 10
0.16887419
 20
30.33106454
  0
VERTEX
  8
0
 10
0.17110180
 20
30.31999441
  0
VERTEX
  8
0
 10
0.17436167
 20
30.30982624
  0
VERTEX
  8
0
 10
0.17865380
 20
30.30056006
  0
VERTEX
  8
0
 10
0.18397818
 20
30.29219584
  0
VERTEX
  8
0
 10
0.19024886
 20
30.28475515
  0
VERTEX
  8
0
 10
0.19737989
 20
30.27825954
  0
VERTEX
  8
0
 10
0.20537127
 20
30.27270900
  0
VERTEX
  8
0
 10
0.21422300
 20
30.26810355
  0
VERTEX
  8
0
 10
0.22404266
 20
30.26463652
  0
VERTEX
  8
0
 10
0.23459375
 20
30.26215765
  0
VERTEX
  8
0
 10
0.24587625
 20
30.26066692
  0
VERTEX
  8
0
 10
0.25789018
 20
30.26016435
  0
VERTEX
  8
0
 10
0.27669697
 20
30.26148397
  0
VERTEX
  8
0
 10
0.28524673
 20
30.26314377
  0
VERTEX
  8
0
 10
0.29322740
 20
30.26547022
  0
VERTEX
  8
0
 10
0.30063897
 20
30.26846332
  0
VERTEX
  8
0
 10
0.30748145
 20
30.27212309
  0
VERTEX
  8
0
 10
0.31375484
 20
30.27644951
  0
VERTEX
  8
0
 10
0.31945914
 20
30.28144258
  0
VERTEX
  8
0
 10
0.32462116
 20
30.28703782
  0
VERTEX
  8
0
 10
0.32909580
 20
30.29317084
  0
VERTEX
  8
0
 10
0.33288305
 20
30.29984164
  0
VERTEX
  8
0
 10
0.33598291
 20
30.30705023
  0
VERTEX
  8
0
 10
0.33839538
 20
30.31479660
  0
VERTEX
  8
0
 10
0.34012046
 20
30.32308075
  0
VERTEX
  8
0
 10
0.34150846
 20
30.34126240
  0
VERTEX
  8
0
 10
0.34151885
 20
30.35639307
  0
VERTEX
  8
0
 10
0.34022072
 20
30.37519985
  0
VERTEX
  8
0
 10
0.33858779
 20
30.38374959
  0
VERTEX
  8
0
 10
0.33629895
 20
30.39173022
  0
VERTEX
  8
0
 10
0.33335420
 20
30.39914177
  0
VERTEX
  8
0
 10
0.32975354
 20
30.40598421
  0
VERTEX
  8
0
 10
0.32549697
 20
30.41225755
  0
VERTEX
  8
0
 10
0.32058449
 20
30.41796179
  0
VERTEX
  8
0
 10
0.31507523
 20
30.42312376
  0
VERTEX
  8
0
 10
0.30902818
 20
30.42759834
  0
VERTEX
  8
0
 10
0.30244334
 20
30.43138553
  0
VERTEX
  8
0
 10
0.29532073
 20
30.43448533
  0
VERTEX
  8
0
 10
0.28766033
 20
30.43689774
  0
VERTEX
  8
0
 10
0.27946215
 20
30.43862276
  0
VERTEX
  8
0
 10
0.26145244
 20
30.44001064
  0
VERTEX
  8
0
 10
0.22603291
 20
30.44003496
  0
VERTEX
  8
0
 10
0.22607163
 20
30.49643109
  0
VERTEX
  8
0
 10
0.26149115
 20
30.49640678
  0
VERTEX
  8
0
 10
0.27769726
 20
30.49757774
  0
VERTEX
  8
0
 10
0.29192768
 20
30.50111422
  0
VERTEX
  8
0
 10
0.30418242
 20
30.50701623
  0
VERTEX
  8
0
 10
0.30956891
 20
30.51085430
  0
VERTEX
  8
0
 10
0.31446148
 20
30.51528376
  0
VERTEX
  8
0
 10
0.31889771
 20
30.52025084
  0
VERTEX
  8
0
 10
0.32274322
 20
30.52570191
  0
VERTEX
  8
0
 10
0.32866213
 20
30.53805600
  0
VERTEX
  8
0
 10
0.33221819
 20
30.55234603
  0
VERTEX
  8
0
 10
0.33341141
 20
30.56857200
  0
VERTEX
  8
0
 10
0.33342203
 20
30.58404655
  0
VERTEX
  8
0
 10
0.33218670
 20
30.60040315
  0
VERTEX
  8
0
 10
0.32845686
 20
30.61474116
  0
VERTEX
  8
0
 10
0.32565650
 20
30.62115321
  0
VERTEX
  8
0
 10
0.32223251
 20
30.62706060
  0
VERTEX
  8
0
 10
0.31818489
 20
30.63246336
  0
VERTEX
  8
0
 10
0.31351365
 20
30.63736147
  0
VERTEX
  8
0
 10
0.30835851
 20
30.64179782
  0
VERTEX
  8
0
 10
0.30268715
 20
30.64564349
  0
VERTEX
  8
0
 10
0.29649956
 20
30.64889847
  0
VERTEX
  8
0
 10
0.28979575
 20
30.65156276
  0
VERTEX
  8
0
 10
0.27483945
 20
30.65511928
  0
VERTEX
  8
0
 10
0.25781826
 20
30.65631305
  0
VERTEX
  8
0
 10
0.24790991
 20
30.65582553
  0
VERTEX
  8
0
 10
0.23847371
 20
30.65434902
  0
VERTEX
  8
0
 10
0.22950967
 20
30.65188355
  0
VERTEX
  8
0
 10
0.22101779
 20
30.64842909
  0
VERTEX
  8
0
 10
0.21323459
 20
30.64415744
  0
VERTEX
  8
0
 10
0.20605251
 20
30.63889673
  0
VERTEX
  8
0
 10
0.19947153
 20
30.63264694
  0
VERTEX
  8
0
 10
0.19349166
 20
30.62540810
  0
VERTEX
  8
0
 10
0.18819892
 20
30.61724460
  0
VERTEX
  8
0
 10
0.18367931
 20
30.60822088
  0
VERTEX
  8
0
 10
0.17993284
 20
30.59833693
  0
VERTEX
  8
0
 10
0.17695951
 20
30.58759275
  0
VERTEX
  8
0
 10
0.11643683
 20
30.58763430
  0
VERTEX
  8
0
 10
0.12064094
 20
30.60669521
  0
VERTEX
  8
0
 10
0.12634854
 20
30.62433658
  0
VERTEX
  8
0
 10
0.13355965
 20
30.64055842
  0
VERTEX
  8
0
 10
0.14227425
 20
30.65536073
  0
VERTEX
  8
0
 10
0.15253534
 20
30.66876497
  0
VERTEX
  8
0
 10
0.16404182
 20
30.68044896
  0
VERTEX
  8
0
 10
0.17679368
 20
30.69041270
  0
VERTEX
  8
0
 10
0.19079091
 20
30.69865618
  0
VERTEX
  8
0
 10
0.20607647
 20
30.70511492
  0
VERTEX
  8
0
 10
0.22234941
 20
30.70972462
  0
VERTEX
  8
0
 10
0.23960974
 20
30.71248529
  0
VERTEX
  8
0
 10
0.25785744
 20
30.71339694
  0
VERTEX
  8
0
 10
0.27356267
 20
30.71285422
  0
VERTEX
  8
0
 10
0.28835374
 20
30.71124826
  0
VERTEX
  8
0
 10
0.30223065
 20
30.70857904
  0
VERTEX
  8
0
 10
0.31519340
 20
30.70484658
  0
VERTEX
  8
0
 10
0.32724200
 20
30.70005086
  0
VERTEX
  8
0
 10
0.33837643
 20
30.69419190
  0
VERTEX
  8
0
 10
0.34859671
 20
30.68726969
  0
VERTEX
  8
0
 10
0.35790283
 20
30.67928424
  0
VERTEX
  8
0
 10
0.36619814
 20
30.67033231
  0
VERTEX
  8
0
 10
0.37338599
 20
30.66051071
  0
VERTEX
  8
0
 10
0.37946638
 20
30.64981942
  0
VERTEX
  8
0
 10
0.38443932
 20
30.63825845
  0
VERTEX
  8
0
 10
0.38830480
 20
30.62582779
  0
VERTEX
  8
0
 10
0.39106282
 20
30.61252745
  0
VERTEX
  8
0
 10
0.39271338
 20
30.59835742
  0
VERTEX
  8
0
 10
0.39325649
 20
30.58331772
  0
VERTEX
  8
0
 10
0.39324846
 20
30.57162583
  0
VERTEX
  8
0
 10
0.39207586
 20
30.55413179
  0
VERTEX
  8
0
 10
0.38858284
 20
30.53775695
  0
VERTEX
  8
0
 10
0.38276941
 20
30.52250131
  0
VERTEX
  8
0
 10
0.37463556
 20
30.50836487
  0
VERTEX
  8
0
 10
0.36452553
 20
30.49586321
  0
VERTEX
  8
0
 10
0.35243944
 20
30.48516827
  0
VERTEX
  8
0
 10
0.33837728
 20
30.47628006
  0
VERTEX
  8
0
 10
0.32233906
 20
30.46919856
  0
VERTEX
  8
0
 10
0.33152536
 20
30.46669913
  0
VERTEX
  8
0
 10
0.34017388
 20
30.46351231
  0
VERTEX
  8
0
 10
0.34828462
 20
30.45963811
  0
VERTEX
  8
0
 10
0.35585757
 20
30.45507651
  0
VERTEX
  8
0
 10
0.36289274
 20
30.44982753
  0
VERTEX
  8
0
 10
0.36939013
 20
30.44389115
  0
VERTEX
  8
0
 10
0.37534974
 20
30.43726739
  0
VERTEX
  8
0
 10
0.38077156
 20
30.42995624
  0
VERTEX
  8
0
 10
0.38560198
 20
30.42212430
  0
VERTEX
  8
0
 10
0.38978727
 20
30.41376624
  0
VERTEX
  8
0
 10
0.39332742
 20
30.40488206
  0
VERTEX
  8
0
 10
0.39622244
 20
30.39547176
  0
VERTEX
  8
0
 10
0.40007708
 20
30.37507279
  0
VERTEX
  8
0
 10
0.40135118
 20
30.35256933
  0
VERTEX
  8
0
 10
0.40134315
 20
30.34087745
  0
VERTEX
  8
0
 10
0.40027558
 20
30.31983708
  0
VERTEX
  8
0
 10
0.39710284
 20
30.30038860
  0
VERTEX
  8
0
 10
0.39182493
 20
30.28253201
  0
VERTEX
  8
0
 10
0.38444186
 20
30.26626730
  0
VERTEX
  8
0
 10
0.37503968
 20
30.25172337
  0
VERTEX
  8
0
 10
0.36370445
 20
30.23902912
  0
VERTEX
  8
0
 10
0.35043617
 20
30.22818455
  0
VERTEX
  8
0
 10
0.33523484
 20
30.21918965
  0
VERTEX
  8
0
 10
0.31840141
 20
30.21213019
  0
VERTEX
  8
0
 10
0.29989296
 20
30.20709218
  0
VERTEX
  8
0
 10
0.27970949
 20
30.20407560
  0
VERTEX
  8
0
 10
0.25785100
 20
30.20308046
  0
SEQEND
  0
POLYLINE
  8
Default_Layer
 62
256
 66
   1
 39
0.000000
 70
    1
  0
VERTEX
  8
0
 10
0.64368318
 20
30.20307680
  0
VERTEX
  8
0
 10
0.62667233
 20
30.20367415
  0
VERTEX
  8
0
 10
0.61071540
 20
30.20544211
  0
VERTEX
  8
0
 10
0.59581241
 20
30.20838068
  0
VERTEX
  8
0
 10
0.58196336
 20
30.21248987
  0
VERTEX
  8
0
 10
0.56916823
 20
30.21776968
  0
VERTEX
  8
0
 10
0.55742704
 20
30.22422010
  0
VERTEX
  8
0
 10
0.54673979
 20
30.23184113
  0
VERTEX
  8
0
 10
0.53710646
 20
30.24063278
  0
VERTEX
  8
0
 10
0.52865057
 20
30.25047137
  0
VERTEX
  8
0
 10
0.52132366
 20
30.26123337
  0
VERTEX
  8
0
 10
0.51512574
 20
30.27291877
  0
VERTEX
  8
0
 10
0.51005681
 20
30.28552756
  0
VERTEX
  8
0
 10
0.50611686
 20
30.29905976
  0
VERTEX
  8
0
 10
0.50330590
 20
30.31351535
  0
VERTEX
  8
0
 10
0.50162393
 20
30.32889435
  0
VERTEX
  8
0
 10
0.50107095
 20
30.34519674
  0
VERTEX
  8
0
 10
0.50122699
 20
30.57250068
  0
VERTEX
  8
0
 10
0.50180778
 20
30.58887752
  0
VERTEX
  8
0
 10
0.50352702
 20
30.60430791
  0
VERTEX
  8
0
 10
0.50638471
 20
30.61879185
  0
VERTEX
  8
0
 10
0.51038085
 20
30.63232935
  0
VERTEX
  8
0
 10
0.51551544
 20
30.64492039
  0
VERTEX
  8
0
 10
0.52178848
 20
30.65656499
  0
VERTEX
  8
0
 10
0.52919997
 20
30.66726313
  0
VERTEX
  8
0
 10
0.53774991
 20
30.67701483
  0
VERTEX
  8
0
 10
0.54738993
 20
30.68579325
  0
VERTEX
  8
0
 10
0.55807152
 20
30.69339961
  0
VERTEX
  8
0
 10
0.56979469
 20
30.69983392
  0
VERTEX
  8
0
 10
0.58255944
 20
30.70509618
  0
VERTEX
  8
0
 10
0.59636576
 20
30.70918639
  0
VERTEX
  8
0
 10
0.61121367
 20
30.71210454
  0
VERTEX
  8
0
 10
0.62710315
 20
30.71385064
  0
VERTEX
  8
0
 10
0.64403422
 20
30.71442468
  0
VERTEX
  8
0
 10
0.66103970
 20
30.71383271
  0
VERTEX
  8
0
 10
0.67698052
 20
30.71208088
  0
VERTEX
  8
0
 10
0.69185666
 20
30.70916919
  0
VERTEX
  8
0
 10
0.70566813
 20
30.70509764
  0
VERTEX
  8
0
 10
0.71841493
 20
30.69986623
  0
VERTEX
  8
0
 10
0.73009706
 20
30.69347495
  0
VERTEX
  8
0
 10
0.74071451
 20
30.68592382
  0
VERTEX
  8
0
 10
0.75026729
 20
30.67721282
  0
VERTEX
  8
0
 10
0.75880383
 20
30.66744402
  0
VERTEX
  8
0
 10
0.76620062
 20
30.65671959
  0
VERTEX
  8
0
 10
0.77245764
 20
30.64503952
  0
VERTEX
  8
0
 10
0.77757492
 20
30.63240383
  0
VERTEX
  8
0
 10
0.78155243
 20
30.61881250
  0
VERTEX
  8
0
 10
0.78439020
 20
30.60426555
  0
VERTEX
  8
0
 10
0.78608820
 20
30.58876296
  0
VERTEX
  8
0
 10
0.78664645
 20
30.57230474
  0
VERTEX
  8
0
 10
0.78649041
 20
30.34500080
  0
VERTEX
  8
0
 10
0.78590961
 20
30.32861859
  0
VERTEX
  8
0
 10
0.78419036
 20
30.31317208
  0
VERTEX
  8
0
 10
0.78133265
 20
30.29866127
  0
VERTEX
  8
0
 10
0.77733649
 20
30.28508617
  0
VERTEX
  8
0
 10
0.77220186
 20
30.27244676
  0
VERTEX
  8
0
 10
0.76592878
 20
30.26074306
  0
VERTEX
  8
0
 10
0.75851724
 20
30.24997507
  0
VERTEX
  8
0
 10
0.74996725
 20
30.24014277
  0
VERTEX
  8
0
 10
0.74032729
 20
30.23144495
  0
VERTEX
  8
0
 10
0.72964575
 20
30.22390844
  0
VERTEX
  8
0
 10
0.71792262
 20
30.21753323
  0
VERTEX
  8
0
 10
0.70515790
 20
30.21231933
  0
VERTEX
  8
0
 10
0.69135160
 20
30.20826674
  0
VERTEX
  8
0
 10
0.67650371
 20
30.20537545
  0
VERTEX
  8
0
 10
0.66061424
 20
30.20364547
  0
VERTEX
  8
0
 10
0.64368318
 20
30.20307680
  0
SEQEND
  0
POLYLINE
  8
Default_Layer
 62
256
 66
   1
 39
0.000000
 70
    1
  0
VERTEX
  8
0
 10
0.64372190
 20
30.25947293
  0
VERTEX
  8
0
 10
0.66362483
 20
30.26083479
  0
VERTEX
  8
0
 10
0.67251313
 20
30.26254808
  0
VERTEX
  8
0
 10
0.68069265
 20
30.26494962
  0
VERTEX
  8
0
 10
0.68816340
 20
30.26803940
  0
VERTEX
  8
0
 10
0.69492536
 20
30.27181743
  0
VERTEX
  8
0
 10
0.70097855
 20
30.27628370
  0
VERTEX
  8
0
 10
0.70632296
 20
30.28143822
  0
VERTEX
  8
0
 10
0.71108220
 20
30.28731851
  0
VERTEX
  8
0
 10
0.71520782
 20
30.29379027
  0
VERTEX
  8
0
 10
0.71869981
 20
30.30085351
  0
VERTEX
  8
0
 10
0.72155819
 20
30.30850823
  0
VERTEX
  8
0
 10
0.72537408
 20
30.32559210
  0
VERTEX
  8
0
 10
0.72665549
 20
30.34504188
  0
VERTEX
  8
0
 10
0.72681153
 20
30.57234582
  0
VERTEX
  8
0
 10
0.72555692
 20
30.59192629
  0
VERTEX
  8
0
 10
0.72397794
 20
30.60079838
  0
VERTEX
  8
0
 10
0.72176452
 20
30.60905837
  0
VERTEX
  8
0
 10
0.71891664
 20
30.61670626
  0
VERTEX
  8
0
 10
0.71543433
 20
30.62374205
  0
VERTEX
  8
0
 10
0.71131756
 20
30.63016574
  0
VERTEX
  8
0
 10
0.70656635
 20
30.63597734
  0
VERTEX
  8
0
 10
0.70122902
 20
30.64113919
  0
VERTEX
  8
0
 10
0.69518197
 20
30.64561376
  0
VERTEX
  8
0
 10
0.68842520
 20
30.64940107
  0
VERTEX
  8
0
 10
0.68095870
 20
30.65250111
  0
VERTEX
  8
0
 10
0.67278249
 20
30.65491388
  0
VERTEX
  8
0
 10
0.66389655
 20
30.65663937
  0
VERTEX
  8
0
 10
0.64399550
 20
30.65802855
  0
VERTEX
  8
0
 10
0.62407108
 20
30.65666671
  0
VERTEX
  8
0
 10
0.61515591
 20
30.65495344
  0
VERTEX
  8
0
 10
0.60693878
 20
30.65255192
  0
VERTEX
  8
0
 10
0.59941967
 20
30.64946217
  0
VERTEX
  8
0
 10
0.59259860
 20
30.64568419
  0
VERTEX
  8
0
 10
0.58647557
 20
30.64121796
  0
VERTEX
  8
0
 10
0.58105056
 20
30.63606350
  0
VERTEX
  8
0
 10
0.57637197
 20
30.63025838
  0
VERTEX
  8
0
 10
0.57231624
 20
30.62384030
  0
VERTEX
  8
0
 10
0.56888337
 20
30.61680926
  0
VERTEX
  8
0
 10
0.56607336
 20
30.60916525
  0
VERTEX
  8
0
 10
0.56232191
 20
30.59203835
  0
VERTEX
  8
0
 10
0.56106191
 20
30.57245960
  0
VERTEX
  8
0
 10
0.56090587
 20
30.34515567
  0
VERTEX
  8
0
 10
0.56216057
 20
30.32570415
  0
VERTEX
  8
0
 10
0.56595300
 20
30.30861505
  0
VERTEX
  8
0
 10
0.56880086
 20
30.30095642
  0
VERTEX
  8
0
 10
0.57228316
 20
30.29388839
  0
VERTEX
  8
0
 10
0.57639989
 20
30.28741096
  0
VERTEX
  8
0
 10
0.58115105
 20
30.28152415
  0
VERTEX
  8
0
 10
0.58656360
 20
30.27636225
  0
VERTEX
  8
0
 10
0.59266438
 20
30.27188763
  0
VERTEX
  8
0
 10
0.59945339
 20
30.26810030
  0
VERTEX
  8
0
 10
0.60693063
 20
30.26500026
  0
VERTEX
  8
0
 10
0.61509610
 20
30.26258750
  0
VERTEX
  8
0
 10
0.62394981
 20
30.26086202
  0
VERTEX
  8
0
 10
0.64372190
 20
30.25947293
  0
SEQEND
  0
POLYLINE
  8
Default_Layer
 62
256
 66
   1
 39
0.000000
 70
    1
  0
VERTEX
  8
0
 10
2.13478164
 20
0.10349564
  0
VERTEX
  8
0
 10
2.31617011
 20
0.34271093
  0
VERTEX
  8
0
 10
2.32412988
 20
0.35373109
  0
VERTEX
  8
0
 10
2.33114401
 20
0.36479488
  0
VERTEX
  8
0
 10
2.33721250
 20
0.37590230
  0
VERTEX
  8
0
 10
2.34233536
 20
0.38705336
  0
VERTEX
  8
0
 10
2.34640492
 20
0.39796873
  0
VERTEX
  8
0
 10
2.34931354
 20
0.40836907
  0
VERTEX
  8
0
 10
2.35106122
 20
0.41825439
  0
VERTEX
  8
0
 10
2.35164795
 20
0.42762470
  0
VERTEX
  8
0
 10
2.35164842
 20
0.42831245
  0
VERTEX
  8
0
 10
2.35039171
 20
0.44484100
  0
VERTEX
  8
0
 10
2.34659751
 20
0.45935100
  0
VERTEX
  8
0
 10
2.34374885
 20
0.46584905
  0
VERTEX
  8
0
 10
2.34026581
 20
0.47184246
  0
VERTEX
  8
0
 10
2.33614841
 20
0.47733123
  0
VERTEX
  8
0
 10
2.33139663
 20
0.48231536
  0
VERTEX
  8
0
 10
2.32606423
 20
0.48683244
  0
VERTEX
  8
0
 10
2.32020485
 20
0.49074808
  0
VERTEX
  8
0
 10
2.31381850
 20
0.49406230
  0
VERTEX
  8
0
 10
2.30690517
 20
0.49677510
  0
VERTEX
  8
0
 10
2.29149758
 20
0.50039640
  0
VERTEX
  8
0
 10
2.27398207
 20
0.50161201
  0
VERTEX
  8
0
 10
2.25743202
 20
0.50033382
  0
VERTEX
  8
0
 10
2.24251362
 20
0.49647542
  0
VERTEX
  8
0
 10
2.23566629
 20
0.49357864
  0
VERTEX
  8
0
 10
2.22922687
 20
0.49003681
  0
VERTEX
  8
0
 10
2.22319537
 20
0.48584993
  0
VERTEX
  8
0
 10
2.21757178
 20
0.48101799
  0
VERTEX
  8
0
 10
2.21241524
 20
0.47558931
  0
VERTEX
  8
0
 10
2.20778489
 20
0.46961222
  0
VERTEX
  8
0
 10
2.20010275
 20
0.45601278
  0
VERTEX
  8
0
 10
2.19452536
 20
0.44021967
  0
VERTEX
  8
0
 10
2.19105273
 20
0.42223288
  0
VERTEX
  8
0
 10
2.19105250
 20
0.42188900
  0
VERTEX
  8
0
 10
2.12881042
 20
0.42193173
  0
VERTEX
  8
0
 10
2.12881066
 20
0.42227561
  0
VERTEX
  8
0
 10
2.13271500
 20
0.44297015
  0
VERTEX
  8
0
 10
2.13820868
 20
0.46207315
  0
VERTEX
  8
0
 10
2.14529172
 20
0.47958463
  0
VERTEX
  8
0
 10
2.15396410
 20
0.49550457
  0
VERTEX
  8
0
 10
2.16429034
 20
0.50987593
  0
VERTEX
  8
0
 10
2.17599082
 20
0.52239799
  0
VERTEX
  8
0
 10
2.18906555
 20
0.53307075
  0
VERTEX
  8
0
 10
2.20351453
 20
0.54189423
  0
VERTEX
  8
0
 10
2.21923035
 20
0.54895445
  0
VERTEX
  8
0
 10
2.23610537
 20
0.55399359
  0
VERTEX
  8
0
 10
2.25413960
 20
0.55701164
  0
VERTEX
  8
0
 10
2.27333303
 20
0.55800861
  0
VERTEX
  8
0
 10
2.29486778
 20
0.55702667
  0
VERTEX
  8
0
 10
2.31476778
 20
0.55411153
  0
VERTEX
  8
0
 10
2.33303303
 20
0.54926319
  0
VERTEX
  8
0
 10
2.34966352
 20
0.54248166
  0
VERTEX
  8
0
 10
2.36453048
 20
0.53402492
  0
VERTEX
  8
0
 10
2.37750490
 20
0.52380711
  0
VERTEX
  8
0
 10
2.38858678
 20
0.51182821
  0
VERTEX
  8
0
 10
2.39777611
 20
0.49808823
  0
VERTEX
  8
0
 10
2.40498702
 20
0.48271619
  0
VERTEX
  8
0
 10
2.41013362
 20
0.46584109
  0
VERTEX
  8
0
 10
2.41321591
 20
0.44746294
  0
VERTEX
  8
0
 10
2.41423390
 20
0.42758173
  0
VERTEX
  8
0
 10
2.41423366
 20
0.42723785
  0
VERTEX
  8
0
 10
2.41345123
 20
0.41455785
  0
VERTEX
  8
0
 10
2.41112093
 20
0.40127712
  0
VERTEX
  8
0
 10
2.40724276
 20
0.38739567
  0
VERTEX
  8
0
 10
2.40181673
 20
0.37291349
  0
VERTEX
  8
0
 10
2.39516543
 20
0.35815275
  0
VERTEX
  8
0
 10
2.38726760
 20
0.34343585
  0
VERTEX
  8
0
 10
2.37812324
 20
0.32876279
  0
VERTEX
  8
0
 10
2.36773235
 20
0.31413357
  0
VERTEX
  8
0
 10
2.21250228
 20
0.10928823
  0
VERTEX
  8
0
 10
2.41676633
 20
0.10914801
  0
VERTEX
  8
0
 10
2.41672761
 20
0.05275187
  0
VERTEX
  8
0
 10
2.13474694
 20
0.05294545
  0
VERTEX
  8
0
 10
2.13478164
 20
0.10349564
  0
SEQEND
  0
POLYLINE
  8
Default_Layer
 62
256
 66
   1
 39
0.000000
 70
    1
  0
VERTEX
  8
0
 10
4.15194811
 20
0.18019279
  0
VERTEX
  8
0
 10
4.32001667
 20
0.55249841
  0
VERTEX
  8
0
 10
4.38191486
 20
0.55245591
  0
VERTEX
  8
0
 10
4.21797569
 20
0.18427401
  0
VERTEX
  8
0
 10
4.47347769
 20
0.18409861
  0
VERTEX
  8
0
 10
4.47344016
 20
0.12942187
  0
VERTEX
  8
0
 10
4.15191341
 20
0.12964259
  0
VERTEX
  8
0
 10
4.15194811
 20
0.18019279
  0
SEQEND
  0
POLYLINE
  8
Default_Layer
 62
256
 66
   1
 39
0.000000
 70
    1
  0
VERTEX
  8
0
 10
4.37283284
 20
0.34682248
  0
VERTEX
  8
0
 10
4.43094837
 20
0.34678259
  0
VERTEX
  8
0
 10
4.43074630
 20
0.05242227
  0
VERTEX
  8
0
 10
4.37263077
 20
0.05246217
  0
VERTEX
  8
0
 10
4.37283284
 20
0.34682248
  0
SEQEND
  0
POLYLINE
  8
Default_Layer
 62
256
 66
   1
 39
0.000000
 70
    1
  0
VERTEX
  8
0
 10
6.25097445
 20
0.04769272
  0
VERTEX
  8
0
 10
6.22976218
 20
0.04880339
  0
VERTEX
  8
0
 10
6.21014185
 20
0.05210521
  0
VERTEX
  8
0
 10
6.19211346
 20
0.05759816
  0
VERTEX
  8
0
 10
6.17567702
 20
0.06528224
  0
VERTEX
  8
0
 10
6.16096152
 20
0.07522185
  0
VERTEX
  8
0
 10
6.14809573
 20
0.08713749
  0
VERTEX
  8
0
 10
6.13707964
 20
0.10102917
  0
VERTEX
  8
0
 10
6.12791327
 20
0.11689688
  0
VERTEX
  8
0
 10
6.12085453
 20
0.13478344
  0
VERTEX
  8
0
 10
6.11581727
 20
0.15438800
  0
VERTEX
  8
0
 10
6.11280147
 20
0.17571057
  0
VERTEX
  8
0
 10
6.11180714
 20
0.19875115
  0
VERTEX
  8
0
 10
6.11180738
 20
0.19909503
  0
VERTEX
  8
0
 10
6.11222541
 20
0.21319378
  0
VERTEX
  8
0
 10
6.11346040
 20
0.22763586
  0
VERTEX
  8
0
 10
6.11551233
 20
0.24242125
  0
VERTEX
  8
0
 10
6.11838121
 20
0.25754995
  0
VERTEX
  8
0
 10
6.12639723
 20
0.28789178
  0
VERTEX
  8
0
 10
6.13733586
 20
0.31771577
  0
VERTEX
  8
0
 10
6.14181313
 20
0.32768519
  0
VERTEX
  8
0
 10
6.14663428
 20
0.33765437
  0
VERTEX
  8
0
 10
6.25544779
 20
0.55284795
  0
VERTEX
  8
0
 10
6.32078477
 20
0.55280310
  0
VERTEX
  8
0
 10
6.19303456
 20
0.30357850
  0
VERTEX
  8
0
 10
6.19338694
 20
0.31595790
  0
VERTEX
  8
0
 10
6.19857185
 20
0.32358416
  0
VERTEX
  8
0
 10
6.20483076
 20
0.33030699
  0
VERTEX
  8
0
 10
6.21216368
 20
0.33612641
  0
VERTEX
  8
0
 10
6.22057060
 20
0.34104241
  0
VERTEX
  8
0
 10
6.23000846
 20
0.34494755
  0
VERTEX
  8
0
 10
6.24009033
 20
0.34773465
  0
VERTEX
  8
0
 10
6.25081620
 20
0.34940370
  0
VERTEX
  8
0
 10
6.26218608
 20
0.34995469
  0
VERTEX
  8
0
 10
6.28174344
 20
0.34884515
  0
VERTEX
  8
0
 10
6.29983781
 20
0.34554439
  0
VERTEX
  8
0
 10
6.31646919
 20
0.34005240
  0
VERTEX
  8
0
 10
6.33163757
 20
0.33236919
  0
VERTEX
  8
0
 10
6.34534303
 20
0.32258072
  0
VERTEX
  8
0
 10
6.35724174
 20
0.31077320
  0
VERTEX
  8
0
 10
6.36733369
 20
0.29694663
  0
VERTEX
  8
0
 10
6.37561890
 20
0.28110102
  0
VERTEX
  8
0
 10
6.38222652
 20
0.26355865
  0
VERTEX
  8
0
 10
6.38694164
 20
0.24429819
  0
VERTEX
  8
0
 10
6.38976424
 20
0.22331963
  0
VERTEX
  8
0
 10
6.39069433
 20
0.20062297
  0
VERTEX
  8
0
 10
6.39069409
 20
0.20027909
  0
VERTEX
  8
0
 10
6.38964652
 20
0.17706798
  0
VERTEX
  8
0
 10
6.38653685
 20
0.15557767
  0
VERTEX
  8
0
 10
6.38136510
 20
0.13580818
  0
VERTEX
  8
0
 10
6.37413125
 20
0.11775950
  0
VERTEX
  8
0
 10
6.36507184
 20
0.10160340
  0
VERTEX
  8
0
 10
6.35407953
 20
0.08751191
  0
VERTEX
  8
0
 10
6.34115432
 20
0.07548501
  0
VERTEX
  8
0
 10
6.32629620
 20
0.06552272
  0
VERTEX
  8
0
 10
6.30984912
 20
0.05771076
  0
VERTEX
  8
0
 10
6.29181314
 20
0.05213511
  0
VERTEX
  8
0
 10
6.27218825
 20
0.04879576
  0
VERTEX
  8
0
 10
6.25097445
 20
0.04769272
  0
SEQEND
  0
POLYLINE
  8
Default_Layer
 62
256
 66
   1
 39
0.000000
 70
    1
  0
VERTEX
  8
0
 10
6.25101364
 20
0.10477661
  0
VERTEX
  8
0
 10
6.26028250
 20
0.10513562
  0
VERTEX
  8
0
 10
6.26900381
 20
0.10622575
  0
VERTEX
  8
0
 10
6.27717756
 20
0.10804699
  0
VERTEX
  8
0
 10
6.28480375
 20
0.11059936
  0
VERTEX
  8
0
 10
6.29188239
 20
0.11388284
  0
VERTEX
  8
0
 10
6.29841348
 20
0.11789744
  0
VERTEX
  8
0
 10
6.30439701
 20
0.12264317
  0
VERTEX
  8
0
 10
6.30983298
 20
0.12812001
  0
VERTEX
  8
0
 10
6.31475360
 20
0.13426884
  0
VERTEX
  8
0
 10
6.31901911
 20
0.14103066
  0
VERTEX
  8
0
 10
6.32262953
 20
0.14840546
  0
VERTEX
  8
0
 10
6.32558485
 20
0.15639324
  0
VERTEX
  8
0
 10
6.32788508
 20
0.16499401
  0
VERTEX
  8
0
 10
6.32953020
 20
0.17420777
  0
VERTEX
  8
0
 10
6.33085515
 20
0.19447423
  0
VERTEX
  8
0
 10
6.33085539
 20
0.19481811
  0
VERTEX
  8
0
 10
6.32951650
 20
0.21687027
  0
VERTEX
  8
0
 10
6.32783086
 20
0.22689765
  0
VERTEX
  8
0
 10
6.32546774
 20
0.23625923
  0
VERTEX
  8
0
 10
6.32242716
 20
0.24495501
  0
VERTEX
  8
0
 10
6.31870911
 20
0.25298499
  0
VERTEX
  8
0
 10
6.31431358
 20
0.26034917
  0
VERTEX
  8
0
 10
6.30924059
 20
0.26704754
  0
VERTEX
  8
0
 10
6.30354388
 20
0.27309620
  0
VERTEX
  8
0
 10
6.29727706
 20
0.27833929
  0
VERTEX
  8
0
 10
6.29044013
 20
0.28277680
  0
VERTEX
  8
0
 10
6.28303311
 20
0.28640873
  0
VERTEX
  8
0
 10
6.27505598
 20
0.28923509
  0
VERTEX
  8
0
 10
6.26650875
 20
0.29125587
  0
VERTEX
  8
0
 10
6.25739142
 20
0.29247108
  0
VERTEX
  8
0
 10
6.24770398
 20
0.29288072
  0
VERTEX
  8
0
 10
6.23892942
 20
0.29248376
  0
VERTEX
  8
0
 10
6.23065938
 20
0.29128048
  0
VERTEX
  8
0
 10
6.22289385
 20
0.28927090
  0
VERTEX
  8
0
 10
6.21563285
 20
0.28645500
  0
VERTEX
  8
0
 10
6.20887636
 20
0.28283279
  0
VERTEX
  8
0
 10
6.20262440
 20
0.27840427
  0
VERTEX
  8
0
 10
6.19687695
 20
0.27316943
  0
VERTEX
  8
0
 10
6.19163402
 20
0.26712828
  0
VERTEX
  8
0
 10
6.18695482
 20
0.26043122
  0
VERTEX
  8
0
 10
6.18289843
 20
0.25305673
  0
VERTEX
  8
0
 10
6.17946486
 20
0.24500479
  0
VERTEX
  8
0
 10
6.17665410
 20
0.23627542
  0
VERTEX
  8
0
 10
6.17290104
 20
0.21678435
  0
VERTEX
  8
0
 10
6.17163923
 20
0.19458353
  0
VERTEX
  8
0
 10
6.17163900
 20
0.19423965
  0
VERTEX
  8
0
 10
6.17291473
 20
0.17412185
  0
VERTEX
  8
0
 10
6.17452038
 20
0.16496497
  0
VERTEX
  8
0
 10
6.17677121
 20
0.15640943
  0
VERTEX
  8
0
 10
6.17966723
 20
0.14845524
  0
VERTEX
  8
0
 10
6.18320844
 20
0.14110240
  0
VERTEX
  8
0
 10
6.18739483
 20
0.13435090
  0
VERTEX
  8
0
 10
6.19222640
 20
0.12820074
  0
VERTEX
  8
0
 10
6.19773008
 20
0.12271639
  0
VERTEX
  8
0
 10
6.20376082
 20
0.11796242
  0
VERTEX
  8
0
 10
6.21031862
 20
0.11393883
  0
VERTEX
  8
0
 10
6.21740349
 20
0.11064563
  0
VERTEX
  8
0
 10
6.22501543
 20
0.10808280
  0
VERTEX
  8
0
 10
6.23315443
 20
0.10625036
  0
VERTEX
  8
0
 10
6.24182050
 20
0.10514829
  0
VERTEX
  8
0
 10
6.25101364
 20
0.10477661
  0
SEQEND
  0
POLYLINE
  8
Default_Layer
 62
256
 66
   1
 39
0.000000
 70
    1
  0
VERTEX
  8
0
 10
8.28253119
 20
0.04769260
  0
VERTEX
  8
0
 10
8.26007231
 20
0.04873966
  0
VERTEX
  8
0
 10
8.23911932
 20
0.05184895
  0
VERTEX
  8
0
 10
8.21967221
 20
0.05702049
  0
VERTEX
  8
0
 10
8.20173099
 20
0.06425426
  0
VERTEX
  8
0
 10
8.18568253
 20
0.07357151
  0
VERTEX
  8
0
 10
8.17156960
 20
0.08464980
  0
VERTEX
  8
0
 10
8.15939220
 20
0.09748915
  0
VERTEX
  8
0
 10
8.14915033
 20
0.11208954
  0
VERTEX
  8
0
 10
8.14118787
 20
0.12845076
  0
VERTEX
  8
0
 10
8.13550458
 20
0.14622891
  0
VERTEX
  8
0
 10
8.13210046
 20
0.16542399
  0
VERTEX
  8
0
 10
8.13097551
 20
0.18603601
  0
VERTEX
  8
0
 10
8.13097999
 20
0.19256971
  0
VERTEX
  8
0
 10
8.13213205
 20
0.21143928
  0
VERTEX
  8
0
 10
8.13556177
 20
0.22953356
  0
VERTEX
  8
0
 10
8.14126915
 20
0.24685255
  0
VERTEX
  8
0
 10
8.14925420
 20
0.26339625
  0
VERTEX
  8
0
 10
8.15938760
 20
0.27862743
  0
VERTEX
  8
0
 10
8.17119614
 20
0.29200912
  0
VERTEX
  8
0
 10
8.18467981
 20
0.30354130
  0
VERTEX
  8
0
 10
8.19983863
 20
0.31322398
  0
VERTEX
  8
0
 10
8.18697051
 20
0.32174382
  0
VERTEX
  8
0
 10
8.17552195
 20
0.33181014
  0
VERTEX
  8
0
 10
8.16549295
 20
0.34342295
  0
VERTEX
  8
0
 10
8.15688351
 20
0.35658223
  0
VERTEX
  8
0
 10
8.15012327
 20
0.37096531
  0
VERTEX
  8
0
 10
8.14529773
 20
0.38590587
  0
VERTEX
  8
0
 10
8.14240689
 20
0.40140391
  0
VERTEX
  8
0
 10
8.14145075
 20
0.41745941
  0
VERTEX
  8
0
 10
8.14145665
 20
0.42605639
  0
VERTEX
  8
0
 10
8.14254473
 20
0.44565674
  0
VERTEX
  8
0
 10
8.14578110
 20
0.46388011
  0
VERTEX
  8
0
 10
8.15116578
 20
0.48072649
  0
VERTEX
  8
0
 10
8.15869875
 20
0.49619587
  0
VERTEX
  8
0
 10
8.16820807
 20
0.51026689
  0
VERTEX
  8
0
 10
8.17952154
 20
0.52257429
  0
VERTEX
  8
0
 10
8.19263917
 20
0.53311808
  0
VERTEX
  8
0
 10
8.20756095
 20
0.54189824
  0
VERTEX
  8
0
 10
8.22426542
 20
0.54895779
  0
VERTEX
  8
0
 10
8.24238701
 20
0.55399607
  0
VERTEX
  8
0
 10
8.26192571
 20
0.55701309
  0
VERTEX
  8
0
 10
8.28288152
 20
0.55800885
  0
VERTEX
  8
0
 10
8.30396490
 20
0.55698423
  0
VERTEX
  8
0
 10
8.32354242
 20
0.55394036
  0
VERTEX
  8
0
 10
8.34161409
 20
0.54887723
  0
VERTEX
  8
0
 10
8.35817990
 20
0.54179484
  0
VERTEX
  8
0
 10
8.37321856
 20
0.53299411
  0
VERTEX
  8
0
 10
8.38636469
 20
0.52243230
  0
VERTEX
  8
0
 10
8.39761826
 20
0.51010940
  0
VERTEX
  8
0
 10
8.40697930
 20
0.49602543
  0
VERTEX
  8
0
 10
8.41449103
 20
0.48054572
  0
VERTEX
  8
0
 10
8.41985257
 20
0.46369196
  0
VERTEX
  8
0
 10
8.42306392
 20
0.44546417
  0
VERTEX
  8
0
 10
8.42412509
 20
0.42586234
  0
VERTEX
  8
0
 10
8.42411918
 20
0.41726536
  0
VERTEX
  8
0
 10
8.42311922
 20
0.40078135
  0
VERTEX
  8
0
 10
8.42014244
 20
0.38502943
  0
VERTEX
  8
0
 10
8.41518887
 20
0.37000962
  0
VERTEX
  8
0
 10
8.40825850
 20
0.35572191
  0
VERTEX
  8
0
 10
8.39958814
 20
0.34274642
  0
VERTEX
  8
0
 10
8.38941437
 20
0.33131943
  0
VERTEX
  8
0
 10
8.37773719
 20
0.32144092
  0
VERTEX
  8
0
 10
8.36455661
 20
0.31311091
  0
VERTEX
  8
0
 10
8.38000291
 20
0.30325676
  0
VERTEX
  8
0
 10
8.39368559
 20
0.29159847
  0
VERTEX
  8
0
 10
8.40560465
 20
0.27813602
  0
VERTEX
  8
0
 10
8.41576010
 20
0.26286942
  0
VERTEX
  8
0
 10
8.42387298
 20
0.24646511
  0
VERTEX
  8
0
 10
8.42966411
 20
0.22924570
  0
VERTEX
  8
0
 10
8.43313351
 20
0.21121116
  0
VERTEX
  8
0
 10
8.43428116
 20
0.19236150
  0
VERTEX
  8
0
 10
8.43427667
 20
0.18582780
  0
VERTEX
  8
0
 10
8.43312343
 20
0.16521734
  0
VERTEX
  8
0
 10
8.42969295
 20
0.14602695
  0
VERTEX
  8
0
 10
8.42398526
 20
0.12825662
  0
VERTEX
  8
0
 10
8.41600034
 20
0.11190635
  0
VERTEX
  8
0
 10
8.40586739
 20
0.09731994
  0
VERTEX
  8
0
 10
8.39371536
 20
0.08449730
  0
VERTEX
  8
0
 10
8.37954425
 20
0.07343842
  0
VERTEX
  8
0
 10
8.36335406
 20
0.06414331
  0
VERTEX
  8
0
 10
8.34553188
 20
0.05693408
  0
VERTEX
  8
0
 10
8.32612067
 20
0.05178922
  0
VERTEX
  8
0
 10
8.30512044
 20
0.04870873
  0
VERTEX
  8
0
 10
8.28253119
 20
0.04769260
  0
SEQEND
  0
POLYLINE
  8
Default_Layer
 62
256
 66
   1
 39
0.000000
 70
    1
  0
VERTEX
  8
0
 10
8.28256991
 20
0.10408874
  0
VERTEX
  8
0
 10
8.29619655
 20
0.10472415
  0
VERTEX
  8
0
 10
8.30887841
 20
0.10664977
  0
VERTEX
  8
0
 10
8.32061549
 20
0.10986558
  0
VERTEX
  8
0
 10
8.33140779
 20
0.11437158
  0
VERTEX
  8
0
 10
8.34112629
 20
0.12008190
  0
VERTEX
  8
0
 10
8.34964199
 20
0.12691065
  0
VERTEX
  8
0
 10
8.35695487
 20
0.13485783
  0
VERTEX
  8
0
 10
8.36306495
 20
0.14392344
  0
VERTEX
  8
0
 10
8.36788627
 20
0.15415054
  0
VERTEX
  8
0
 10
8.37133268
 20
0.16523827
  0
VERTEX
  8
0
 10
8.37340415
 20
0.17718664
  0
VERTEX
  8
0
 10
8.37410070
 20
0.18999566
  0
VERTEX
  8
0
 10
8.37410283
 20
0.19309057
  0
VERTEX
  8
0
 10
8.37342395
 20
0.20602948
  0
VERTEX
  8
0
 10
8.37136891
 20
0.21802368
  0
VERTEX
  8
0
 10
8.36793771
 20
0.22907315
  0
VERTEX
  8
0
 10
8.36313034
 20
0.23917789
  0
VERTEX
  8
0
 10
8.35703282
 20
0.24840233
  0
VERTEX
  8
0
 10
8.34973092
 20
0.25646701
  0
VERTEX
  8
0
 10
8.34122466
 20
0.26337193
  0
VERTEX
  8
0
 10
8.33151402
 20
0.26911707
  0
VERTEX
  8
0
 10
8.32072802
 20
0.27378834
  0
VERTEX
  8
0
 10
8.30899544
 20
0.27712772
  0
VERTEX
  8
0
 10
8.29631628
 20
0.27913522
  0
VERTEX
  8
0
 10
8.28269054
 20
0.27981084
  0
VERTEX
  8
0
 10
8.26906388
 20
0.27915393
  0
VERTEX
  8
0
 10
8.25638198
 20
0.27716384
  0
VERTEX
  8
0
 10
8.24464482
 20
0.27384057
  0
VERTEX
  8
0
 10
8.23385242
 20
0.26918412
  0
VERTEX
  8
0
 10
8.22428435
 20
0.26345220
  0
VERTEX
  8
0
 10
8.21587607
 20
0.25655890
  0
VERTEX
  8
0
 10
8.20862759
 20
0.24850421
  0
VERTEX
  8
0
 10
8.20253890
 20
0.23928814
  0
VERTEX
  8
0
 10
8.19771756
 20
0.22903955
  0
VERTEX
  8
0
 10
8.19427112
 20
0.21788734
  0
VERTEX
  8
0
 10
8.19219957
 20
0.20583151
  0
VERTEX
  8
0
 10
8.19150291
 20
0.19287204
  0
VERTEX
  8
0
 10
8.19150055
 20
0.18943325
  0
VERTEX
  8
0
 10
8.19217963
 20
0.17679523
  0
VERTEX
  8
0
 10
8.19423482
 20
0.16501597
  0
VERTEX
  8
0
 10
8.19766611
 20
0.15409545
  0
VERTEX
  8
0
 10
8.20247351
 20
0.14403369
  0
VERTEX
  8
0
 10
8.20854964
 20
0.13495971
  0
VERTEX
  8
0
 10
8.21578713
 20
0.12700254
  0
VERTEX
  8
0
 10
8.22418598
 20
0.12016218
  0
VERTEX
  8
0
 10
8.23374619
 20
0.11443862
  0
VERTEX
  8
0
 10
8.24453229
 20
0.10991781
  0
VERTEX
  8
0
 10
8.25626494
 20
0.10668589
  0
VERTEX
  8
0
 10
8.26894415
 20
0.10474286
  0
VERTEX
  8
0
 10
8.28256991
 20
0.10408874
  0
SEQEND
  0
POLYLINE
  8
Default_Layer
 62
256
 66
   1
 39
0.000000
 70
    1
  0
VERTEX
  8
0
 10
8.28272855
 20
0.33517534
  0
VERTEX
  8
0
 10
8.29502264
 20
0.33579018
  0
VERTEX
  8
0
 10
8.30645790
 20
0.33765217
  0
VERTEX
  8
0
 10
8.31703431
 20
0.34076131
  0
VERTEX
  8
0
 10
8.32675189
 20
0.34511761
  0
VERTEX
  8
0
 10
8.33550310
 20
0.35063516
  0
VERTEX
  8
0
 10
8.34318043
 20
0.35722807
  0
VERTEX
  8
0
 10
8.34978387
 20
0.36489633
  0
VERTEX
  8
0
 10
8.35531343
 20
0.37363996
  0
VERTEX
  8
0
 10
8.35968318
 20
0.38352348
  0
VERTEX
  8
0
 10
8.36280696
 20
0.39426756
  0
VERTEX
  8
0
 10
8.36468477
 20
0.40587219
  0
VERTEX
  8
0
 10
8.36531660
 20
0.41833737
  0
VERTEX
  8
0
 10
8.36531991
 20
0.42315167
  0
VERTEX
  8
0
 10
8.36470471
 20
0.43492995
  0
VERTEX
  8
0
 10
8.36284237
 20
0.44584939
  0
VERTEX
  8
0
 10
8.35973287
 20
0.45590999
  0
VERTEX
  8
0
 10
8.35537622
 20
0.46511174
  0
VERTEX
  8
0
 10
8.34985844
 20
0.47351907
  0
VERTEX
  8
0
 10
8.34326529
 20
0.48085252
  0
VERTEX
  8
0
 10
8.33559679
 20
0.48711209
  0
VERTEX
  8
0
 10
8.32685293
 20
0.49229777
  0
VERTEX
  8
0
 10
8.31714124
 20
0.49651695
  0
VERTEX
  8
0
 10
8.30656903
 20
0.49953315
  0
VERTEX
  8
0
 10
8.29513630
 20
0.50134636
  0
VERTEX
  8
0
 10
8.28284304
 20
0.50195659
  0
VERTEX
  8
0
 10
8.27069940
 20
0.50136314
  0
VERTEX
  8
0
 10
8.25937165
 20
0.49956555
  0
VERTEX
  8
0
 10
8.24885979
 20
0.49656383
  0
VERTEX
  8
0
 10
8.23916381
 20
0.49235796
  0
VERTEX
  8
0
 10
8.23041284
 20
0.48718429
  0
VERTEX
  8
0
 10
8.22273575
 20
0.48093526
  0
VERTEX
  8
0
 10
8.21613254
 20
0.47361088
  0
VERTEX
  8
0
 10
8.21060322
 20
0.46521113
  0
VERTEX
  8
0
 10
8.20623384
 20
0.45586492
  0
VERTEX
  8
0
 10
8.20311045
 20
0.44570114
  0
VERTEX
  8
0
 10
8.20123307
 20
0.43471979
  0
VERTEX
  8
0
 10
8.20060169
 20
0.42292087
  0
VERTEX
  8
0
 10
8.20059815
 20
0.41776269
  0
VERTEX
  8
0
 10
8.20121299
 20
0.40546859
  0
VERTEX
  8
0
 10
8.20307498
 20
0.39403334
  0
VERTEX
  8
0
 10
8.20618413
 20
0.38345692
  0
VERTEX
  8
0
 10
8.21054042
 20
0.37373935
  0
VERTEX
  8
0
 10
8.21605797
 20
0.36498814
  0
VERTEX
  8
0
 10
8.22265088
 20
0.35731081
  0
VERTEX
  8
0
 10
8.23031915
 20
0.35070737
  0
VERTEX
  8
0
 10
8.23906277
 20
0.34517781
  0
VERTEX
  8
0
 10
8.24875287
 20
0.34080819
  0
VERTEX
  8
0
 10
8.25926052
 20
0.33768457
  0
VERTEX
  8
0
 10
8.27058575
 20
0.33580696
  0
VERTEX
  8
0
 10
8.28272855
 20
0.33517534
  0
SEQEND
  0
POLYLINE
  8
Default_Layer
 62
256
 66
   1
 39
0.000000
 70
    1
  0
VERTEX
  8
0
 10
10.23209135
 20
0.05281289
  0
VERTEX
  8
0
 10
10.17225642
 20
0.05285397
  0
VERTEX
  8
0
 10
10.17255906
 20
0.49370669
  0
VERTEX
  8
0
 10
10.09102507
 20
0.44321244
  0
VERTEX
  8
0
 10
10.09106780
 20
0.50545452
  0
VERTEX
  8
0
 10
10.16228330
 20
0.55286093
  0
VERTEX
  8
0
 10
10.23243459
 20
0.55281278
  0
VERTEX
  8
0
 10
10.23209135
 20
0.05281289
  0
SEQEND
  0
POLYLINE
  8
Default_Layer
 62
256
 66
   1
 39
0.000000
 70
    1
  0
VERTEX
  8
0
 10
10.48827764
 20
0.04769260
  0
VERTEX
  8
0
 10
10.47126678
 20
0.04828995
  0
VERTEX
  8
0
 10
10.45530986
 20
0.05005791
  0
VERTEX
  8
0
 10
10.44040687
 20
0.05299648
  0
VERTEX
  8
0
 10
10.42655781
 20
0.05710567
  0
VERTEX
  8
0
 10
10.41376269
 20
0.06238548
  0
VERTEX
  8
0
 10
10.40202150
 20
0.06883590
  0
VERTEX
  8
0
 10
10.39133424
 20
0.07645693
  0
VERTEX
  8
0
 10
10.38170092
 20
0.08524858
  0
VERTEX
  8
0
 10
10.37324503
 20
0.09508718
  0
VERTEX
  8
0
 10
10.36591812
 20
0.10584917
  0
VERTEX
  8
0
 10
10.35972020
 20
0.11753457
  0
VERTEX
  8
0
 10
10.35465127
 20
0.13014336
  0
VERTEX
  8
0
 10
10.35071132
 20
0.14367556
  0
VERTEX
  8
0
 10
10.34790036
 20
0.15813115
  0
VERTEX
  8
0
 10
10.34621839
 20
0.17351015
  0
VERTEX
  8
0
 10
10.34566540
 20
0.18981254
  0
VERTEX
  8
0
 10
10.34582145
 20
0.41711648
  0
VERTEX
  8
0
 10
10.34640224
 20
0.43349332
  0
VERTEX
  8
0
 10
10.34812148
 20
0.44892371
  0
VERTEX
  8
0
 10
10.35097917
 20
0.46340765
  0
VERTEX
  8
0
 10
10.35497531
 20
0.47694515
  0
VERTEX
  8
0
 10
10.36010990
 20
0.48953619
  0
VERTEX
  8
0
 10
10.36638294
 20
0.50118079
  0
VERTEX
  8
0
 10
10.37379443
 20
0.51187894
  0
VERTEX
  8
0
 10
10.38234437
 20
0.52163063
  0
VERTEX
  8
0
 10
10.39198438
 20
0.53040905
  0
VERTEX
  8
0
 10
10.40266597
 20
0.53801541
  0
VERTEX
  8
0
 10
10.41438914
 20
0.54444973
  0
VERTEX
  8
0
 10
10.42715389
 20
0.54971198
  0
VERTEX
  8
0
 10
10.44096022
 20
0.55380219
  0
VERTEX
  8
0
 10
10.45580813
 20
0.55672034
  0
VERTEX
  8
0
 10
10.47169761
 20
0.55846644
  0
VERTEX
  8
0
 10
10.48862867
 20
0.55904049
  0
VERTEX
  8
0
 10
10.50563416
 20
0.55844852
  0
VERTEX
  8
0
 10
10.52157498
 20
0.55669668
  0
VERTEX
  8
0
 10
10.53645112
 20
0.55378499
  0
VERTEX
  8
0
 10
10.55026259
 20
0.54971344
  0
VERTEX
  8
0
 10
10.56300939
 20
0.54448203
  0
VERTEX
  8
0
 10
10.57469151
 20
0.53809075
  0
VERTEX
  8
0
 10
10.58530897
 20
0.53053962
  0
VERTEX
  8
0
 10
10.59486175
 20
0.52182862
  0
VERTEX
  8
0
 10
10.60339829
 20
0.51205982
  0
VERTEX
  8
0
 10
10.61079507
 20
0.50133539
  0
VERTEX
  8
0
 10
10.61705210
 20
0.48965532
  0
VERTEX
  8
0
 10
10.62216937
 20
0.47701963
  0
VERTEX
  8
0
 10
10.62614689
 20
0.46342830
  0
VERTEX
  8
0
 10
10.62898465
 20
0.44888135
  0
VERTEX
  8
0
 10
10.63068266
 20
0.43337876
  0
VERTEX
  8
0
 10
10.63124091
 20
0.41692054
  0
VERTEX
  8
0
 10
10.63108487
 20
0.18961661
  0
VERTEX
  8
0
 10
10.63050407
 20
0.17323439
  0
VERTEX
  8
0
 10
10.62878482
 20
0.15778788
  0
VERTEX
  8
0
 10
10.62592711
 20
0.14327707
  0
VERTEX
  8
0
 10
10.62193094
 20
0.12970197
  0
VERTEX
  8
0
 10
10.61679632
 20
0.11706257
  0
VERTEX
  8
0
 10
10.61052324
 20
0.10535887
  0
VERTEX
  8
0
 10
10.60311170
 20
0.09459087
  0
VERTEX
  8
0
 10
10.59456171
 20
0.08475857
  0
VERTEX
  8
0
 10
10.58492175
 20
0.07606075
  0
VERTEX
  8
0
 10
10.57424021
 20
0.06852424
  0
VERTEX
  8
0
 10
10.56251708
 20
0.06214903
  0
VERTEX
  8
0
 10
10.54975236
 20
0.05693513
  0
VERTEX
  8
0
 10
10.53594606
 20
0.05288254
  0
VERTEX
  8
0
 10
10.52109817
 20
0.04999125
  0
VERTEX
  8
0
 10
10.50520870
 20
0.04826127
  0
VERTEX
  8
0
 10
10.48827764
 20
0.04769260
  0
SEQEND
  0
POLYLINE
  8
Default_Layer
 62
256
 66
   1
 39
0.000000
 70
    1
  0
VERTEX
  8
0
 10
10.48831635
 20
0.10408874
  0
VERTEX
  8
0
 10
10.50821929
 20
0.10545059
  0
VERTEX
  8
0
 10
10.51710759
 20
0.10716388
  0
VERTEX
  8
0
 10
10.52528711
 20
0.10956542
  0
VERTEX
  8
0
 10
10.53275785
 20
0.11265520
  0
VERTEX
  8
0
 10
10.53951982
 20
0.11643323
  0
VERTEX
  8
0
 10
10.54557301
 20
0.12089950
  0
VERTEX
  8
0
 10
10.55091742
 20
0.12605402
  0
VERTEX
  8
0
 10
10.55567666
 20
0.13193431
  0
VERTEX
  8
0
 10
10.55980227
 20
0.13840607
  0
VERTEX
  8
0
 10
10.56329427
 20
0.14546931
  0
VERTEX
  8
0
 10
10.56615265
 20
0.15312403
  0
VERTEX
  8
0
 10
10.56996854
 20
0.17020790
  0
VERTEX
  8
0
 10
10.57124994
 20
0.18965768
  0
VERTEX
  8
0
 10
10.57140599
 20
0.41696162
  0
VERTEX
  8
0
 10
10.57015137
 20
0.43654209
  0
VERTEX
  8
0
 10
10.56857240
 20
0.44541418
  0
VERTEX
  8
0
 10
10.56635897
 20
0.45367417
  0
VERTEX
  8
0
 10
10.56351110
 20
0.46132206
  0
VERTEX
  8
0
 10
10.56002878
 20
0.46835785
  0
VERTEX
  8
0
 10
10.55591202
 20
0.47478154
  0
VERTEX
  8
0
 10
10.55116081
 20
0.48059314
  0
VERTEX
  8
0
 10
10.54582348
 20
0.48575499
  0
VERTEX
  8
0
 10
10.53977643
 20
0.49022957
  0
VERTEX
  8
0
 10
10.53301966
 20
0.49401687
  0
VERTEX
  8
0
 10
10.52555316
 20
0.49711691
  0
VERTEX
  8
0
 10
10.51737694
 20
0.49952968
  0
VERTEX
  8
0
 10
10.50849100
 20
0.50125517
  0
VERTEX
  8
0
 10
10.48858996
 20
0.50264435
  0
VERTEX
  8
0
 10
10.46866553
 20
0.50128251
  0
VERTEX
  8
0
 10
10.45975037
 20
0.49956924
  0
VERTEX
  8
0
 10
10.45153323
 20
0.49716772
  0
VERTEX
  8
0
 10
10.44401413
 20
0.49407797
  0
VERTEX
  8
0
 10
10.43719306
 20
0.49029999
  0
VERTEX
  8
0
 10
10.43107002
 20
0.48583376
  0
VERTEX
  8
0
 10
10.42564502
 20
0.48067930
  0
VERTEX
  8
0
 10
10.42096643
 20
0.47487418
  0
VERTEX
  8
0
 10
10.41691070
 20
0.46845610
  0
VERTEX
  8
0
 10
10.41347782
 20
0.46142506
  0
VERTEX
  8
0
 10
10.41066781
 20
0.45378105
  0
VERTEX
  8
0
 10
10.40691637
 20
0.43665415
  0
VERTEX
  8
0
 10
10.40565637
 20
0.41707540
  0
VERTEX
  8
0
 10
10.40550033
 20
0.18977147
  0
VERTEX
  8
0
 10
10.40675503
 20
0.17031995
  0
VERTEX
  8
0
 10
10.41054746
 20
0.15323086
  0
VERTEX
  8
0
 10
10.41339532
 20
0.14557222
  0
VERTEX
  8
0
 10
10.41687762
 20
0.13850419
  0
VERTEX
  8
0
 10
10.42099435
 20
0.13202677
  0
VERTEX
  8
0
 10
10.42574551
 20
0.12613995
  0
VERTEX
  8
0
 10
10.43115806
 20
0.12097805
  0
VERTEX
  8
0
 10
10.43725884
 20
0.11650343
  0
VERTEX
  8
0
 10
10.44404785
 20
0.11271610
  0
VERTEX
  8
0
 10
10.45152509
 20
0.10961606
  0
VERTEX
  8
0
 10
10.45969056
 20
0.10720330
  0
VERTEX
  8
0
 10
10.46854426
 20
0.10547782
  0
VERTEX
  8
0
 10
10.48831635
 20
0.10408874
  0
SEQEND
  0
POLYLINE
  8
Default_Layer
 62
256
 66
   1
 39
0.000000
 70
    1
  0
VERTEX
  8
0
 10
12.22838880
 20
0.05281289
  0
VERTEX
  8
0
 10
12.16855388
 20
0.05285397
  0
VERTEX
  8
0
 10
12.16885652
 20
0.49370669
  0
VERTEX
  8
0
 10
12.08732252
 20
0.44321244
  0
VERTEX
  8
0
 10
12.08736525
 20
0.50545452
  0
VERTEX
  8
0
 10
12.15858076
 20
0.55286093
  0
VERTEX
  8
0
 10
12.22873205
 20
0.55281278
  0
VERTEX
  8
0
 10
12.22838880
 20
0.05281289
  0
SEQEND
  0
POLYLINE
  8
Default_Layer
 62
256
 66
   1
 39
0.000000
 70
    1
  0
VERTEX
  8
0
 10
12.33433827
 20
0.10349564
  0
VERTEX
  8
0
 10
12.51572674
 20
0.34271093
  0
VERTEX
  8
0
 10
12.52368651
 20
0.35373109
  0
VERTEX
  8
0
 10
12.53070064
 20
0.36479488
  0
VERTEX
  8
0
 10
12.53676913
 20
0.37590230
  0
VERTEX
  8
0
 10
12.54189199
 20
0.38705336
  0
VERTEX
  8
0
 10
12.54596155
 20
0.39796873
  0
VERTEX
  8
0
 10
12.54887017
 20
0.40836907
  0
VERTEX
  8
0
 10
12.55061784
 20
0.41825439
  0
VERTEX
  8
0
 10
12.55120457
 20
0.42762470
  0
VERTEX
  8
0
 10
12.55120504
 20
0.42831245
  0
VERTEX
  8
0
 10
12.54994834
 20
0.44484100
  0
VERTEX
  8
0
 10
12.54615414
 20
0.45935100
  0
VERTEX
  8
0
 10
12.54330548
 20
0.46584905
  0
VERTEX
  8
0
 10
12.53982244
 20
0.47184246
  0
VERTEX
  8
0
 10
12.53570503
 20
0.47733123
  0
VERTEX
  8
0
 10
12.53095325
 20
0.48231536
  0
VERTEX
  8
0
 10
12.52562086
 20
0.48683244
  0
VERTEX
  8
0
 10
12.51976148
 20
0.49074808
  0
VERTEX
  8
0
 10
12.51337513
 20
0.49406230
  0
VERTEX
  8
0
 10
12.50646180
 20
0.49677510
  0
VERTEX
  8
0
 10
12.49105420
 20
0.50039640
  0
VERTEX
  8
0
 10
12.47353870
 20
0.50161201
  0
VERTEX
  8
0
 10
12.45698865
 20
0.50033382
  0
VERTEX
  8
0
 10
12.44207024
 20
0.49647542
  0
VERTEX
  8
0
 10
12.43522291
 20
0.49357864
  0
VERTEX
  8
0
 10
12.42878350
 20
0.49003681
  0
VERTEX
  8
0
 10
12.42275199
 20
0.48584993
  0
VERTEX
  8
0
 10
12.41712840
 20
0.48101799
  0
VERTEX
  8
0
 10
12.41197186
 20
0.47558931
  0
VERTEX
  8
0
 10
12.40734151
 20
0.46961222
  0
VERTEX
  8
0
 10
12.39965937
 20
0.45601278
  0
VERTEX
  8
0
 10
12.39408199
 20
0.44021967
  0
VERTEX
  8
0
 10
12.39060936
 20
0.42223288
  0
VERTEX
  8
0
 10
12.39060912
 20
0.42188900
  0
VERTEX
  8
0
 10
12.32836705
 20
0.42193173
  0
VERTEX
  8
0
 10
12.32836728
 20
0.42227561
  0
VERTEX
  8
0
 10
12.33227162
 20
0.44297015
  0
VERTEX
  8
0
 10
12.33776531
 20
0.46207315
  0
VERTEX
  8
0
 10
12.34484834
 20
0.47958463
  0
VERTEX
  8
0
 10
12.35352072
 20
0.49550457
  0
VERTEX
  8
0
 10
12.36384696
 20
0.50987593
  0
VERTEX
  8
0
 10
12.37554745
 20
0.52239799
  0
VERTEX
  8
0
 10
12.38862218
 20
0.53307075
  0
VERTEX
  8
0
 10
12.40307115
 20
0.54189423
  0
VERTEX
  8
0
 10
12.41878697
 20
0.54895445
  0
VERTEX
  8
0
 10
12.43566200
 20
0.55399359
  0
VERTEX
  8
0
 10
12.45369623
 20
0.55701164
  0
VERTEX
  8
0
 10
12.47288966
 20
0.55800861
  0
VERTEX
  8
0
 10
12.49442441
 20
0.55702667
  0
VERTEX
  8
0
 10
12.51432441
 20
0.55411153
  0
VERTEX
  8
0
 10
12.53258965
 20
0.54926319
  0
VERTEX
  8
0
 10
12.54922015
 20
0.54248166
  0
VERTEX
  8
0
 10
12.56408711
 20
0.53402492
  0
VERTEX
  8
0
 10
12.57706153
 20
0.52380711
  0
VERTEX
  8
0
 10
12.58814340
 20
0.51182821
  0
VERTEX
  8
0
 10
12.59733273
 20
0.49808823
  0
VERTEX
  8
0
 10
12.60454364
 20
0.48271619
  0
VERTEX
  8
0
 10
12.60969024
 20
0.46584109
  0
VERTEX
  8
0
 10
12.61277254
 20
0.44746294
  0
VERTEX
  8
0
 10
12.61379053
 20
0.42758173
  0
VERTEX
  8
0
 10
12.61379029
 20
0.42723785
  0
VERTEX
  8
0
 10
12.61300786
 20
0.41455785
  0
VERTEX
  8
0
 10
12.61067756
 20
0.40127712
  0
VERTEX
  8
0
 10
12.60679939
 20
0.38739567
  0
VERTEX
  8
0
 10
12.60137335
 20
0.37291349
  0
VERTEX
  8
0
 10
12.59472205
 20
0.35815275
  0
VERTEX
  8
0
 10
12.58682423
 20
0.34343585
  0
VERTEX
  8
0
 10
12.57767987
 20
0.32876279
  0
VERTEX
  8
0
 10
12.56728898
 20
0.31413357
  0
VERTEX
  8
0
 10
12.41205891
 20
0.10928823
  0
VERTEX
  8
0
 10
12.61632296
 20
0.10914801
  0
VERTEX
  8
0
 10
12.61628424
 20
0.05275187
  0
VERTEX
  8
0
 10
12.33430356
 20
0.05294545
  0
VERTEX
  8
0
 10
12.33433827
 20
0.10349564
  0
SEQEND
  0
POLYLINE
  8
Default_Layer
 62
256
 66
   1
 39
0.000000
 70
    1
  0
VERTEX
  8
0
 10
14.24026432
 20
0.05281289
  0
VERTEX
  8
0
 10
14.18042939
 20
0.05285397
  0
VERTEX
  8
0
 10
14.18073203
 20
0.49370669
  0
VERTEX
  8
0
 10
14.09919804
 20
0.44321244
  0
VERTEX
  8
0
 10
14.09924077
 20
0.50545452
  0
VERTEX
  8
0
 10
14.17045627
 20
0.55286093
  0
VERTEX
  8
0
 10
14.24060756
 20
0.55281278
  0
VERTEX
  8
0
 10
14.24026432
 20
0.05281289
  0
SEQEND
  0
POLYLINE
  8
Default_Layer
 62
256
 66
   1
 39
0.000000
 70
    1
  0
VERTEX
  8
0
 10
14.34695419
 20
0.18019279
  0
VERTEX
  8
0
 10
14.51502274
 20
0.55249841
  0
VERTEX
  8
0
 10
14.57692094
 20
0.55245591
  0
VERTEX
  8
0
 10
14.41298176
 20
0.18427401
  0
VERTEX
  8
0
 10
14.66848377
 20
0.18409861
  0
VERTEX
  8
0
 10
14.66844623
 20
0.12942187
  0
VERTEX
  8
0
 10
14.34691949
 20
0.12964259
  0
VERTEX
  8
0
 10
14.34695419
 20
0.18019279
  0
SEQEND
  0
POLYLINE
  8
Default_Layer
 62
256
 66
   1
 39
0.000000
 70
    1
  0
VERTEX
  8
0
 10
14.56783892
 20
0.34682248
  0
VERTEX
  8
0
 10
14.62595445
 20
0.34678259
  0
VERTEX
  8
0
 10
14.62575237
 20
0.05242227
  0
VERTEX
  8
0
 10
14.56763684
 20
0.05246217
  0
VERTEX
  8
0
 10
14.56783892
 20
0.34682248
  0
SEQEND
  0
POLYLINE
  8
Default_Layer
 62
256
 66
   1
 39
0.000000
 70
    1
  0
VERTEX
  8
0
 10
16.23206464
 20
0.05281289
  0
VERTEX
  8
0
 10
16.17222971
 20
0.05285397
  0
VERTEX
  8
0
 10
16.17253236
 20
0.49370669
  0
VERTEX
  8
0
 10
16.09099836
 20
0.44321244
  0
VERTEX
  8
0
 10
16.09104109
 20
0.50545452
  0
VERTEX
  8
0
 10
16.16225659
 20
0.55286093
  0
VERTEX
  8
0
 10
16.23240788
 20
0.55281278
  0
VERTEX
  8
0
 10
16.23206464
 20
0.05281289
  0
SEQEND
  0
POLYLINE
  8
Default_Layer
 62
256
 66
   1
 39
0.000000
 70
    1
  0
VERTEX
  8
0
 10
16.47449577
 20
0.04769272
  0
VERTEX
  8
0
 10
16.45328350
 20
0.04880339
  0
VERTEX
  8
0
 10
16.43366317
 20
0.05210521
  0
VERTEX
  8
0
 10
16.41563478
 20
0.05759816
  0
VERTEX
  8
0
 10
16.39919834
 20
0.06528224
  0
VERTEX
  8
0
 10
16.38448284
 20
0.07522185
  0
VERTEX
  8
0
 10
16.37161705
 20
0.08713749
  0
VERTEX
  8
0
 10
16.36060096
 20
0.10102917
  0
VERTEX
  8
0
 10
16.35143459
 20
0.11689688
  0
VERTEX
  8
0
 10
16.34437585
 20
0.13478344
  0
VERTEX
  8
0
 10
16.33933859
 20
0.15438800
  0
VERTEX
  8
0
 10
16.33632279
 20
0.17571057
  0
VERTEX
  8
0
 10
16.33532846
 20
0.19875115
  0
VERTEX
  8
0
 10
16.33532870
 20
0.19909503
  0
VERTEX
  8
0
 10
16.33574673
 20
0.21319378
  0
VERTEX
  8
0
 10
16.33698172
 20
0.22763586
  0
VERTEX
  8
0
 10
16.33903365
 20
0.24242125
  0
VERTEX
  8
0
 10
16.34190253
 20
0.25754995
  0
VERTEX
  8
0
 10
16.34991855
 20
0.28789178
  0
VERTEX
  8
0
 10
16.36085718
 20
0.31771577
  0
VERTEX
  8
0
 10
16.36533445
 20
0.32768519
  0
VERTEX
  8
0
 10
16.37015560
 20
0.33765437
  0
VERTEX
  8
0
 10
16.47896911
 20
0.55284795
  0
VERTEX
  8
0
 10
16.54430609
 20
0.55280310
  0
VERTEX
  8
0
 10
16.41655588
 20
0.30357850
  0
VERTEX
  8
0
 10
16.41690826
 20
0.31595790
  0
VERTEX
  8
0
 10
16.42209317
 20
0.32358416
  0
VERTEX
  8
0
 10
16.42835208
 20
0.33030699
  0
VERTEX
  8
0
 10
16.43568500
 20
0.33612641
  0
VERTEX
  8
0
 10
16.44409192
 20
0.34104241
  0
VERTEX
  8
0
 10
16.45352978
 20
0.34494755
  0
VERTEX
  8
0
 10
16.46361165
 20
0.34773465
  0
VERTEX
  8
0
 10
16.47433752
 20
0.34940370
  0
VERTEX
  8
0
 10
16.48570740
 20
0.34995469
  0
VERTEX
  8
0
 10
16.50526476
 20
0.34884515
  0
VERTEX
  8
0
 10
16.52335913
 20
0.34554439
  0
VERTEX
  8
0
 10
16.53999051
 20
0.34005240
  0
VERTEX
  8
0
 10
16.55515889
 20
0.33236919
  0
VERTEX
  8
0
 10
16.56886435
 20
0.32258072
  0
VERTEX
  8
0
 10
16.58076306
 20
0.31077320
  0
VERTEX
  8
0
 10
16.59085501
 20
0.29694663
  0
VERTEX
  8
0
 10
16.59914022
 20
0.28110102
  0
VERTEX
  8
0
 10
16.60574784
 20
0.26355865
  0
VERTEX
  8
0
 10
16.61046296
 20
0.24429819
  0
VERTEX
  8
0
 10
16.61328556
 20
0.22331963
  0
VERTEX
  8
0
 10
16.61421565
 20
0.20062297
  0
VERTEX
  8
0
 10
16.61421541
 20
0.20027909
  0
VERTEX
  8
0
 10
16.61316784
 20
0.17706798
  0
VERTEX
  8
0
 10
16.61005817
 20
0.15557767
  0
VERTEX
  8
0
 10
16.60488642
 20
0.13580818
  0
VERTEX
  8
0
 10
16.59765257
 20
0.11775950
  0
VERTEX
  8
0
 10
16.58859316
 20
0.10160340
  0
VERTEX
  8
0
 10
16.57760085
 20
0.08751191
  0
VERTEX
  8
0
 10
16.56467564
 20
0.07548501
  0
VERTEX
  8
0
 10
16.54981752
 20
0.06552272
  0
VERTEX
  8
0
 10
16.53337044
 20
0.05771076
  0
VERTEX
  8
0
 10
16.51533446
 20
0.05213511
  0
VERTEX
  8
0
 10
16.49570957
 20
0.04879576
  0
VERTEX
  8
0
 10
16.47449577
 20
0.04769272
  0
SEQEND
  0
POLYLINE
  8
Default_Layer
 62
256
 66
   1
 39
0.000000
 70
    1
  0
VERTEX
  8
0
 10
16.47453496
 20
0.10477661
  0
VERTEX
  8
0
 10
16.48380382
 20
0.10513562
  0
VERTEX
  8
0
 10
16.49252513
 20
0.10622575
  0
VERTEX
  8
0
 10
16.50069888
 20
0.10804699
  0
VERTEX
  8
0
 10
16.50832507
 20
0.11059936
  0
VERTEX
  8
0
 10
16.51540371
 20
0.11388284
  0
VERTEX
  8
0
 10
16.52193480
 20
0.11789744
  0
VERTEX
  8
0
 10
16.52791833
 20
0.12264317
  0
VERTEX
  8
0
 10
16.53335430
 20
0.12812001
  0
VERTEX
  8
0
 10
16.53827492
 20
0.13426884
  0
VERTEX
  8
0
 10
16.54254043
 20
0.14103066
  0
VERTEX
  8
0
 10
16.54615085
 20
0.14840546
  0
VERTEX
  8
0
 10
16.54910618
 20
0.15639324
  0
VERTEX
  8
0
 10
16.55140640
 20
0.16499401
  0
VERTEX
  8
0
 10
16.55305152
 20
0.17420777
  0
VERTEX
  8
0
 10
16.55437647
 20
0.19447423
  0
VERTEX
  8
0
 10
16.55437671
 20
0.19481811
  0
VERTEX
  8
0
 10
16.55303782
 20
0.21687027
  0
VERTEX
  8
0
 10
16.55135218
 20
0.22689765
  0
VERTEX
  8
0
 10
16.54898906
 20
0.23625923
  0
VERTEX
  8
0
 10
16.54594848
 20
0.24495501
  0
VERTEX
  8
0
 10
16.54223043
 20
0.25298499
  0
VERTEX
  8
0
 10
16.53783491
 20
0.26034917
  0
VERTEX
  8
0
 10
16.53276191
 20
0.26704754
  0
VERTEX
  8
0
 10
16.52706520
 20
0.27309620
  0
VERTEX
  8
0
 10
16.52079838
 20
0.27833929
  0
VERTEX
  8
0
 10
16.51396145
 20
0.28277680
  0
VERTEX
  8
0
 10
16.50655443
 20
0.28640873
  0
VERTEX
  8
0
 10
16.49857730
 20
0.28923509
  0
VERTEX
  8
0
 10
16.49003007
 20
0.29125587
  0
VERTEX
  8
0
 10
16.48091274
 20
0.29247108
  0
VERTEX
  8
0
 10
16.47122530
 20
0.29288072
  0
VERTEX
  8
0
 10
16.46245074
 20
0.29248376
  0
VERTEX
  8
0
 10
16.45418070
 20
0.29128048
  0
VERTEX
  8
0
 10
16.44641517
 20
0.28927090
  0
VERTEX
  8
0
 10
16.43915417
 20
0.28645500
  0
VERTEX
  8
0
 10
16.43239768
 20
0.28283279
  0
VERTEX
  8
0
 10
16.42614572
 20
0.27840427
  0
VERTEX
  8
0
 10
16.42039827
 20
0.27316943
  0
VERTEX
  8
0
 10
16.41515534
 20
0.26712828
  0
VERTEX
  8
0
 10
16.41047614
 20
0.26043122
  0
VERTEX
  8
0
 10
16.40641975
 20
0.25305673
  0
VERTEX
  8
0
 10
16.40298618
 20
0.24500479
  0
VERTEX
  8
0
 10
16.40017542
 20
0.23627542
  0
VERTEX
  8
0
 10
16.39642236
 20
0.21678435
  0
VERTEX
  8
0
 10
16.39516055
 20
0.19458353
  0
VERTEX
  8
0
 10
16.39516032
 20
0.19423965
  0
VERTEX
  8
0
 10
16.39643605
 20
0.17412185
  0
VERTEX
  8
0
 10
16.39804170
 20
0.16496497
  0
VERTEX
  8
0
 10
16.40029253
 20
0.15640943
  0
VERTEX
  8
0
 10
16.40318855
 20
0.14845524
  0
VERTEX
  8
0
 10
16.40672976
 20
0.14110240
  0
VERTEX
  8
0
 10
16.41091615
 20
0.13435090
  0
VERTEX
  8
0
 10
16.41574773
 20
0.12820074
  0
VERTEX
  8
0
 10
16.42125140
 20
0.12271639
  0
VERTEX
  8
0
 10
16.42728214
 20
0.11796242
  0
VERTEX
  8
0
 10
16.43383994
 20
0.11393883
  0
VERTEX
  8
0
 10
16.44092481
 20
0.11064563
  0
VERTEX
  8
0
 10
16.44853675
 20
0.10808280
  0
VERTEX
  8
0
 10
16.45667575
 20
0.10625036
  0
VERTEX
  8
0
 10
16.46534182
 20
0.10514829
  0
VERTEX
  8
0
 10
16.47453496
 20
0.10477661
  0
SEQEND
  0
POLYLINE
  8
Default_Layer
 62
256
 66
   1
 39
0.000000
 70
    1
  0
VERTEX
  8
0
 10
18.25806590
 20
0.05281289
  0
VERTEX
  8
0
 10
18.19823097
 20
0.05285397
  0
VERTEX
  8
0
 10
18.19853361
 20
0.49370669
  0
VERTEX
  8
0
 10
18.11699962
 20
0.44321244
  0
VERTEX
  8
0
 10
18.11704235
 20
0.50545452
  0
VERTEX
  8
0
 10
18.18825785
 20
0.55286093
  0
VERTEX
  8
0
 10
18.25840914
 20
0.55281278
  0
VERTEX
  8
0
 10
18.25806590
 20
0.05281289
  0
SEQEND
  0
POLYLINE
  8
Default_Layer
 62
256
 66
   1
 39
0.000000
 70
    1
  0
VERTEX
  8
0
 10
18.51803486
 20
0.04769260
  0
VERTEX
  8
0
 10
18.49557598
 20
0.04873966
  0
VERTEX
  8
0
 10
18.47462298
 20
0.05184895
  0
VERTEX
  8
0
 10
18.45517588
 20
0.05702049
  0
VERTEX
  8
0
 10
18.43723465
 20
0.06425426
  0
VERTEX
  8
0
 10
18.42118620
 20
0.07357151
  0
VERTEX
  8
0
 10
18.40707327
 20
0.08464980
  0
VERTEX
  8
0
 10
18.39489587
 20
0.09748915
  0
VERTEX
  8
0
 10
18.38465400
 20
0.11208954
  0
VERTEX
  8
0
 10
18.37669154
 20
0.12845076
  0
VERTEX
  8
0
 10
18.37100825
 20
0.14622891
  0
VERTEX
  8
0
 10
18.36760412
 20
0.16542399
  0
VERTEX
  8
0
 10
18.36647918
 20
0.18603601
  0
VERTEX
  8
0
 10
18.36648366
 20
0.19256971
  0
VERTEX
  8
0
 10
18.36763571
 20
0.21143928
  0
VERTEX
  8
0
 10
18.37106543
 20
0.22953356
  0
VERTEX
  8
0
 10
18.37677282
 20
0.24685255
  0
VERTEX
  8
0
 10
18.38475787
 20
0.26339625
  0
VERTEX
  8
0
 10
18.39489127
 20
0.27862743
  0
VERTEX
  8
0
 10
18.40669980
 20
0.29200912
  0
VERTEX
  8
0
 10
18.42018348
 20
0.30354130
  0
VERTEX
  8
0
 10
18.43534230
 20
0.31322398
  0
VERTEX
  8
0
 10
18.42247417
 20
0.32174382
  0
VERTEX
  8
0
 10
18.41102561
 20
0.33181014
  0
VERTEX
  8
0
 10
18.40099662
 20
0.34342295
  0
VERTEX
  8
0
 10
18.39238718
 20
0.35658223
  0
VERTEX
  8
0
 10
18.38562694
 20
0.37096531
  0
VERTEX
  8
0
 10
18.38080139
 20
0.38590587
  0
VERTEX
  8
0
 10
18.37791055
 20
0.40140391
  0
VERTEX
  8
0
 10
18.37695442
 20
0.41745941
  0
VERTEX
  8
0
 10
18.37696032
 20
0.42605639
  0
VERTEX
  8
0
 10
18.37804840
 20
0.44565674
  0
VERTEX
  8
0
 10
18.38128477
 20
0.46388011
  0
VERTEX
  8
0
 10
18.38666945
 20
0.48072649
  0
VERTEX
  8
0
 10
18.39420242
 20
0.49619587
  0
VERTEX
  8
0
 10
18.40371174
 20
0.51026689
  0
VERTEX
  8
0
 10
18.41502521
 20
0.52257429
  0
VERTEX
  8
0
 10
18.42814284
 20
0.53311808
  0
VERTEX
  8
0
 10
18.44306462
 20
0.54189824
  0
VERTEX
  8
0
 10
18.45976909
 20
0.54895779
  0
VERTEX
  8
0
 10
18.47789068
 20
0.55399607
  0
VERTEX
  8
0
 10
18.49742937
 20
0.55701309
  0
VERTEX
  8
0
 10
18.51838519
 20
0.55800885
  0
VERTEX
  8
0
 10
18.53946857
 20
0.55698423
  0
VERTEX
  8
0
 10
18.55904609
 20
0.55394036
  0
VERTEX
  8
0
 10
18.57711776
 20
0.54887723
  0
VERTEX
  8
0
 10
18.59368356
 20
0.54179484
  0
VERTEX
  8
0
 10
18.60872223
 20
0.53299411
  0
VERTEX
  8
0
 10
18.62186835
 20
0.52243230
  0
VERTEX
  8
0
 10
18.63312193
 20
0.51010940
  0
VERTEX
  8
0
 10
18.64248297
 20
0.49602543
  0
VERTEX
  8
0
 10
18.64999469
 20
0.48054572
  0
VERTEX
  8
0
 10
18.65535623
 20
0.46369196
  0
VERTEX
  8
0
 10
18.65856759
 20
0.44546417
  0
VERTEX
  8
0
 10
18.65962875
 20
0.42586234
  0
VERTEX
  8
0
 10
18.65962285
 20
0.41726536
  0
VERTEX
  8
0
 10
18.65862288
 20
0.40078135
  0
VERTEX
  8
0
 10
18.65564611
 20
0.38502943
  0
VERTEX
  8
0
 10
18.65069254
 20
0.37000962
  0
VERTEX
  8
0
 10
18.64376217
 20
0.35572191
  0
VERTEX
  8
0
 10
18.63509181
 20
0.34274642
  0
VERTEX
  8
0
 10
18.62491804
 20
0.33131943
  0
VERTEX
  8
0
 10
18.61324086
 20
0.32144092
  0
VERTEX
  8
0
 10
18.60006028
 20
0.31311091
  0
VERTEX
  8
0
 10
18.61550658
 20
0.30325676
  0
VERTEX
  8
0
 10
18.62918926
 20
0.29159847
  0
VERTEX
  8
0
 10
18.64110832
 20
0.27813602
  0
VERTEX
  8
0
 10
18.65126376
 20
0.26286942
  0
VERTEX
  8
0
 10
18.65937664
 20
0.24646511
  0
VERTEX
  8
0
 10
18.66516778
 20
0.22924570
  0
VERTEX
  8
0
 10
18.66863718
 20
0.21121116
  0
VERTEX
  8
0
 10
18.66978483
 20
0.19236150
  0
VERTEX
  8
0
 10
18.66978034
 20
0.18582780
  0
VERTEX
  8
0
 10
18.66862709
 20
0.16521734
  0
VERTEX
  8
0
 10
18.66519662
 20
0.14602695
  0
VERTEX
  8
0
 10
18.65948893
 20
0.12825662
  0
VERTEX
  8
0
 10
18.65150401
 20
0.11190635
  0
VERTEX
  8
0
 10
18.64137105
 20
0.09731994
  0
VERTEX
  8
0
 10
18.62921902
 20
0.08449730
  0
VERTEX
  8
0
 10
18.61504791
 20
0.07343842
  0
VERTEX
  8
0
 10
18.59885773
 20
0.06414331
  0
VERTEX
  8
0
 10
18.58103554
 20
0.05693408
  0
VERTEX
  8
0
 10
18.56162434
 20
0.05178922
  0
VERTEX
  8
0
 10
18.54062411
 20
0.04870873
  0
VERTEX
  8
0
 10
18.51803486
 20
0.04769260
  0
SEQEND
  0
POLYLINE
  8
Default_Layer
 62
256
 66
   1
 39
0.000000
 70
    1
  0
VERTEX
  8
0
 10
18.51807357
 20
0.10408874
  0
VERTEX
  8
0
 10
18.53170022
 20
0.10472415
  0
VERTEX
  8
0
 10
18.54438208
 20
0.10664977
  0
VERTEX
  8
0
 10
18.55611916
 20
0.10986558
  0
VERTEX
  8
0
 10
18.56691146
 20
0.11437158
  0
VERTEX
  8
0
 10
18.57662996
 20
0.12008190
  0
VERTEX
  8
0
 10
18.58514565
 20
0.12691065
  0
VERTEX
  8
0
 10
18.59245854
 20
0.13485783
  0
VERTEX
  8
0
 10
18.59856861
 20
0.14392344
  0
VERTEX
  8
0
 10
18.60338994
 20
0.15415054
  0
VERTEX
  8
0
 10
18.60683634
 20
0.16523827
  0
VERTEX
  8
0
 10
18.60890782
 20
0.17718664
  0
VERTEX
  8
0
 10
18.60960437
 20
0.18999566
  0
VERTEX
  8
0
 10
18.60960650
 20
0.19309057
  0
VERTEX
  8
0
 10
18.60892762
 20
0.20602948
  0
VERTEX
  8
0
 10
18.60687258
 20
0.21802368
  0
VERTEX
  8
0
 10
18.60344138
 20
0.22907315
  0
VERTEX
  8
0
 10
18.59863401
 20
0.23917789
  0
VERTEX
  8
0
 10
18.59253649
 20
0.24840233
  0
VERTEX
  8
0
 10
18.58523459
 20
0.25646701
  0
VERTEX
  8
0
 10
18.57672833
 20
0.26337193
  0
VERTEX
  8
0
 10
18.56701769
 20
0.26911707
  0
VERTEX
  8
0
 10
18.55623169
 20
0.27378834
  0
VERTEX
  8
0
 10
18.54449911
 20
0.27712772
  0
VERTEX
  8
0
 10
18.53181995
 20
0.27913522
  0
VERTEX
  8
0
 10
18.51819421
 20
0.27981084
  0
VERTEX
  8
0
 10
18.50456755
 20
0.27915393
  0
VERTEX
  8
0
 10
18.49188564
 20
0.27716384
  0
VERTEX
  8
0
 10
18.48014849
 20
0.27384057
  0
VERTEX
  8
0
 10
18.46935609
 20
0.26918412
  0
VERTEX
  8
0
 10
18.45978802
 20
0.26345220
  0
VERTEX
  8
0
 10
18.45137974
 20
0.25655890
  0
VERTEX
  8
0
 10
18.44413126
 20
0.24850421
  0
VERTEX
  8
0
 10
18.43804257
 20
0.23928814
  0
VERTEX
  8
0
 10
18.43322123
 20
0.22903955
  0
VERTEX
  8
0
 10
18.42977478
 20
0.21788734
  0
VERTEX
  8
0
 10
18.42770323
 20
0.20583151
  0
VERTEX
  8
0
 10
18.42700658
 20
0.19287204
  0
VERTEX
  8
0
 10
18.42700422
 20
0.18943325
  0
VERTEX
  8
0
 10
18.42768330
 20
0.17679523
  0
VERTEX
  8
0
 10
18.42973849
 20
0.16501597
  0
VERTEX
  8
0
 10
18.43316978
 20
0.15409545
  0
VERTEX
  8
0
 10
18.43797718
 20
0.14403369
  0
VERTEX
  8
0
 10
18.44405331
 20
0.13495971
  0
VERTEX
  8
0
 10
18.45129080
 20
0.12700254
  0
VERTEX
  8
0
 10
18.45968965
 20
0.12016218
  0
VERTEX
  8
0
 10
18.46924986
 20
0.11443862
  0
VERTEX
  8
0
 10
18.48003596
 20
0.10991781
  0
VERTEX
  8
0
 10
18.49176861
 20
0.10668589
  0
VERTEX
  8
0
 10
18.50444782
 20
0.10474286
  0
VERTEX
  8
0
 10
18.51807357
 20
0.10408874
  0
SEQEND
  0
POLYLINE
  8
Default_Layer
 62
256
 66
   1
 39
0.000000
 70
    1
  0
VERTEX
  8
0
 10
18.51823221
 20
0.33517534
  0
VERTEX
  8
0
 10
18.53052631
 20
0.33579018
  0
VERTEX
  8
0
 10
18.54196157
 20
0.33765217
  0
VERTEX
  8
0
 10
18.55253798
 20
0.34076131
  0
VERTEX
  8
0
 10
18.56225556
 20
0.34511761
  0
VERTEX
  8
0
 10
18.57100677
 20
0.35063516
  0
VERTEX
  8
0
 10
18.57868409
 20
0.35722807
  0
VERTEX
  8
0
 10
18.58528754
 20
0.36489633
  0
VERTEX
  8
0
 10
18.59081710
 20
0.37363996
  0
VERTEX
  8
0
 10
18.59518685
 20
0.38352348
  0
VERTEX
  8
0
 10
18.59831063
 20
0.39426756
  0
VERTEX
  8
0
 10
18.60018843
 20
0.40587219
  0
VERTEX
  8
0
 10
18.60082027
 20
0.41833737
  0
VERTEX
  8
0
 10
18.60082358
 20
0.42315167
  0
VERTEX
  8
0
 10
18.60020838
 20
0.43492995
  0
VERTEX
  8
0
 10
18.59834604
 20
0.44584939
  0
VERTEX
  8
0
 10
18.59523654
 20
0.45590999
  0
VERTEX
  8
0
 10
18.59087989
 20
0.46511174
  0
VERTEX
  8
0
 10
18.58536210
 20
0.47351907
  0
VERTEX
  8
0
 10
18.57876896
 20
0.48085252
  0
VERTEX
  8
0
 10
18.57110046
 20
0.48711209
  0
VERTEX
  8
0
 10
18.56235659
 20
0.49229777
  0
VERTEX
  8
0
 10
18.55264491
 20
0.49651695
  0
VERTEX
  8
0
 10
18.54207270
 20
0.49953315
  0
VERTEX
  8
0
 10
18.53063996
 20
0.50134636
  0
VERTEX
  8
0
 10
18.51834671
 20
0.50195659
  0
VERTEX
  8
0
 10
18.50620307
 20
0.50136314
  0
VERTEX
  8
0
 10
18.49487532
 20
0.49956555
  0
VERTEX
  8
0
 10
18.48436346
 20
0.49656383
  0
VERTEX
  8
0
 10
18.47466748
 20
0.49235796
  0
VERTEX
  8
0
 10
18.46591651
 20
0.48718429
  0
VERTEX
  8
0
 10
18.45823941
 20
0.48093526
  0
VERTEX
  8
0
 10
18.45163621
 20
0.47361088
  0
VERTEX
  8
0
 10
18.44610688
 20
0.46521113
  0
VERTEX
  8
0
 10
18.44173750
 20
0.45586492
  0
VERTEX
  8
0
 10
18.43861412
 20
0.44570114
  0
VERTEX
  8
0
 10
18.43673674
 20
0.43471979
  0
VERTEX
  8
0
 10
18.43610536
 20
0.42292087
  0
VERTEX
  8
0
 10
18.43610182
 20
0.41776269
  0
VERTEX
  8
0
 10
18.43671666
 20
0.40546859
  0
VERTEX
  8
0
 10
18.43857865
 20
0.39403334
  0
VERTEX
  8
0
 10
18.44168780
 20
0.38345692
  0
VERTEX
  8
0
 10
18.44604409
 20
0.37373935
  0
VERTEX
  8
0
 10
18.45156164
 20
0.36498814
  0
VERTEX
  8
0
 10
18.45815455
 20
0.35731081
  0
VERTEX
  8
0
 10
18.46582282
 20
0.35070737
  0
VERTEX
  8
0
 10
18.47456644
 20
0.34517781
  0
VERTEX
  8
0
 10
18.48425653
 20
0.34080819
  0
VERTEX
  8
0
 10
18.49476419
 20
0.33768457
  0
VERTEX
  8
0
 10
18.50608942
 20
0.33580696
  0
VERTEX
  8
0
 10
18.51823221
 20
0.33517534
  0
SEQEND
  0
POLYLINE
  8
Default_Layer
 62
256
 66
   1
 39
0.000000
 70
    1
  0
VERTEX
  8
0
 10
20.08409789
 20
0.10349564
  0
VERTEX
  8
0
 10
20.26548637
 20
0.34271093
  0
VERTEX
  8
0
 10
20.27344613
 20
0.35373109
  0
VERTEX
  8
0
 10
20.28046026
 20
0.36479488
  0
VERTEX
  8
0
 10
20.28652876
 20
0.37590230
  0
VERTEX
  8
0
 10
20.29165161
 20
0.38705336
  0
VERTEX
  8
0
 10
20.29572118
 20
0.39796873
  0
VERTEX
  8
0
 10
20.29862980
 20
0.40836907
  0
VERTEX
  8
0
 10
20.30037747
 20
0.41825439
  0
VERTEX
  8
0
 10
20.30096420
 20
0.42762470
  0
VERTEX
  8
0
 10
20.30096467
 20
0.42831245
  0
VERTEX
  8
0
 10
20.29970796
 20
0.44484100
  0
VERTEX
  8
0
 10
20.29591376
 20
0.45935100
  0
VERTEX
  8
0
 10
20.29306510
 20
0.46584905
  0
VERTEX
  8
0
 10
20.28958207
 20
0.47184246
  0
VERTEX
  8
0
 10
20.28546466
 20
0.47733123
  0
VERTEX
  8
0
 10
20.28071288
 20
0.48231536
  0
VERTEX
  8
0
 10
20.27538048
 20
0.48683244
  0
VERTEX
  8
0
 10
20.26952111
 20
0.49074808
  0
VERTEX
  8
0
 10
20.26313476
 20
0.49406230
  0
VERTEX
  8
0
 10
20.25622143
 20
0.49677510
  0
VERTEX
  8
0
 10
20.24081383
 20
0.50039640
  0
VERTEX
  8
0
 10
20.22329833
 20
0.50161201
  0
VERTEX
  8
0
 10
20.20674827
 20
0.50033382
  0
VERTEX
  8
0
 10
20.19182987
 20
0.49647542
  0
VERTEX
  8
0
 10
20.18498254
 20
0.49357864
  0
VERTEX
  8
0
 10
20.17854312
 20
0.49003681
  0
VERTEX
  8
0
 10
20.17251162
 20
0.48584993
  0
VERTEX
  8
0
 10
20.16688803
 20
0.48101799
  0
VERTEX
  8
0
 10
20.16173149
 20
0.47558931
  0
VERTEX
  8
0
 10
20.15710114
 20
0.46961222
  0
VERTEX
  8
0
 10
20.14941900
 20
0.45601278
  0
VERTEX
  8
0
 10
20.14384162
 20
0.44021967
  0
VERTEX
  8
0
 10
20.14036899
 20
0.42223288
  0
VERTEX
  8
0
 10
20.14036875
 20
0.42188900
  0
VERTEX
  8
0
 10
20.07812668
 20
0.42193173
  0
VERTEX
  8
0
 10
20.07812691
 20
0.42227561
  0
VERTEX
  8
0
 10
20.08203125
 20
0.44297015
  0
VERTEX
  8
0
 10
20.08752494
 20
0.46207315
  0
VERTEX
  8
0
 10
20.09460797
 20
0.47958463
  0
VERTEX
  8
0
 10
20.10328035
 20
0.49550457
  0
VERTEX
  8
0
 10
20.11360659
 20
0.50987593
  0
VERTEX
  8
0
 10
20.12530707
 20
0.52239799
  0
VERTEX
  8
0
 10
20.13838180
 20
0.53307075
  0
VERTEX
  8
0
 10
20.15283078
 20
0.54189423
  0
VERTEX
  8
0
 10
20.16854660
 20
0.54895445
  0
VERTEX
  8
0
 10
20.18542162
 20
0.55399359
  0
VERTEX
  8
0
 10
20.20345585
 20
0.55701164
  0
VERTEX
  8
0
 10
20.22264929
 20
0.55800861
  0
VERTEX
  8
0
 10
20.24418404
 20
0.55702667
  0
VERTEX
  8
0
 10
20.26408403
 20
0.55411153
  0
VERTEX
  8
0
 10
20.28234928
 20
0.54926319
  0
VERTEX
  8
0
 10
20.29897977
 20
0.54248166
  0
VERTEX
  8
0
 10
20.31384674
 20
0.53402492
  0
VERTEX
  8
0
 10
20.32682115
 20
0.52380711
  0
VERTEX
  8
0
 10
20.33790303
 20
0.51182821
  0
VERTEX
  8
0
 10
20.34709236
 20
0.49808823
  0
VERTEX
  8
0
 10
20.35430327
 20
0.48271619
  0
VERTEX
  8
0
 10
20.35944987
 20
0.46584109
  0
VERTEX
  8
0
 10
20.36253216
 20
0.44746294
  0
VERTEX
  8
0
 10
20.36355015
 20
0.42758173
  0
VERTEX
  8
0
 10
20.36354992
 20
0.42723785
  0
VERTEX
  8
0
 10
20.36276748
 20
0.41455785
  0
VERTEX
  8
0
 10
20.36043718
 20
0.40127712
  0
VERTEX
  8
0
 10
20.35655902
 20
0.38739567
  0
VERTEX
  8
0
 10
20.35113298
 20
0.37291349
  0
VERTEX
  8
0
 10
20.34448168
 20
0.35815275
  0
VERTEX
  8
0
 10
20.33658385
 20
0.34343585
  0
VERTEX
  8
0
 10
20.32743949
 20
0.32876279
  0
VERTEX
  8
0
 10
20.31704860
 20
0.31413357
  0
VERTEX
  8
0
 10
20.16181853
 20
0.10928823
  0
VERTEX
  8
0
 10
20.36608258
 20
0.10914801
  0
VERTEX
  8
0
 10
20.36604387
 20
0.05275187
  0
VERTEX
  8
0
 10
20.08406319
 20
0.05294545
  0
VERTEX
  8
0
 10
20.08409789
 20
0.10349564
  0
SEQEND
  0
POLYLINE
  8
Default_Layer
 62
256
 66
   1
 39
0.000000
 70
    1
  0
VERTEX
  8
0
 10
20.59815866
 20
0.04769260
  0
VERTEX
  8
0
 10
20.58114780
 20
0.04828995
  0
VERTEX
  8
0
 10
20.56519088
 20
0.05005791
  0
VERTEX
  8
0
 10
20.55028789
 20
0.05299648
  0
VERTEX
  8
0
 10
20.53643883
 20
0.05710567
  0
VERTEX
  8
0
 10
20.52364371
 20
0.06238548
  0
VERTEX
  8
0
 10
20.51190252
 20
0.06883590
  0
VERTEX
  8
0
 10
20.50121526
 20
0.07645693
  0
VERTEX
  8
0
 10
20.49158194
 20
0.08524858
  0
VERTEX
  8
0
 10
20.48312604
 20
0.09508718
  0
VERTEX
  8
0
 10
20.47579913
 20
0.10584917
  0
VERTEX
  8
0
 10
20.46960121
 20
0.11753457
  0
VERTEX
  8
0
 10
20.46453228
 20
0.13014336
  0
VERTEX
  8
0
 10
20.46059234
 20
0.14367556
  0
VERTEX
  8
0
 10
20.45778138
 20
0.15813115
  0
VERTEX
  8
0
 10
20.45609940
 20
0.17351015
  0
VERTEX
  8
0
 10
20.45554642
 20
0.18981254
  0
VERTEX
  8
0
 10
20.45570246
 20
0.41711648
  0
VERTEX
  8
0
 10
20.45628325
 20
0.43349332
  0
VERTEX
  8
0
 10
20.45800250
 20
0.44892371
  0
VERTEX
  8
0
 10
20.46086019
 20
0.46340765
  0
VERTEX
  8
0
 10
20.46485633
 20
0.47694515
  0
VERTEX
  8
0
 10
20.46999092
 20
0.48953619
  0
VERTEX
  8
0
 10
20.47626396
 20
0.50118079
  0
VERTEX
  8
0
 10
20.48367545
 20
0.51187894
  0
VERTEX
  8
0
 10
20.49222539
 20
0.52163063
  0
VERTEX
  8
0
 10
20.50186540
 20
0.53040905
  0
VERTEX
  8
0
 10
20.51254699
 20
0.53801541
  0
VERTEX
  8
0
 10
20.52427016
 20
0.54444973
  0
VERTEX
  8
0
 10
20.53703491
 20
0.54971198
  0
VERTEX
  8
0
 10
20.55084124
 20
0.55380219
  0
VERTEX
  8
0
 10
20.56568914
 20
0.55672034
  0
VERTEX
  8
0
 10
20.58157863
 20
0.55846644
  0
VERTEX
  8
0
 10
20.59850969
 20
0.55904049
  0
VERTEX
  8
0
 10
20.61551518
 20
0.55844852
  0
VERTEX
  8
0
 10
20.63145599
 20
0.55669668
  0
VERTEX
  8
0
 10
20.64633214
 20
0.55378499
  0
VERTEX
  8
0
 10
20.66014361
 20
0.54971344
  0
VERTEX
  8
0
 10
20.67289040
 20
0.54448203
  0
VERTEX
  8
0
 10
20.68457253
 20
0.53809075
  0
VERTEX
  8
0
 10
20.69518999
 20
0.53053962
  0
VERTEX
  8
0
 10
20.70474277
 20
0.52182862
  0
VERTEX
  8
0
 10
20.71327931
 20
0.51205982
  0
VERTEX
  8
0
 10
20.72067609
 20
0.50133539
  0
VERTEX
  8
0
 10
20.72693312
 20
0.48965532
  0
VERTEX
  8
0
 10
20.73205039
 20
0.47701963
  0
VERTEX
  8
0
 10
20.73602791
 20
0.46342830
  0
VERTEX
  8
0
 10
20.73886567
 20
0.44888135
  0
VERTEX
  8
0
 10
20.74056368
 20
0.43337876
  0
VERTEX
  8
0
 10
20.74112193
 20
0.41692054
  0
VERTEX
  8
0
 10
20.74096588
 20
0.18961661
  0
VERTEX
  8
0
 10
20.74038509
 20
0.17323439
  0
VERTEX
  8
0
 10
20.73866584
 20
0.15778788
  0
VERTEX
  8
0
 10
20.73580813
 20
0.14327707
  0
VERTEX
  8
0
 10
20.73181196
 20
0.12970197
  0
VERTEX
  8
0
 10
20.72667734
 20
0.11706257
  0
VERTEX
  8
0
 10
20.72040425
 20
0.10535887
  0
VERTEX
  8
0
 10
20.71299272
 20
0.09459087
  0
VERTEX
  8
0
 10
20.70444272
 20
0.08475857
  0
VERTEX
  8
0
 10
20.69480277
 20
0.07606075
  0
VERTEX
  8
0
 10
20.68412122
 20
0.06852424
  0
VERTEX
  8
0
 10
20.67239809
 20
0.06214903
  0
VERTEX
  8
0
 10
20.65963338
 20
0.05693513
  0
VERTEX
  8
0
 10
20.64582708
 20
0.05288254
  0
VERTEX
  8
0
 10
20.63097919
 20
0.04999125
  0
VERTEX
  8
0
 10
20.61508971
 20
0.04826127
  0
VERTEX
  8
0
 10
20.59815866
 20
0.04769260
  0
SEQEND
  0
POLYLINE
  8
Default_Layer
 62
256
 66
   1
 39
0.000000
 70
    1
  0
VERTEX
  8
0
 10
20.59819737
 20
0.10408874
  0
VERTEX
  8
0
 10
20.61810030
 20
0.10545059
  0
VERTEX
  8
0
 10
20.62698860
 20
0.10716388
  0
VERTEX
  8
0
 10
20.63516813
 20
0.10956542
  0
VERTEX
  8
0
 10
20.64263887
 20
0.11265520
  0
VERTEX
  8
0
 10
20.64940084
 20
0.11643323
  0
VERTEX
  8
0
 10
20.65545402
 20
0.12089950
  0
VERTEX
  8
0
 10
20.66079843
 20
0.12605402
  0
VERTEX
  8
0
 10
20.66555767
 20
0.13193431
  0
VERTEX
  8
0
 10
20.66968329
 20
0.13840607
  0
VERTEX
  8
0
 10
20.67317529
 20
0.14546931
  0
VERTEX
  8
0
 10
20.67603366
 20
0.15312403
  0
VERTEX
  8
0
 10
20.67984955
 20
0.17020790
  0
VERTEX
  8
0
 10
20.68113096
 20
0.18965768
  0
VERTEX
  8
0
 10
20.68128700
 20
0.41696162
  0
VERTEX
  8
0
 10
20.68003239
 20
0.43654209
  0
VERTEX
  8
0
 10
20.67845341
 20
0.44541418
  0
VERTEX
  8
0
 10
20.67623999
 20
0.45367417
  0
VERTEX
  8
0
 10
20.67339212
 20
0.46132206
  0
VERTEX
  8
0
 10
20.66990980
 20
0.46835785
  0
VERTEX
  8
0
 10
20.66579304
 20
0.47478154
  0
VERTEX
  8
0
 10
20.66104182
 20
0.48059314
  0
VERTEX
  8
0
 10
20.65570449
 20
0.48575499
  0
VERTEX
  8
0
 10
20.64965744
 20
0.49022957
  0
VERTEX
  8
0
 10
20.64290067
 20
0.49401687
  0
VERTEX
  8
0
 10
20.63543418
 20
0.49711691
  0
VERTEX
  8
0
 10
20.62725796
 20
0.49952968
  0
VERTEX
  8
0
 10
20.61837202
 20
0.50125517
  0
VERTEX
  8
0
 10
20.59847098
 20
0.50264435
  0
VERTEX
  8
0
 10
20.57854655
 20
0.50128251
  0
VERTEX
  8
0
 10
20.56963138
 20
0.49956924
  0
VERTEX
  8
0
 10
20.56141425
 20
0.49716772
  0
VERTEX
  8
0
 10
20.55389515
 20
0.49407797
  0
VERTEX
  8
0
 10
20.54707408
 20
0.49029999
  0
VERTEX
  8
0
 10
20.54095104
 20
0.48583376
  0
VERTEX
  8
0
 10
20.53552603
 20
0.48067930
  0
VERTEX
  8
0
 10
20.53084744
 20
0.47487418
  0
VERTEX
  8
0
 10
20.52679171
 20
0.46845610
  0
VERTEX
  8
0
 10
20.52335884
 20
0.46142506
  0
VERTEX
  8
0
 10
20.52054883
 20
0.45378105
  0
VERTEX
  8
0
 10
20.51679739
 20
0.43665415
  0
VERTEX
  8
0
 10
20.51553739
 20
0.41707540
  0
VERTEX
  8
0
 10
20.51538134
 20
0.18977147
  0
VERTEX
  8
0
 10
20.51663604
 20
0.17031995
  0
VERTEX
  8
0
 10
20.52042847
 20
0.15323086
  0
VERTEX
  8
0
 10
20.52327634
 20
0.14557222
  0
VERTEX
  8
0
 10
20.52675863
 20
0.13850419
  0
VERTEX
  8
0
 10
20.53087536
 20
0.13202677
  0
VERTEX
  8
0
 10
20.53562652
 20
0.12613995
  0
VERTEX
  8
0
 10
20.54103908
 20
0.12097805
  0
VERTEX
  8
0
 10
20.54713986
 20
0.11650343
  0
VERTEX
  8
0
 10
20.55392887
 20
0.11271610
  0
VERTEX
  8
0
 10
20.56140611
 20
0.10961606
  0
VERTEX
  8
0
 10
20.56957158
 20
0.10720330
  0
VERTEX
  8
0
 10
20.57842528
 20
0.10547782
  0
VERTEX
  8
0
 10
20.59819737
 20
0.10408874
  0
SEQEND
  0
POLYLINE
  8
Default_Layer
 62
256
 66
   1
 39
0.000000
 70
    1
  0
VERTEX
  8
0
 10
22.08526449
 20
0.10349564
  0
VERTEX
  8
0
 10
22.26665296
 20
0.34271093
  0
VERTEX
  8
0
 10
22.27461273
 20
0.35373109
  0
VERTEX
  8
0
 10
22.28162686
 20
0.36479488
  0
VERTEX
  8
0
 10
22.28769535
 20
0.37590230
  0
VERTEX
  8
0
 10
22.29281821
 20
0.38705336
  0
VERTEX
  8
0
 10
22.29688777
 20
0.39796873
  0
VERTEX
  8
0
 10
22.29979639
 20
0.40836907
  0
VERTEX
  8
0
 10
22.30154407
 20
0.41825439
  0
VERTEX
  8
0
 10
22.30213080
 20
0.42762470
  0
VERTEX
  8
0
 10
22.30213127
 20
0.42831245
  0
VERTEX
  8
0
 10
22.30087456
 20
0.44484100
  0
VERTEX
  8
0
 10
22.29708036
 20
0.45935100
  0
VERTEX
  8
0
 10
22.29423170
 20
0.46584905
  0
VERTEX
  8
0
 10
22.29074867
 20
0.47184246
  0
VERTEX
  8
0
 10
22.28663126
 20
0.47733123
  0
VERTEX
  8
0
 10
22.28187948
 20
0.48231536
  0
VERTEX
  8
0
 10
22.27654708
 20
0.48683244
  0
VERTEX
  8
0
 10
22.27068771
 20
0.49074808
  0
VERTEX
  8
0
 10
22.26430135
 20
0.49406230
  0
VERTEX
  8
0
 10
22.25738802
 20
0.49677510
  0
VERTEX
  8
0
 10
22.24198043
 20
0.50039640
  0
VERTEX
  8
0
 10
22.22446493
 20
0.50161201
  0
VERTEX
  8
0
 10
22.20791487
 20
0.50033382
  0
VERTEX
  8
0
 10
22.19299647
 20
0.49647542
  0
VERTEX
  8
0
 10
22.18614914
 20
0.49357864
  0
VERTEX
  8
0
 10
22.17970972
 20
0.49003681
  0
VERTEX
  8
0
 10
22.17367822
 20
0.48584993
  0
VERTEX
  8
0
 10
22.16805463
 20
0.48101799
  0
VERTEX
  8
0
 10
22.16289809
 20
0.47558931
  0
VERTEX
  8
0
 10
22.15826774
 20
0.46961222
  0
VERTEX
  8
0
 10
22.15058560
 20
0.45601278
  0
VERTEX
  8
0
 10
22.14500822
 20
0.44021967
  0
VERTEX
  8
0
 10
22.14153559
 20
0.42223288
  0
VERTEX
  8
0
 10
22.14153535
 20
0.42188900
  0
VERTEX
  8
0
 10
22.07929327
 20
0.42193173
  0
VERTEX
  8
0
 10
22.07929351
 20
0.42227561
  0
VERTEX
  8
0
 10
22.08319785
 20
0.44297015
  0
VERTEX
  8
0
 10
22.08869153
 20
0.46207315
  0
VERTEX
  8
0
 10
22.09577457
 20
0.47958463
  0
VERTEX
  8
0
 10
22.10444695
 20
0.49550457
  0
VERTEX
  8
0
 10
22.11477319
 20
0.50987593
  0
VERTEX
  8
0
 10
22.12647367
 20
0.52239799
  0
VERTEX
  8
0
 10
22.13954840
 20
0.53307075
  0
VERTEX
  8
0
 10
22.15399738
 20
0.54189423
  0
VERTEX
  8
0
 10
22.16971320
 20
0.54895445
  0
VERTEX
  8
0
 10
22.18658822
 20
0.55399359
  0
VERTEX
  8
0
 10
22.20462245
 20
0.55701164
  0
VERTEX
  8
0
 10
22.22381588
 20
0.55800861
  0
VERTEX
  8
0
 10
22.24535063
 20
0.55702667
  0
VERTEX
  8
0
 10
22.26525063
 20
0.55411153
  0
VERTEX
  8
0
 10
22.28351588
 20
0.54926319
  0
VERTEX
  8
0
 10
22.30014637
 20
0.54248166
  0
VERTEX
  8
0
 10
22.31501333
 20
0.53402492
  0
VERTEX
  8
0
 10
22.32798775
 20
0.52380711
  0
VERTEX
  8
0
 10
22.33906963
 20
0.51182821
  0
VERTEX
  8
0
 10
22.34825896
 20
0.49808823
  0
VERTEX
  8
0
 10
22.35546987
 20
0.48271619
  0
VERTEX
  8
0
 10
22.36061647
 20
0.46584109
  0
VERTEX
  8
0
 10
22.36369876
 20
0.44746294
  0
VERTEX
  8
0
 10
22.36471675
 20
0.42758173
  0
VERTEX
  8
0
 10
22.36471652
 20
0.42723785
  0
VERTEX
  8
0
 10
22.36393408
 20
0.41455785
  0
VERTEX
  8
0
 10
22.36160378
 20
0.40127712
  0
VERTEX
  8
0
 10
22.35772561
 20
0.38739567
  0
VERTEX
  8
0
 10
22.35229958
 20
0.37291349
  0
VERTEX
  8
0
 10
22.34564828
 20
0.35815275
  0
VERTEX
  8
0
 10
22.33775045
 20
0.34343585
  0
VERTEX
  8
0
 10
22.32860609
 20
0.32876279
  0
VERTEX
  8
0
 10
22.31821520
 20
0.31413357
  0
VERTEX
  8
0
 10
22.16298513
 20
0.10928823
  0
VERTEX
  8
0
 10
22.36724918
 20
0.10914801
  0
VERTEX
  8
0
 10
22.36721047
 20
0.05275187
  0
VERTEX
  8
0
 10
22.08522979
 20
0.05294545
  0
VERTEX
  8
0
 10
22.08526449
 20
0.10349564
  0
SEQEND
  0
POLYLINE
  8
Default_Layer
 62
256
 66
   1
 39
0.000000
 70
    1
  0
VERTEX
  8
0
 10
22.44908843
 20
0.10349564
  0
VERTEX
  8
0
 10
22.63047690
 20
0.34271093
  0
VERTEX
  8
0
 10
22.63843667
 20
0.35373109
  0
VERTEX
  8
0
 10
22.64545080
 20
0.36479488
  0
VERTEX
  8
0
 10
22.65151929
 20
0.37590230
  0
VERTEX
  8
0
 10
22.65664214
 20
0.38705336
  0
VERTEX
  8
0
 10
22.66071171
 20
0.39796873
  0
VERTEX
  8
0
 10
22.66362033
 20
0.40836907
  0
VERTEX
  8
0
 10
22.66536800
 20
0.41825439
  0
VERTEX
  8
0
 10
22.66595473
 20
0.42762470
  0
VERTEX
  8
0
 10
22.66595520
 20
0.42831245
  0
VERTEX
  8
0
 10
22.66469850
 20
0.44484100
  0
VERTEX
  8
0
 10
22.66090429
 20
0.45935100
  0
VERTEX
  8
0
 10
22.65805563
 20
0.46584905
  0
VERTEX
  8
0
 10
22.65457260
 20
0.47184246
  0
VERTEX
  8
0
 10
22.65045519
 20
0.47733123
  0
VERTEX
  8
0
 10
22.64570341
 20
0.48231536
  0
VERTEX
  8
0
 10
22.64037101
 20
0.48683244
  0
VERTEX
  8
0
 10
22.63451164
 20
0.49074808
  0
VERTEX
  8
0
 10
22.62812529
 20
0.49406230
  0
VERTEX
  8
0
 10
22.62121196
 20
0.49677510
  0
VERTEX
  8
0
 10
22.60580436
 20
0.50039640
  0
VERTEX
  8
0
 10
22.58828886
 20
0.50161201
  0
VERTEX
  8
0
 10
22.57173880
 20
0.50033382
  0
VERTEX
  8
0
 10
22.55682040
 20
0.49647542
  0
VERTEX
  8
0
 10
22.54997307
 20
0.49357864
  0
VERTEX
  8
0
 10
22.54353365
 20
0.49003681
  0
VERTEX
  8
0
 10
22.53750215
 20
0.48584993
  0
VERTEX
  8
0
 10
22.53187856
 20
0.48101799
  0
VERTEX
  8
0
 10
22.52672202
 20
0.47558931
  0
VERTEX
  8
0
 10
22.52209167
 20
0.46961222
  0
VERTEX
  8
0
 10
22.51440953
 20
0.45601278
  0
VERTEX
  8
0
 10
22.50883215
 20
0.44021967
  0
VERTEX
  8
0
 10
22.50535952
 20
0.42223288
  0
VERTEX
  8
0
 10
22.50535928
 20
0.42188900
  0
VERTEX
  8
0
 10
22.44311721
 20
0.42193173
  0
VERTEX
  8
0
 10
22.44311744
 20
0.42227561
  0
VERTEX
  8
0
 10
22.44702178
 20
0.44297015
  0
VERTEX
  8
0
 10
22.45251547
 20
0.46207315
  0
VERTEX
  8
0
 10
22.45959850
 20
0.47958463
  0
VERTEX
  8
0
 10
22.46827088
 20
0.49550457
  0
VERTEX
  8
0
 10
22.47859712
 20
0.50987593
  0
VERTEX
  8
0
 10
22.49029760
 20
0.52239799
  0
VERTEX
  8
0
 10
22.50337233
 20
0.53307075
  0
VERTEX
  8
0
 10
22.51782131
 20
0.54189423
  0
VERTEX
  8
0
 10
22.53353713
 20
0.54895445
  0
VERTEX
  8
0
 10
22.55041216
 20
0.55399359
  0
VERTEX
  8
0
 10
22.56844638
 20
0.55701164
  0
VERTEX
  8
0
 10
22.58763982
 20
0.55800861
  0
VERTEX
  8
0
 10
22.60917457
 20
0.55702667
  0
VERTEX
  8
0
 10
22.62907457
 20
0.55411153
  0
VERTEX
  8
0
 10
22.64733981
 20
0.54926319
  0
VERTEX
  8
0
 10
22.66397030
 20
0.54248166
  0
VERTEX
  8
0
 10
22.67883727
 20
0.53402492
  0
VERTEX
  8
0
 10
22.69181169
 20
0.52380711
  0
VERTEX
  8
0
 10
22.70289356
 20
0.51182821
  0
VERTEX
  8
0
 10
22.71208289
 20
0.49808823
  0
VERTEX
  8
0
 10
22.71929380
 20
0.48271619
  0
VERTEX
  8
0
 10
22.72444040
 20
0.46584109
  0
VERTEX
  8
0
 10
22.72752270
 20
0.44746294
  0
VERTEX
  8
0
 10
22.72854069
 20
0.42758173
  0
VERTEX
  8
0
 10
22.72854045
 20
0.42723785
  0
VERTEX
  8
0
 10
22.72775802
 20
0.41455785
  0
VERTEX
  8
0
 10
22.72542772
 20
0.40127712
  0
VERTEX
  8
0
 10
22.72154955
 20
0.38739567
  0
VERTEX
  8
0
 10
22.71612351
 20
0.37291349
  0
VERTEX
  8
0
 10
22.70947221
 20
0.35815275
  0
VERTEX
  8
0
 10
22.70157439
 20
0.34343585
  0
VERTEX
  8
0
 10
22.69243003
 20
0.32876279
  0
VERTEX
  8
0
 10
22.68203913
 20
0.31413357
  0
VERTEX
  8
0
 10
22.52680906
 20
0.10928823
  0
VERTEX
  8
0
 10
22.73107312
 20
0.10914801
  0
VERTEX
  8
0
 10
22.73103440
 20
0.05275187
  0
VERTEX
  8
0
 10
22.44905372
 20
0.05294545
  0
VERTEX
  8
0
 10
22.44908843
 20
0.10349564
  0
SEQEND
  0
POLYLINE
  8
Default_Layer
 62
256
 66
   1
 39
0.000000
 70
    1
  0
VERTEX
  8
0
 10
24.10555193
 20
0.10349564
  0
VERTEX
  8
0
 10
24.28694040
 20
0.34271093
  0
VERTEX
  8
0
 10
24.29490017
 20
0.35373109
  0
VERTEX
  8
0
 10
24.30191430
 20
0.36479488
  0
VERTEX
  8
0
 10
24.30798279
 20
0.37590230
  0
VERTEX
  8
0
 10
24.31310565
 20
0.38705336
  0
VERTEX
  8
0
 10
24.31717521
 20
0.39796873
  0
VERTEX
  8
0
 10
24.32008383
 20
0.40836907
  0
VERTEX
  8
0
 10
24.32183151
 20
0.41825439
  0
VERTEX
  8
0
 10
24.32241823
 20
0.42762470
  0
VERTEX
  8
0
 10
24.32241871
 20
0.42831245
  0
VERTEX
  8
0
 10
24.32116200
 20
0.44484100
  0
VERTEX
  8
0
 10
24.31736780
 20
0.45935100
  0
VERTEX
  8
0
 10
24.31451914
 20
0.46584905
  0
VERTEX
  8
0
 10
24.31103610
 20
0.47184246
  0
VERTEX
  8
0
 10
24.30691870
 20
0.47733123
  0
VERTEX
  8
0
 10
24.30216692
 20
0.48231536
  0
VERTEX
  8
0
 10
24.29683452
 20
0.48683244
  0
VERTEX
  8
0
 10
24.29097514
 20
0.49074808
  0
VERTEX
  8
0
 10
24.28458879
 20
0.49406230
  0
VERTEX
  8
0
 10
24.27767546
 20
0.49677510
  0
VERTEX
  8
0
 10
24.26226787
 20
0.50039640
  0
VERTEX
  8
0
 10
24.24475236
 20
0.50161201
  0
VERTEX
  8
0
 10
24.22820231
 20
0.50033382
  0
VERTEX
  8
0
 10
24.21328391
 20
0.49647542
  0
VERTEX
  8
0
 10
24.20643658
 20
0.49357864
  0
VERTEX
  8
0
 10
24.19999716
 20
0.49003681
  0
VERTEX
  8
0
 10
24.19396565
 20
0.48584993
  0
VERTEX
  8
0
 10
24.18834206
 20
0.48101799
  0
VERTEX
  8
0
 10
24.18318553
 20
0.47558931
  0
VERTEX
  8
0
 10
24.17855517
 20
0.46961222
  0
VERTEX
  8
0
 10
24.17087304
 20
0.45601278
  0
VERTEX
  8
0
 10
24.16529565
 20
0.44021967
  0
VERTEX
  8
0
 10
24.16182302
 20
0.42223288
  0
VERTEX
  8
0
 10
24.16182279
 20
0.42188900
  0
VERTEX
  8
0
 10
24.09958071
 20
0.42193173
  0
VERTEX
  8
0
 10
24.09958095
 20
0.42227561
  0
VERTEX
  8
0
 10
24.10348529
 20
0.44297015
  0
VERTEX
  8
0
 10
24.10897897
 20
0.46207315
  0
VERTEX
  8
0
 10
24.11606201
 20
0.47958463
  0
VERTEX
  8
0
 10
24.12473439
 20
0.49550457
  0
VERTEX
  8
0
 10
24.13506062
 20
0.50987593
  0
VERTEX
  8
0
 10
24.14676111
 20
0.52239799
  0
VERTEX
  8
0
 10
24.15983584
 20
0.53307075
  0
VERTEX
  8
0
 10
24.17428481
 20
0.54189423
  0
VERTEX
  8
0
 10
24.19000064
 20
0.54895445
  0
VERTEX
  8
0
 10
24.20687566
 20
0.55399359
  0
VERTEX
  8
0
 10
24.22490989
 20
0.55701164
  0
VERTEX
  8
0
 10
24.24410332
 20
0.55800861
  0
VERTEX
  8
0
 10
24.26563807
 20
0.55702667
  0
VERTEX
  8
0
 10
24.28553807
 20
0.55411153
  0
VERTEX
  8
0
 10
24.30380332
 20
0.54926319
  0
VERTEX
  8
0
 10
24.32043381
 20
0.54248166
  0
VERTEX
  8
0
 10
24.33530077
 20
0.53402492
  0
VERTEX
  8
0
 10
24.34827519
 20
0.52380711
  0
VERTEX
  8
0
 10
24.35935707
 20
0.51182821
  0
VERTEX
  8
0
 10
24.36854640
 20
0.49808823
  0
VERTEX
  8
0
 10
24.37575730
 20
0.48271619
  0
VERTEX
  8
0
 10
24.38090391
 20
0.46584109
  0
VERTEX
  8
0
 10
24.38398620
 20
0.44746294
  0
VERTEX
  8
0
 10
24.38500419
 20
0.42758173
  0
VERTEX
  8
0
 10
24.38500395
 20
0.42723785
  0
VERTEX
  8
0
 10
24.38422152
 20
0.41455785
  0
VERTEX
  8
0
 10
24.38189122
 20
0.40127712
  0
VERTEX
  8
0
 10
24.37801305
 20
0.38739567
  0
VERTEX
  8
0
 10
24.37258701
 20
0.37291349
  0
VERTEX
  8
0
 10
24.36593572
 20
0.35815275
  0
VERTEX
  8
0
 10
24.35803789
 20
0.34343585
  0
VERTEX
  8
0
 10
24.34889353
 20
0.32876279
  0
VERTEX
  8
0
 10
24.33850264
 20
0.31413357
  0
VERTEX
  8
0
 10
24.18327257
 20
0.10928823
  0
VERTEX
  8
0
 10
24.38753662
 20
0.10914801
  0
VERTEX
  8
0
 10
24.38749790
 20
0.05275187
  0
VERTEX
  8
0
 10
24.10551723
 20
0.05294545
  0
VERTEX
  8
0
 10
24.10555193
 20
0.10349564
  0
SEQEND
  0
POLYLINE
  8
Default_Layer
 62
256
 66
   1
 39
0.000000
 70
    1
  0
VERTEX
  8
0
 10
24.47011627
 20
0.18019279
  0
VERTEX
  8
0
 10
24.63818482
 20
0.55249841
  0
VERTEX
  8
0
 10
24.70008302
 20
0.55245591
  0
VERTEX
  8
0
 10
24.53614385
 20
0.18427401
  0
VERTEX
  8
0
 10
24.79164585
 20
0.18409861
  0
VERTEX
  8
0
 10
24.79160831
 20
0.12942187
  0
VERTEX
  8
0
 10
24.47008157
 20
0.12964259
  0
VERTEX
  8
0
 10
24.47011627
 20
0.18019279
  0
SEQEND
  0
POLYLINE
  8
Default_Layer
 62
256
 66
   1
 39
0.000000
 70
    1
  0
VERTEX
  8
0
 10
24.69100100
 20
0.34682248
  0
VERTEX
  8
0
 10
24.74911653
 20
0.34678259
  0
VERTEX
  8
0
 10
24.74891445
 20
0.05242227
  0
VERTEX
  8
0
 10
24.69079892
 20
0.05246217
  0
VERTEX
  8
0
 10
24.69100100
 20
0.34682248
  0
SEQEND
  0
POLYLINE
  8
Default_Layer
 62
256
 66
   1
 39
0.000000
 70
    1
  0
VERTEX
  8
0
 10
26.12090854
 20
0.10349564
  0
VERTEX
  8
0
 10
26.30229701
 20
0.34271093
  0
VERTEX
  8
0
 10
26.31025678
 20
0.35373109
  0
VERTEX
  8
0
 10
26.31727091
 20
0.36479488
  0
VERTEX
  8
0
 10
26.32333940
 20
0.37590230
  0
VERTEX
  8
0
 10
26.32846226
 20
0.38705336
  0
VERTEX
  8
0
 10
26.33253182
 20
0.39796873
  0
VERTEX
  8
0
 10
26.33544044
 20
0.40836907
  0
VERTEX
  8
0
 10
26.33718812
 20
0.41825439
  0
VERTEX
  8
0
 10
26.33777485
 20
0.42762470
  0
VERTEX
  8
0
 10
26.33777532
 20
0.42831245
  0
VERTEX
  8
0
 10
26.33651861
 20
0.44484100
  0
VERTEX
  8
0
 10
26.33272441
 20
0.45935100
  0
VERTEX
  8
0
 10
26.32987575
 20
0.46584905
  0
VERTEX
  8
0
 10
26.32639272
 20
0.47184246
  0
VERTEX
  8
0
 10
26.32227531
 20
0.47733123
  0
VERTEX
  8
0
 10
26.31752353
 20
0.48231536
  0
VERTEX
  8
0
 10
26.31219113
 20
0.48683244
  0
VERTEX
  8
0
 10
26.30633176
 20
0.49074808
  0
VERTEX
  8
0
 10
26.29994540
 20
0.49406230
  0
VERTEX
  8
0
 10
26.29303207
 20
0.49677510
  0
VERTEX
  8
0
 10
26.27762448
 20
0.50039640
  0
VERTEX
  8
0
 10
26.26010898
 20
0.50161201
  0
VERTEX
  8
0
 10
26.24355892
 20
0.50033382
  0
VERTEX
  8
0
 10
26.22864052
 20
0.49647542
  0
VERTEX
  8
0
 10
26.22179319
 20
0.49357864
  0
VERTEX
  8
0
 10
26.21535377
 20
0.49003681
  0
VERTEX
  8
0
 10
26.20932227
 20
0.48584993
  0
VERTEX
  8
0
 10
26.20369868
 20
0.48101799
  0
VERTEX
  8
0
 10
26.19854214
 20
0.47558931
  0
VERTEX
  8
0
 10
26.19391179
 20
0.46961222
  0
VERTEX
  8
0
 10
26.18622965
 20
0.45601278
  0
VERTEX
  8
0
 10
26.18065227
 20
0.44021967
  0
VERTEX
  8
0
 10
26.17717963
 20
0.42223288
  0
VERTEX
  8
0
 10
26.17717940
 20
0.42188900
  0
VERTEX
  8
0
 10
26.11493732
 20
0.42193173
  0
VERTEX
  8
0
 10
26.11493756
 20
0.42227561
  0
VERTEX
  8
0
 10
26.11884190
 20
0.44297015
  0
VERTEX
  8
0
 10
26.12433558
 20
0.46207315
  0
VERTEX
  8
0
 10
26.13141862
 20
0.47958463
  0
VERTEX
  8
0
 10
26.14009100
 20
0.49550457
  0
VERTEX
  8
0
 10
26.15041724
 20
0.50987593
  0
VERTEX
  8
0
 10
26.16211772
 20
0.52239799
  0
VERTEX
  8
0
 10
26.17519245
 20
0.53307075
  0
VERTEX
  8
0
 10
26.18964143
 20
0.54189423
  0
VERTEX
  8
0
 10
26.20535725
 20
0.54895445
  0
VERTEX
  8
0
 10
26.22223227
 20
0.55399359
  0
VERTEX
  8
0
 10
26.24026650
 20
0.55701164
  0
VERTEX
  8
0
 10
26.25945993
 20
0.55800861
  0
VERTEX
  8
0
 10
26.28099468
 20
0.55702667
  0
VERTEX
  8
0
 10
26.30089468
 20
0.55411153
  0
VERTEX
  8
0
 10
26.31915993
 20
0.54926319
  0
VERTEX
  8
0
 10
26.33579042
 20
0.54248166
  0
VERTEX
  8
0
 10
26.35065738
 20
0.53402492
  0
VERTEX
  8
0
 10
26.36363180
 20
0.52380711
  0
VERTEX
  8
0
 10
26.37471368
 20
0.51182821
  0
VERTEX
  8
0
 10
26.38390301
 20
0.49808823
  0
VERTEX
  8
0
 10
26.39111392
 20
0.48271619
  0
VERTEX
  8
0
 10
26.39626052
 20
0.46584109
  0
VERTEX
  8
0
 10
26.39934281
 20
0.44746294
  0
VERTEX
  8
0
 10
26.40036080
 20
0.42758173
  0
VERTEX
  8
0
 10
26.40036056
 20
0.42723785
  0
VERTEX
  8
0
 10
26.39957813
 20
0.41455785
  0
VERTEX
  8
0
 10
26.39724783
 20
0.40127712
  0
VERTEX
  8
0
 10
26.39336966
 20
0.38739567
  0
VERTEX
  8
0
 10
26.38794363
 20
0.37291349
  0
VERTEX
  8
0
 10
26.38129233
 20
0.35815275
  0
VERTEX
  8
0
 10
26.37339450
 20
0.34343585
  0
VERTEX
  8
0
 10
26.36425014
 20
0.32876279
  0
VERTEX
  8
0
 10
26.35385925
 20
0.31413357
  0
VERTEX
  8
0
 10
26.19862918
 20
0.10928823
  0
VERTEX
  8
0
 10
26.40289323
 20
0.10914801
  0
VERTEX
  8
0
 10
26.40285452
 20
0.05275187
  0
VERTEX
  8
0
 10
26.12087384
 20
0.05294545
  0
VERTEX
  8
0
 10
26.12090854
 20
0.10349564
  0
SEQEND
  0
POLYLINE
  8
Default_Layer
 62
256
 66
   1
 39
0.000000
 70
    1
  0
VERTEX
  8
0
 10
26.62121414
 20
0.04769272
  0
VERTEX
  8
0
 10
26.60000187
 20
0.04880339
  0
VERTEX
  8
0
 10
26.58038154
 20
0.05210521
  0
VERTEX
  8
0
 10
26.56235315
 20
0.05759816
  0
VERTEX
  8
0
 10
26.54591671
 20
0.06528224
  0
VERTEX
  8
0
 10
26.53120121
 20
0.07522185
  0
VERTEX
  8
0
 10
26.51833542
 20
0.08713749
  0
VERTEX
  8
0
 10
26.50731934
 20
0.10102917
  0
VERTEX
  8
0
 10
26.49815296
 20
0.11689688
  0
VERTEX
  8
0
 10
26.49109422
 20
0.13478344
  0
VERTEX
  8
0
 10
26.48605696
 20
0.15438800
  0
VERTEX
  8
0
 10
26.48304116
 20
0.17571057
  0
VERTEX
  8
0
 10
26.48204684
 20
0.19875115
  0
VERTEX
  8
0
 10
26.48204707
 20
0.19909503
  0
VERTEX
  8
0
 10
26.48246511
 20
0.21319378
  0
VERTEX
  8
0
 10
26.48370009
 20
0.22763586
  0
VERTEX
  8
0
 10
26.48575202
 20
0.24242125
  0
VERTEX
  8
0
 10
26.48862090
 20
0.25754995
  0
VERTEX
  8
0
 10
26.49663692
 20
0.28789178
  0
VERTEX
  8
0
 10
26.50757555
 20
0.31771577
  0
VERTEX
  8
0
 10
26.51205282
 20
0.32768519
  0
VERTEX
  8
0
 10
26.51687397
 20
0.33765437
  0
VERTEX
  8
0
 10
26.62568748
 20
0.55284795
  0
VERTEX
  8
0
 10
26.69102446
 20
0.55280310
  0
VERTEX
  8
0
 10
26.56327425
 20
0.30357850
  0
VERTEX
  8
0
 10
26.56362663
 20
0.31595790
  0
VERTEX
  8
0
 10
26.56881154
 20
0.32358416
  0
VERTEX
  8
0
 10
26.57507046
 20
0.33030699
  0
VERTEX
  8
0
 10
26.58240337
 20
0.33612641
  0
VERTEX
  8
0
 10
26.59081029
 20
0.34104241
  0
VERTEX
  8
0
 10
26.60024815
 20
0.34494755
  0
VERTEX
  8
0
 10
26.61033002
 20
0.34773465
  0
VERTEX
  8
0
 10
26.62105590
 20
0.34940370
  0
VERTEX
  8
0
 10
26.63242577
 20
0.34995469
  0
VERTEX
  8
0
 10
26.65198313
 20
0.34884515
  0
VERTEX
  8
0
 10
26.67007750
 20
0.34554439
  0
VERTEX
  8
0
 10
26.68670888
 20
0.34005240
  0
VERTEX
  8
0
 10
26.70187727
 20
0.33236919
  0
VERTEX
  8
0
 10
26.71558272
 20
0.32258072
  0
VERTEX
  8
0
 10
26.72748143
 20
0.31077320
  0
VERTEX
  8
0
 10
26.73757338
 20
0.29694663
  0
VERTEX
  8
0
 10
26.74585859
 20
0.28110102
  0
VERTEX
  8
0
 10
26.75246622
 20
0.26355865
  0
VERTEX
  8
0
 10
26.75718133
 20
0.24429819
  0
VERTEX
  8
0
 10
26.76000393
 20
0.22331963
  0
VERTEX
  8
0
 10
26.76093402
 20
0.20062297
  0
VERTEX
  8
0
 10
26.76093378
 20
0.20027909
  0
VERTEX
  8
0
 10
26.75988621
 20
0.17706798
  0
VERTEX
  8
0
 10
26.75677655
 20
0.15557767
  0
VERTEX
  8
0
 10
26.75160479
 20
0.13580818
  0
VERTEX
  8
0
 10
26.74437094
 20
0.11775950
  0
VERTEX
  8
0
 10
26.73531153
 20
0.10160340
  0
VERTEX
  8
0
 10
26.72431922
 20
0.08751191
  0
VERTEX
  8
0
 10
26.71139401
 20
0.07548501
  0
VERTEX
  8
0
 10
26.69653589
 20
0.06552272
  0
VERTEX
  8
0
 10
26.68008881
 20
0.05771076
  0
VERTEX
  8
0
 10
26.66205283
 20
0.05213511
  0
VERTEX
  8
0
 10
26.64242794
 20
0.04879576
  0
VERTEX
  8
0
 10
26.62121414
 20
0.04769272
  0
SEQEND
  0
POLYLINE
  8
Default_Layer
 62
256
 66
   1
 39
0.000000
 70
    1
  0
VERTEX
  8
0
 10
26.62125333
 20
0.10477661
  0
VERTEX
  8
0
 10
26.63052219
 20
0.10513562
  0
VERTEX
  8
0
 10
26.63924350
 20
0.10622575
  0
VERTEX
  8
0
 10
26.64741725
 20
0.10804699
  0
VERTEX
  8
0
 10
26.65504344
 20
0.11059936
  0
VERTEX
  8
0
 10
26.66212208
 20
0.11388284
  0
VERTEX
  8
0
 10
26.66865317
 20
0.11789744
  0
VERTEX
  8
0
 10
26.67463670
 20
0.12264317
  0
VERTEX
  8
0
 10
26.68007267
 20
0.12812001
  0
VERTEX
  8
0
 10
26.68499329
 20
0.13426884
  0
VERTEX
  8
0
 10
26.68925881
 20
0.14103066
  0
VERTEX
  8
0
 10
26.69286923
 20
0.14840546
  0
VERTEX
  8
0
 10
26.69582455
 20
0.15639324
  0
VERTEX
  8
0
 10
26.69812477
 20
0.16499401
  0
VERTEX
  8
0
 10
26.69976989
 20
0.17420777
  0
VERTEX
  8
0
 10
26.70109485
 20
0.19447423
  0
VERTEX
  8
0
 10
26.70109508
 20
0.19481811
  0
VERTEX
  8
0
 10
26.69975620
 20
0.21687027
  0
VERTEX
  8
0
 10
26.69807055
 20
0.22689765
  0
VERTEX
  8
0
 10
26.69570744
 20
0.23625923
  0
VERTEX
  8
0
 10
26.69266685
 20
0.24495501
  0
VERTEX
  8
0
 10
26.68894880
 20
0.25298499
  0
VERTEX
  8
0
 10
26.68455328
 20
0.26034917
  0
VERTEX
  8
0
 10
26.67948029
 20
0.26704754
  0
VERTEX
  8
0
 10
26.67378357
 20
0.27309620
  0
VERTEX
  8
0
 10
26.66751675
 20
0.27833929
  0
VERTEX
  8
0
 10
26.66067983
 20
0.28277680
  0
VERTEX
  8
0
 10
26.65327280
 20
0.28640873
  0
VERTEX
  8
0
 10
26.64529567
 20
0.28923509
  0
VERTEX
  8
0
 10
26.63674844
 20
0.29125587
  0
VERTEX
  8
0
 10
26.62763111
 20
0.29247108
  0
VERTEX
  8
0
 10
26.61794367
 20
0.29288072
  0
VERTEX
  8
0
 10
26.60916911
 20
0.29248376
  0
VERTEX
  8
0
 10
26.60089907
 20
0.29128048
  0
VERTEX
  8
0
 10
26.59313355
 20
0.28927090
  0
VERTEX
  8
0
 10
26.58587254
 20
0.28645500
  0
VERTEX
  8
0
 10
26.57911606
 20
0.28283279
  0
VERTEX
  8
0
 10
26.57286409
 20
0.27840427
  0
VERTEX
  8
0
 10
26.56711664
 20
0.27316943
  0
VERTEX
  8
0
 10
26.56187371
 20
0.26712828
  0
VERTEX
  8
0
 10
26.55719451
 20
0.26043122
  0
VERTEX
  8
0
 10
26.55313812
 20
0.25305673
  0
VERTEX
  8
0
 10
26.54970455
 20
0.24500479
  0
VERTEX
  8
0
 10
26.54689379
 20
0.23627542
  0
VERTEX
  8
0
 10
26.54314073
 20
0.21678435
  0
VERTEX
  8
0
 10
26.54187893
 20
0.19458353
  0
VERTEX
  8
0
 10
26.54187869
 20
0.19423965
  0
VERTEX
  8
0
 10
26.54315443
 20
0.17412185
  0
VERTEX
  8
0
 10
26.54476007
 20
0.16496497
  0
VERTEX
  8
0
 10
26.54701091
 20
0.15640943
  0
VERTEX
  8
0
 10
26.54990693
 20
0.14845524
  0
VERTEX
  8
0
 10
26.55344813
 20
0.14110240
  0
VERTEX
  8
0
 10
26.55763452
 20
0.13435090
  0
VERTEX
  8
0
 10
26.56246610
 20
0.12820074
  0
VERTEX
  8
0
 10
26.56796977
 20
0.12271639
  0
VERTEX
  8
0
 10
26.57400051
 20
0.11796242
  0
VERTEX
  8
0
 10
26.58055831
 20
0.11393883
  0
VERTEX
  8
0
 10
26.58764319
 20
0.11064563
  0
VERTEX
  8
0
 10
26.59525512
 20
0.10808280
  0
VERTEX
  8
0
 10
26.60339413
 20
0.10625036
  0
VERTEX
  8
0
 10
26.61206020
 20
0.10514829
  0
VERTEX
  8
0
 10
26.62125333
 20
0.10477661
  0
SEQEND
  0
POLYLINE
  8
Default_Layer
 62
256
 66
   1
 39
0.000000
 70
    1
  0
VERTEX
  8
0
 10
28.09569596
 20
0.10349564
  0
VERTEX
  8
0
 10
28.27708443
 20
0.34271093
  0
VERTEX
  8
0
 10
28.28504420
 20
0.35373109
  0
VERTEX
  8
0
 10
28.29205833
 20
0.36479488
  0
VERTEX
  8
0
 10
28.29812682
 20
0.37590230
  0
VERTEX
  8
0
 10
28.30324968
 20
0.38705336
  0
VERTEX
  8
0
 10
28.30731924
 20
0.39796873
  0
VERTEX
  8
0
 10
28.31022786
 20
0.40836907
  0
VERTEX
  8
0
 10
28.31197554
 20
0.41825439
  0
VERTEX
  8
0
 10
28.31256226
 20
0.42762470
  0
VERTEX
  8
0
 10
28.31256274
 20
0.42831245
  0
VERTEX
  8
0
 10
28.31130603
 20
0.44484100
  0
VERTEX
  8
0
 10
28.30751183
 20
0.45935100
  0
VERTEX
  8
0
 10
28.30466317
 20
0.46584905
  0
VERTEX
  8
0
 10
28.30118013
 20
0.47184246
  0
VERTEX
  8
0
 10
28.29706273
 20
0.47733123
  0
VERTEX
  8
0
 10
28.29231095
 20
0.48231536
  0
VERTEX
  8
0
 10
28.28697855
 20
0.48683244
  0
VERTEX
  8
0
 10
28.28111917
 20
0.49074808
  0
VERTEX
  8
0
 10
28.27473282
 20
0.49406230
  0
VERTEX
  8
0
 10
28.26781949
 20
0.49677510
  0
VERTEX
  8
0
 10
28.25241190
 20
0.50039640
  0
VERTEX
  8
0
 10
28.23489639
 20
0.50161201
  0
VERTEX
  8
0
 10
28.21834634
 20
0.50033382
  0
VERTEX
  8
0
 10
28.20342794
 20
0.49647542
  0
VERTEX
  8
0
 10
28.19658061
 20
0.49357864
  0
VERTEX
  8
0
 10
28.19014119
 20
0.49003681
  0
VERTEX
  8
0
 10
28.18410969
 20
0.48584993
  0
VERTEX
  8
0
 10
28.17848610
 20
0.48101799
  0
VERTEX
  8
0
 10
28.17332956
 20
0.47558931
  0
VERTEX
  8
0
 10
28.16869921
 20
0.46961222
  0
VERTEX
  8
0
 10
28.16101707
 20
0.45601278
  0
VERTEX
  8
0
 10
28.15543968
 20
0.44021967
  0
VERTEX
  8
0
 10
28.15196705
 20
0.42223288
  0
VERTEX
  8
0
 10
28.15196682
 20
0.42188900
  0
VERTEX
  8
0
 10
28.08972474
 20
0.42193173
  0
VERTEX
  8
0
 10
28.08972498
 20
0.42227561
  0
VERTEX
  8
0
 10
28.09362932
 20
0.44297015
  0
VERTEX
  8
0
 10
28.09912300
 20
0.46207315
  0
VERTEX
  8
0
 10
28.10620604
 20
0.47958463
  0
VERTEX
  8
0
 10
28.11487842
 20
0.49550457
  0
VERTEX
  8
0
 10
28.12520466
 20
0.50987593
  0
VERTEX
  8
0
 10
28.13690514
 20
0.52239799
  0
VERTEX
  8
0
 10
28.14997987
 20
0.53307075
  0
VERTEX
  8
0
 10
28.16442885
 20
0.54189423
  0
VERTEX
  8
0
 10
28.18014467
 20
0.54895445
  0
VERTEX
  8
0
 10
28.19701969
 20
0.55399359
  0
VERTEX
  8
0
 10
28.21505392
 20
0.55701164
  0
VERTEX
  8
0
 10
28.23424735
 20
0.55800861
  0
VERTEX
  8
0
 10
28.25578210
 20
0.55702667
  0
VERTEX
  8
0
 10
28.27568210
 20
0.55411153
  0
VERTEX
  8
0
 10
28.29394735
 20
0.54926319
  0
VERTEX
  8
0
 10
28.31057784
 20
0.54248166
  0
VERTEX
  8
0
 10
28.32544480
 20
0.53402492
  0
VERTEX
  8
0
 10
28.33841922
 20
0.52380711
  0
VERTEX
  8
0
 10
28.34950110
 20
0.51182821
  0
VERTEX
  8
0
 10
28.35869043
 20
0.49808823
  0
VERTEX
  8
0
 10
28.36590134
 20
0.48271619
  0
VERTEX
  8
0
 10
28.37104794
 20
0.46584109
  0
VERTEX
  8
0
 10
28.37413023
 20
0.44746294
  0
VERTEX
  8
0
 10
28.37514822
 20
0.42758173
  0
VERTEX
  8
0
 10
28.37514798
 20
0.42723785
  0
VERTEX
  8
0
 10
28.37436555
 20
0.41455785
  0
VERTEX
  8
0
 10
28.37203525
 20
0.40127712
  0
VERTEX
  8
0
 10
28.36815708
 20
0.38739567
  0
VERTEX
  8
0
 10
28.36273105
 20
0.37291349
  0
VERTEX
  8
0
 10
28.35607975
 20
0.35815275
  0
VERTEX
  8
0
 10
28.34818192
 20
0.34343585
  0
VERTEX
  8
0
 10
28.33903756
 20
0.32876279
  0
VERTEX
  8
0
 10
28.32864667
 20
0.31413357
  0
VERTEX
  8
0
 10
28.17341660
 20
0.10928823
  0
VERTEX
  8
0
 10
28.37768065
 20
0.10914801
  0
VERTEX
  8
0
 10
28.37764193
 20
0.05275187
  0
VERTEX
  8
0
 10
28.09566126
 20
0.05294545
  0
VERTEX
  8
0
 10
28.09569596
 20
0.10349564
  0
SEQEND
  0
POLYLINE
  8
Default_Layer
 62
256
 66
   1
 39
0.000000
 70
    1
  0
VERTEX
  8
0
 10
28.61353939
 20
0.04769260
  0
VERTEX
  8
0
 10
28.59108051
 20
0.04873966
  0
VERTEX
  8
0
 10
28.57012752
 20
0.05184895
  0
VERTEX
  8
0
 10
28.55068041
 20
0.05702049
  0
VERTEX
  8
0
 10
28.53273919
 20
0.06425426
  0
VERTEX
  8
0
 10
28.51669073
 20
0.07357151
  0
VERTEX
  8
0
 10
28.50257780
 20
0.08464980
  0
VERTEX
  8
0
 10
28.49040040
 20
0.09748915
  0
VERTEX
  8
0
 10
28.48015853
 20
0.11208954
  0
VERTEX
  8
0
 10
28.47219607
 20
0.12845076
  0
VERTEX
  8
0
 10
28.46651278
 20
0.14622891
  0
VERTEX
  8
0
 10
28.46310866
 20
0.16542399
  0
VERTEX
  8
0
 10
28.46198371
 20
0.18603601
  0
VERTEX
  8
0
 10
28.46198819
 20
0.19256971
  0
VERTEX
  8
0
 10
28.46314025
 20
0.21143928
  0
VERTEX
  8
0
 10
28.46656997
 20
0.22953356
  0
VERTEX
  8
0
 10
28.47227735
 20
0.24685255
  0
VERTEX
  8
0
 10
28.48026240
 20
0.26339625
  0
VERTEX
  8
0
 10
28.49039580
 20
0.27862743
  0
VERTEX
  8
0
 10
28.50220433
 20
0.29200912
  0
VERTEX
  8
0
 10
28.51568801
 20
0.30354130
  0
VERTEX
  8
0
 10
28.53084683
 20
0.31322398
  0
VERTEX
  8
0
 10
28.51797871
 20
0.32174382
  0
VERTEX
  8
0
 10
28.50653015
 20
0.33181014
  0
VERTEX
  8
0
 10
28.49650115
 20
0.34342295
  0
VERTEX
  8
0
 10
28.48789171
 20
0.35658223
  0
VERTEX
  8
0
 10
28.48113147
 20
0.37096531
  0
VERTEX
  8
0
 10
28.47630593
 20
0.38590587
  0
VERTEX
  8
0
 10
28.47341509
 20
0.40140391
  0
VERTEX
  8
0
 10
28.47245895
 20
0.41745941
  0
VERTEX
  8
0
 10
28.47246485
 20
0.42605639
  0
VERTEX
  8
0
 10
28.47355293
 20
0.44565674
  0
VERTEX
  8
0
 10
28.47678930
 20
0.46388011
  0
VERTEX
  8
0
 10
28.48217398
 20
0.48072649
  0
VERTEX
  8
0
 10
28.48970695
 20
0.49619587
  0
VERTEX
  8
0
 10
28.49921627
 20
0.51026689
  0
VERTEX
  8
0
 10
28.51052974
 20
0.52257429
  0
VERTEX
  8
0
 10
28.52364737
 20
0.53311808
  0
VERTEX
  8
0
 10
28.53856915
 20
0.54189824
  0
VERTEX
  8
0
 10
28.55527362
 20
0.54895779
  0
VERTEX
  8
0
 10
28.57339521
 20
0.55399607
  0
VERTEX
  8
0
 10
28.59293391
 20
0.55701309
  0
VERTEX
  8
0
 10
28.61388972
 20
0.55800885
  0
VERTEX
  8
0
 10
28.63497310
 20
0.55698423
  0
VERTEX
  8
0
 10
28.65455062
 20
0.55394036
  0
VERTEX
  8
0
 10
28.67262229
 20
0.54887723
  0
VERTEX
  8
0
 10
28.68918810
 20
0.54179484
  0
VERTEX
  8
0
 10
28.70422676
 20
0.53299411
  0
VERTEX
  8
0
 10
28.71737288
 20
0.52243230
  0
VERTEX
  8
0
 10
28.72862646
 20
0.51010940
  0
VERTEX
  8
0
 10
28.73798750
 20
0.49602543
  0
VERTEX
  8
0
 10
28.74549923
 20
0.48054572
  0
VERTEX
  8
0
 10
28.75086077
 20
0.46369196
  0
VERTEX
  8
0
 10
28.75407212
 20
0.44546417
  0
VERTEX
  8
0
 10
28.75513328
 20
0.42586234
  0
VERTEX
  8
0
 10
28.75512738
 20
0.41726536
  0
VERTEX
  8
0
 10
28.75412741
 20
0.40078135
  0
VERTEX
  8
0
 10
28.75115064
 20
0.38502943
  0
VERTEX
  8
0
 10
28.74619707
 20
0.37000962
  0
VERTEX
  8
0
 10
28.73926670
 20
0.35572191
  0
VERTEX
  8
0
 10
28.73059634
 20
0.34274642
  0
VERTEX
  8
0
 10
28.72042257
 20
0.33131943
  0
VERTEX
  8
0
 10
28.70874539
 20
0.32144092
  0
VERTEX
  8
0
 10
28.69556481
 20
0.31311091
  0
VERTEX
  8
0
 10
28.71101111
 20
0.30325676
  0
VERTEX
  8
0
 10
28.72469379
 20
0.29159847
  0
VERTEX
  8
0
 10
28.73661285
 20
0.27813602
  0
VERTEX
  8
0
 10
28.74676829
 20
0.26286942
  0
VERTEX
  8
0
 10
28.75488117
 20
0.24646511
  0
VERTEX
  8
0
 10
28.76067231
 20
0.22924570
  0
VERTEX
  8
0
 10
28.76414171
 20
0.21121116
  0
VERTEX
  8
0
 10
28.76528936
 20
0.19236150
  0
VERTEX
  8
0
 10
28.76528487
 20
0.18582780
  0
VERTEX
  8
0
 10
28.76413163
 20
0.16521734
  0
VERTEX
  8
0
 10
28.76070115
 20
0.14602695
  0
VERTEX
  8
0
 10
28.75499346
 20
0.12825662
  0
VERTEX
  8
0
 10
28.74700854
 20
0.11190635
  0
VERTEX
  8
0
 10
28.73687559
 20
0.09731994
  0
VERTEX
  8
0
 10
28.72472355
 20
0.08449730
  0
VERTEX
  8
0
 10
28.71055245
 20
0.07343842
  0
VERTEX
  8
0
 10
28.69436226
 20
0.06414331
  0
VERTEX
  8
0
 10
28.67654008
 20
0.05693408
  0
VERTEX
  8
0
 10
28.65712887
 20
0.05178922
  0
VERTEX
  8
0
 10
28.63612864
 20
0.04870873
  0
VERTEX
  8
0
 10
28.61353939
 20
0.04769260
  0
SEQEND
  0
POLYLINE
  8
Default_Layer
 62
256
 66
   1
 39
0.000000
 70
    1
  0
VERTEX
  8
0
 10
28.61357811
 20
0.10408874
  0
VERTEX
  8
0
 10
28.62720475
 20
0.10472415
  0
VERTEX
  8
0
 10
28.63988661
 20
0.10664977
  0
VERTEX
  8
0
 10
28.65162369
 20
0.10986558
  0
VERTEX
  8
0
 10
28.66241599
 20
0.11437158
  0
VERTEX
  8
0
 10
28.67213449
 20
0.12008190
  0
VERTEX
  8
0
 10
28.68065018
 20
0.12691065
  0
VERTEX
  8
0
 10
28.68796307
 20
0.13485783
  0
VERTEX
  8
0
 10
28.69407315
 20
0.14392344
  0
VERTEX
  8
0
 10
28.69889447
 20
0.15415054
  0
VERTEX
  8
0
 10
28.70234088
 20
0.16523827
  0
VERTEX
  8
0
 10
28.70441235
 20
0.17718664
  0
VERTEX
  8
0
 10
28.70510890
 20
0.18999566
  0
VERTEX
  8
0
 10
28.70511103
 20
0.19309057
  0
VERTEX
  8
0
 10
28.70443215
 20
0.20602948
  0
VERTEX
  8
0
 10
28.70237711
 20
0.21802368
  0
VERTEX
  8
0
 10
28.69894591
 20
0.22907315
  0
VERTEX
  8
0
 10
28.69413854
 20
0.23917789
  0
VERTEX
  8
0
 10
28.68804102
 20
0.24840233
  0
VERTEX
  8
0
 10
28.68073912
 20
0.25646701
  0
VERTEX
  8
0
 10
28.67223286
 20
0.26337193
  0
VERTEX
  8
0
 10
28.66252222
 20
0.26911707
  0
VERTEX
  8
0
 10
28.65173622
 20
0.27378834
  0
VERTEX
  8
0
 10
28.64000364
 20
0.27712772
  0
VERTEX
  8
0
 10
28.62732448
 20
0.27913522
  0
VERTEX
  8
0
 10
28.61369874
 20
0.27981084
  0
VERTEX
  8
0
 10
28.60007208
 20
0.27915393
  0
VERTEX
  8
0
 10
28.58739017
 20
0.27716384
  0
VERTEX
  8
0
 10
28.57565302
 20
0.27384057
  0
VERTEX
  8
0
 10
28.56486062
 20
0.26918412
  0
VERTEX
  8
0
 10
28.55529255
 20
0.26345220
  0
VERTEX
  8
0
 10
28.54688427
 20
0.25655890
  0
VERTEX
  8
0
 10
28.53963579
 20
0.24850421
  0
VERTEX
  8
0
 10
28.53354710
 20
0.23928814
  0
VERTEX
  8
0
 10
28.52872576
 20
0.22903955
  0
VERTEX
  8
0
 10
28.52527932
 20
0.21788734
  0
VERTEX
  8
0
 10
28.52320776
 20
0.20583151
  0
VERTEX
  8
0
 10
28.52251111
 20
0.19287204
  0
VERTEX
  8
0
 10
28.52250875
 20
0.18943325
  0
VERTEX
  8
0
 10
28.52318783
 20
0.17679523
  0
VERTEX
  8
0
 10
28.52524302
 20
0.16501597
  0
VERTEX
  8
0
 10
28.52867431
 20
0.15409545
  0
VERTEX
  8
0
 10
28.53348171
 20
0.14403369
  0
VERTEX
  8
0
 10
28.53955784
 20
0.13495971
  0
VERTEX
  8
0
 10
28.54679533
 20
0.12700254
  0
VERTEX
  8
0
 10
28.55519418
 20
0.12016218
  0
VERTEX
  8
0
 10
28.56475439
 20
0.11443862
  0
VERTEX
  8
0
 10
28.57554049
 20
0.10991781
  0
VERTEX
  8
0
 10
28.58727314
 20
0.10668589
  0
VERTEX
  8
0
 10
28.59995235
 20
0.10474286
  0
VERTEX
  8
0
 10
28.61357811
 20
0.10408874
  0
SEQEND
  0
POLYLINE
  8
Default_Layer
 62
256
 66
   1
 39
0.000000
 70
    1
  0
VERTEX
  8
0
 10
28.61373674
 20
0.33517534
  0
VERTEX
  8
0
 10
28.62603084
 20
0.33579018
  0
VERTEX
  8
0
 10
28.63746610
 20
0.33765217
  0
VERTEX
  8
0
 10
28.64804251
 20
0.34076131
  0
VERTEX
  8
0
 10
28.65776009
 20
0.34511761
  0
VERTEX
  8
0
 10
28.66651130
 20
0.35063516
  0
VERTEX
  8
0
 10
28.67418862
 20
0.35722807
  0
VERTEX
  8
0
 10
28.68079207
 20
0.36489633
  0
VERTEX
  8
0
 10
28.68632163
 20
0.37363996
  0
VERTEX
  8
0
 10
28.69069138
 20
0.38352348
  0
VERTEX
  8
0
 10
28.69381516
 20
0.39426756
  0
VERTEX
  8
0
 10
28.69569297
 20
0.40587219
  0
VERTEX
  8
0
 10
28.69632480
 20
0.41833737
  0
VERTEX
  8
0
 10
28.69632811
 20
0.42315167
  0
VERTEX
  8
0
 10
28.69571291
 20
0.43492995
  0
VERTEX
  8
0
 10
28.69385057
 20
0.44584939
  0
VERTEX
  8
0
 10
28.69074107
 20
0.45590999
  0
VERTEX
  8
0
 10
28.68638442
 20
0.46511174
  0
VERTEX
  8
0
 10
28.68086664
 20
0.47351907
  0
VERTEX
  8
0
 10
28.67427349
 20
0.48085252
  0
VERTEX
  8
0
 10
28.66660499
 20
0.48711209
  0
VERTEX
  8
0
 10
28.65786112
 20
0.49229777
  0
VERTEX
  8
0
 10
28.64814944
 20
0.49651695
  0
VERTEX
  8
0
 10
28.63757723
 20
0.49953315
  0
VERTEX
  8
0
 10
28.62614450
 20
0.50134636
  0
VERTEX
  8
0
 10
28.61385124
 20
0.50195659
  0
VERTEX
  8
0
 10
28.60170760
 20
0.50136314
  0
VERTEX
  8
0
 10
28.59037985
 20
0.49956555
  0
VERTEX
  8
0
 10
28.57986799
 20
0.49656383
  0
VERTEX
  8
0
 10
28.57017201
 20
0.49235796
  0
VERTEX
  8
0
 10
28.56142104
 20
0.48718429
  0
VERTEX
  8
0
 10
28.55374395
 20
0.48093526
  0
VERTEX
  8
0
 10
28.54714074
 20
0.47361088
  0
VERTEX
  8
0
 10
28.54161142
 20
0.46521113
  0
VERTEX
  8
0
 10
28.53724203
 20
0.45586492
  0
VERTEX
  8
0
 10
28.53411865
 20
0.44570114
  0
VERTEX
  8
0
 10
28.53224127
 20
0.43471979
  0
VERTEX
  8
0
 10
28.53160989
 20
0.42292087
  0
VERTEX
  8
0
 10
28.53160635
 20
0.41776269
  0
VERTEX
  8
0
 10
28.53222119
 20
0.40546859
  0
VERTEX
  8
0
 10
28.53408318
 20
0.39403334
  0
VERTEX
  8
0
 10
28.53719233
 20
0.38345692
  0
VERTEX
  8
0
 10
28.54154862
 20
0.37373935
  0
VERTEX
  8
0
 10
28.54706617
 20
0.36498814
  0
VERTEX
  8
0
 10
28.55365908
 20
0.35731081
  0
VERTEX
  8
0
 10
28.56132735
 20
0.35070737
  0
VERTEX
  8
0
 10
28.57007097
 20
0.34517781
  0
VERTEX
  8
0
 10
28.57976106
 20
0.34080819
  0
VERTEX
  8
0
 10
28.59026872
 20
0.33768457
  0
VERTEX
  8
0
 10
28.60159395
 20
0.33580696
  0
VERTEX
  8
0
 10
28.61373674
 20
0.33517534
  0
SEQEND
  0
POLYLINE
  8
Default_Layer
 62
256
 66
   1
 39
0.000000
 70
    1
  0
VERTEX
  8
0
 10
30.27470210
 20
0.04769626
  0
VERTEX
  8
0
 10
30.25434942
 20
0.04865590
  0
VERTEX
  8
0
 10
30.23524460
 20
0.05150602
  0
VERTEX
  8
0
 10
30.21738763
 20
0.05624661
  0
VERTEX
  8
0
 10
30.20077853
 20
0.06287768
  0
VERTEX
  8
0
 10
30.18556766
 20
0.07129167
  0
VERTEX
  8
0
 10
30.17190539
 20
0.08138100
  0
VERTEX
  8
0
 10
30.15979173
 20
0.09314568
  0
VERTEX
  8
0
 10
30.14922668
 20
0.10658571
  0
VERTEX
  8
0
 10
30.14048966
 20
0.12174388
  0
VERTEX
  8
0
 10
30.13351600
 20
0.13831934
  0
VERTEX
  8
0
 10
30.12830569
 20
0.15631209
  0
VERTEX
  8
0
 10
30.12485873
 20
0.17572213
  0
VERTEX
  8
0
 10
30.18572529
 20
0.17568034
  0
VERTEX
  8
0
 10
30.18795290
 20
0.16461021
  0
VERTEX
  8
0
 10
30.19121278
 20
0.15444204
  0
VERTEX
  8
0
 10
30.19550490
 20
0.14517586
  0
VERTEX
  8
0
 10
30.20082929
 20
0.13681164
  0
VERTEX
  8
0
 10
30.20709997
 20
0.12937095
  0
VERTEX
  8
0
 10
30.21423100
 20
0.12287534
  0
VERTEX
  8
0
 10
30.22222238
 20
0.11732481
  0
VERTEX
  8
0
 10
30.23107410
 20
0.11271935
  0
VERTEX
  8
0
 10
30.24089377
 20
0.10925232
  0
VERTEX
  8
0
 10
30.25144485
 20
0.10677345
  0
VERTEX
  8
0
 10
30.26272736
 20
0.10528273
  0
VERTEX
  8
0
 10
30.27474129
 20
0.10478015
  0
VERTEX
  8
0
 10
30.29354808
 20
0.10609977
  0
VERTEX
  8
0
 10
30.30209784
 20
0.10775957
  0
VERTEX
  8
0
 10
30.31007850
 20
0.11008602
  0
VERTEX
  8
0
 10
30.31749008
 20
0.11307913
  0
VERTEX
  8
0
 10
30.32433256
 20
0.11673889
  0
VERTEX
  8
0
 10
30.33060595
 20
0.12106531
  0
VERTEX
  8
0
 10
30.33631024
 20
0.12605839
  0
VERTEX
  8
0
 10
30.34147227
 20
0.13165362
  0
VERTEX
  8
0
 10
30.34594691
 20
0.13778664
  0
VERTEX
  8
0
 10
30.34973416
 20
0.14445745
  0
VERTEX
  8
0
 10
30.35283402
 20
0.15166603
  0
VERTEX
  8
0
 10
30.35524649
 20
0.15941240
  0
VERTEX
  8
0
 10
30.35697157
 20
0.16769655
  0
VERTEX
  8
0
 10
30.35835957
 20
0.18587820
  0
VERTEX
  8
0
 10
30.35836995
 20
0.20100887
  0
VERTEX
  8
0
 10
30.35707183
 20
0.21981565
  0
VERTEX
  8
0
 10
30.35543890
 20
0.22836539
  0
VERTEX
  8
0
 10
30.35315006
 20
0.23634603
  0
VERTEX
  8
0
 10
30.35020531
 20
0.24375757
  0
VERTEX
  8
0
 10
30.34660465
 20
0.25060001
  0
VERTEX
  8
0
 10
30.34234808
 20
0.25687335
  0
VERTEX
  8
0
 10
30.33743560
 20
0.26257759
  0
VERTEX
  8
0
 10
30.33192633
 20
0.26773956
  0
VERTEX
  8
0
 10
30.32587928
 20
0.27221414
  0
VERTEX
  8
0
 10
30.31929445
 20
0.27600133
  0
VERTEX
  8
0
 10
30.31217183
 20
0.27910113
  0
VERTEX
  8
0
 10
30.30451144
 20
0.28151354
  0
VERTEX
  8
0
 10
30.29631325
 20
0.28323856
  0
VERTEX
  8
0
 10
30.27830354
 20
0.28462644
  0
VERTEX
  8
0
 10
30.24288402
 20
0.28465076
  0
VERTEX
  8
0
 10
30.24292273
 20
0.34104689
  0
VERTEX
  8
0
 10
30.27834226
 20
0.34102258
  0
VERTEX
  8
0
 10
30.29454836
 20
0.34219354
  0
VERTEX
  8
0
 10
30.30877878
 20
0.34573002
  0
VERTEX
  8
0
 10
30.32103353
 20
0.35163203
  0
VERTEX
  8
0
 10
30.32642002
 20
0.35547010
  0
VERTEX
  8
0
 10
30.33131259
 20
0.35989956
  0
VERTEX
  8
0
 10
30.33574881
 20
0.36486664
  0
VERTEX
  8
0
 10
30.33959433
 20
0.37031771
  0
VERTEX
  8
0
 10
30.34551323
 20
0.38267180
  0
VERTEX
  8
0
 10
30.34906929
 20
0.39696183
  0
VERTEX
  8
0
 10
30.35026252
 20
0.41318780
  0
VERTEX
  8
0
 10
30.35027314
 20
0.42866235
  0
VERTEX
  8
0
 10
30.34903781
 20
0.44501895
  0
VERTEX
  8
0
 10
30.34530797
 20
0.45935696
  0
VERTEX
  8
0
 10
30.34250760
 20
0.46576901
  0
VERTEX
  8
0
 10
30.33908362
 20
0.47167641
  0
VERTEX
  8
0
 10
30.33503600
 20
0.47707916
  0
VERTEX
  8
0
 10
30.33036476
 20
0.48197727
  0
VERTEX
  8
0
 10
30.32520962
 20
0.48641362
  0
VERTEX
  8
0
 10
30.31953825
 20
0.49025929
  0
VERTEX
  8
0
 10
30.31335066
 20
0.49351427
  0
VERTEX
  8
0
 10
30.30664685
 20
0.49617856
  0
VERTEX
  8
0
 10
30.29169056
 20
0.49973508
  0
VERTEX
  8
0
 10
30.27466936
 20
0.50092885
  0
VERTEX
  8
0
 10
30.26476101
 20
0.50044133
  0
VERTEX
  8
0
 10
30.25532482
 20
0.49896483
  0
VERTEX
  8
0
 10
30.24636078
 20
0.49649935
  0
VERTEX
  8
0
 10
30.23786889
 20
0.49304490
  0
VERTEX
  8
0
 10
30.23008570
 20
0.48877324
  0
VERTEX
  8
0
 10
30.22290361
 20
0.48351253
  0
VERTEX
  8
0
 10
30.21632263
 20
0.47726274
  0
VERTEX
  8
0
 10
30.21034277
 20
0.47002390
  0
VERTEX
  8
0
 10
30.20505002
 20
0.46186040
  0
VERTEX
  8
0
 10
30.20053042
 20
0.45283668
  0
VERTEX
  8
0
 10
30.19678395
 20
0.44295273
  0
VERTEX
  8
0
 10
30.19381061
 20
0.43220855
  0
VERTEX
  8
0
 10
30.13328793
 20
0.43225010
  0
VERTEX
  8
0
 10
30.13749204
 20
0.45131101
  0
VERTEX
  8
0
 10
30.14319965
 20
0.46895238
  0
VERTEX
  8
0
 10
30.15041075
 20
0.48517423
  0
VERTEX
  8
0
 10
30.15912535
 20
0.49997653
  0
VERTEX
  8
0
 10
30.16938645
 20
0.51338077
  0
VERTEX
  8
0
 10
30.18089292
 20
0.52506476
  0
VERTEX
  8
0
 10
30.19364478
 20
0.53502850
  0
VERTEX
  8
0
 10
30.20764202
 20
0.54327199
  0
VERTEX
  8
0
 10
30.22292758
 20
0.54973072
  0
VERTEX
  8
0
 10
30.23920052
 20
0.55434042
  0
VERTEX
  8
0
 10
30.25646084
 20
0.55710110
  0
VERTEX
  8
0
 10
30.27470855
 20
0.55801274
  0
VERTEX
  8
0
 10
30.29041378
 20
0.55747002
  0
VERTEX
  8
0
 10
30.30520485
 20
0.55586406
  0
VERTEX
  8
0
 10
30.31908176
 20
0.55319484
  0
VERTEX
  8
0
 10
30.33204451
 20
0.54946238
  0
VERTEX
  8
0
 10
30.34409310
 20
0.54466666
  0
VERTEX
  8
0
 10
30.35522754
 20
0.53880770
  0
VERTEX
  8
0
 10
30.36544781
 20
0.53188550
  0
VERTEX
  8
0
 10
30.37475393
 20
0.52390004
  0
VERTEX
  8
0
 10
30.38304924
 20
0.51494812
  0
VERTEX
  8
0
 10
30.39023709
 20
0.50512651
  0
VERTEX
  8
0
 10
30.39631749
 20
0.49443522
  0
VERTEX
  8
0
 10
30.40129042
 20
0.48287425
  0
VERTEX
  8
0
 10
30.40515590
 20
0.47044359
  0
VERTEX
  8
0
 10
30.40791392
 20
0.45714325
  0
VERTEX
  8
0
 10
30.40956449
 20
0.44297323
  0
VERTEX
  8
0
 10
30.41010759
 20
0.42793352
  0
VERTEX
  8
0
 10
30.41009957
 20
0.41624164
  0
VERTEX
  8
0
 10
30.40892696
 20
0.39874760
  0
VERTEX
  8
0
 10
30.40543395
 20
0.38237275
  0
VERTEX
  8
0
 10
30.39962052
 20
0.36711711
  0
VERTEX
  8
0
 10
30.39148667
 20
0.35298067
  0
VERTEX
  8
0
 10
30.38137664
 20
0.34047901
  0
VERTEX
  8
0
 10
30.36929055
 20
0.32978407
  0
VERTEX
  8
0
 10
30.35522839
 20
0.32089586
  0
VERTEX
  8
0
 10
30.33919017
 20
0.31381436
  0
VERTEX
  8
0
 10
30.34837647
 20
0.31131493
  0
VERTEX
  8
0
 10
30.35702499
 20
0.30812811
  0
VERTEX
  8
0
 10
30.36513573
 20
0.30425391
  0
VERTEX
  8
0
 10
30.37270868
 20
0.29969231
  0
VERTEX
  8
0
 10
30.37974385
 20
0.29444333
  0
VERTEX
  8
0
 10
30.38624124
 20
0.28850695
  0
VERTEX
  8
0
 10
30.39220084
 20
0.28188319
  0
VERTEX
  8
0
 10
30.39762266
 20
0.27457204
  0
VERTEX
  8
0
 10
30.40245309
 20
0.26674010
  0
VERTEX
  8
0
 10
30.40663838
 20
0.25838204
  0
VERTEX
  8
0
 10
30.41017853
 20
0.24949786
  0
VERTEX
  8
0
 10
30.41307355
 20
0.24008756
  0
VERTEX
  8
0
 10
30.41692818
 20
0.21968859
  0
VERTEX
  8
0
 10
30.41820228
 20
0.19718513
  0
VERTEX
  8
0
 10
30.41819426
 20
0.18549325
  0
VERTEX
  8
0
 10
30.41712668
 20
0.16445288
  0
VERTEX
  8
0
 10
30.41395394
 20
0.14500440
  0
VERTEX
  8
0
 10
30.40867604
 20
0.12714781
  0
VERTEX
  8
0
 10
30.40129296
 20
0.11088310
  0
VERTEX
  8
0
 10
30.39189078
 20
0.09633917
  0
VERTEX
  8
0
 10
30.38055555
 20
0.08364492
  0
VERTEX
  8
0
 10
30.36728727
 20
0.07280035
  0
VERTEX
  8
0
 10
30.35208594
 20
0.06380545
  0
VERTEX
  8
0
 10
30.33525252
 20
0.05674599
  0
VERTEX
  8
0
 10
30.31674407
 20
0.05170798
  0
VERTEX
  8
0
 10
30.29656060
 20
0.04869140
  0
VERTEX
  8
0
 10
30.27470210
 20
0.04769626
  0
SEQEND
  0
POLYLINE
  8
Default_Layer
 62
256
 66
   1
 39
0.000000
 70
    1
  0
VERTEX
  8
0
 10
30.66053429
 20
0.04769260
  0
VERTEX
  8
0
 10
30.64352343
 20
0.04828995
  0
VERTEX
  8
0
 10
30.62756651
 20
0.05005791
  0
VERTEX
  8
0
 10
30.61266352
 20
0.05299648
  0
VERTEX
  8
0
 10
30.59881446
 20
0.05710567
  0
VERTEX
  8
0
 10
30.58601934
 20
0.06238548
  0
VERTEX
  8
0
 10
30.57427815
 20
0.06883590
  0
VERTEX
  8
0
 10
30.56359089
 20
0.07645693
  0
VERTEX
  8
0
 10
30.55395757
 20
0.08524858
  0
VERTEX
  8
0
 10
30.54550167
 20
0.09508718
  0
VERTEX
  8
0
 10
30.53817477
 20
0.10584917
  0
VERTEX
  8
0
 10
30.53197685
 20
0.11753457
  0
VERTEX
  8
0
 10
30.52690791
 20
0.13014336
  0
VERTEX
  8
0
 10
30.52296797
 20
0.14367556
  0
VERTEX
  8
0
 10
30.52015701
 20
0.15813115
  0
VERTEX
  8
0
 10
30.51847504
 20
0.17351015
  0
VERTEX
  8
0
 10
30.51792205
 20
0.18981254
  0
VERTEX
  8
0
 10
30.51807809
 20
0.41711648
  0
VERTEX
  8
0
 10
30.51865889
 20
0.43349332
  0
VERTEX
  8
0
 10
30.52037813
 20
0.44892371
  0
VERTEX
  8
0
 10
30.52323582
 20
0.46340765
  0
VERTEX
  8
0
 10
30.52723196
 20
0.47694515
  0
VERTEX
  8
0
 10
30.53236655
 20
0.48953619
  0
VERTEX
  8
0
 10
30.53863959
 20
0.50118079
  0
VERTEX
  8
0
 10
30.54605108
 20
0.51187894
  0
VERTEX
  8
0
 10
30.55460102
 20
0.52163063
  0
VERTEX
  8
0
 10
30.56424103
 20
0.53040905
  0
VERTEX
  8
0
 10
30.57492262
 20
0.53801541
  0
VERTEX
  8
0
 10
30.58664579
 20
0.54444973
  0
VERTEX
  8
0
 10
30.59941054
 20
0.54971198
  0
VERTEX
  8
0
 10
30.61321687
 20
0.55380219
  0
VERTEX
  8
0
 10
30.62806477
 20
0.55672034
  0
VERTEX
  8
0
 10
30.64395426
 20
0.55846644
  0
VERTEX
  8
0
 10
30.66088532
 20
0.55904049
  0
VERTEX
  8
0
 10
30.67789081
 20
0.55844852
  0
VERTEX
  8
0
 10
30.69383162
 20
0.55669668
  0
VERTEX
  8
0
 10
30.70870777
 20
0.55378499
  0
VERTEX
  8
0
 10
30.72251924
 20
0.54971344
  0
VERTEX
  8
0
 10
30.73526604
 20
0.54448203
  0
VERTEX
  8
0
 10
30.74694816
 20
0.53809075
  0
VERTEX
  8
0
 10
30.75756562
 20
0.53053962
  0
VERTEX
  8
0
 10
30.76711840
 20
0.52182862
  0
VERTEX
  8
0
 10
30.77565494
 20
0.51205982
  0
VERTEX
  8
0
 10
30.78305172
 20
0.50133539
  0
VERTEX
  8
0
 10
30.78930875
 20
0.48965532
  0
VERTEX
  8
0
 10
30.79442602
 20
0.47701963
  0
VERTEX
  8
0
 10
30.79840354
 20
0.46342830
  0
VERTEX
  8
0
 10
30.80124130
 20
0.44888135
  0
VERTEX
  8
0
 10
30.80293931
 20
0.43337876
  0
VERTEX
  8
0
 10
30.80349756
 20
0.41692054
  0
VERTEX
  8
0
 10
30.80334152
 20
0.18961661
  0
VERTEX
  8
0
 10
30.80276072
 20
0.17323439
  0
VERTEX
  8
0
 10
30.80104147
 20
0.15778788
  0
VERTEX
  8
0
 10
30.79818376
 20
0.14327707
  0
VERTEX
  8
0
 10
30.79418759
 20
0.12970197
  0
VERTEX
  8
0
 10
30.78905297
 20
0.11706257
  0
VERTEX
  8
0
 10
30.78277989
 20
0.10535887
  0
VERTEX
  8
0
 10
30.77536835
 20
0.09459087
  0
VERTEX
  8
0
 10
30.76681835
 20
0.08475857
  0
VERTEX
  8
0
 10
30.75717840
 20
0.07606075
  0
VERTEX
  8
0
 10
30.74649685
 20
0.06852424
  0
VERTEX
  8
0
 10
30.73477372
 20
0.06214903
  0
VERTEX
  8
0
 10
30.72200901
 20
0.05693513
  0
VERTEX
  8
0
 10
30.70820271
 20
0.05288254
  0
VERTEX
  8
0
 10
30.69335482
 20
0.04999125
  0
VERTEX
  8
0
 10
30.67746535
 20
0.04826127
  0
VERTEX
  8
0
 10
30.66053429
 20
0.04769260
  0
SEQEND
  0
POLYLINE
  8
Default_Layer
 62
256
 66
   1
 39
0.000000
 70
    1
  0
VERTEX
  8
0
 10
30.66057300
 20
0.10408874
  0
VERTEX
  8
0
 10
30.68047594
 20
0.10545059
  0
VERTEX
  8
0
 10
30.68936424
 20
0.10716388
  0
VERTEX
  8
0
 10
30.69754376
 20
0.10956542
  0
VERTEX
  8
0
 10
30.70501450
 20
0.11265520
  0
VERTEX
  8
0
 10
30.71177647
 20
0.11643323
  0
VERTEX
  8
0
 10
30.71782966
 20
0.12089950
  0
VERTEX
  8
0
 10
30.72317407
 20
0.12605402
  0
VERTEX
  8
0
 10
30.72793330
 20
0.13193431
  0
VERTEX
  8
0
 10
30.73205892
 20
0.13840607
  0
VERTEX
  8
0
 10
30.73555092
 20
0.14546931
  0
VERTEX
  8
0
 10
30.73840930
 20
0.15312403
  0
VERTEX
  8
0
 10
30.74222519
 20
0.17020790
  0
VERTEX
  8
0
 10
30.74350659
 20
0.18965768
  0
VERTEX
  8
0
 10
30.74366263
 20
0.41696162
  0
VERTEX
  8
0
 10
30.74240802
 20
0.43654209
  0
VERTEX
  8
0
 10
30.74082905
 20
0.44541418
  0
VERTEX
  8
0
 10
30.73861562
 20
0.45367417
  0
VERTEX
  8
0
 10
30.73576775
 20
0.46132206
  0
VERTEX
  8
0
 10
30.73228543
 20
0.46835785
  0
VERTEX
  8
0
 10
30.72816867
 20
0.47478154
  0
VERTEX
  8
0
 10
30.72341745
 20
0.48059314
  0
VERTEX
  8
0
 10
30.71808013
 20
0.48575499
  0
VERTEX
  8
0
 10
30.71203308
 20
0.49022957
  0
VERTEX
  8
0
 10
30.70527630
 20
0.49401687
  0
VERTEX
  8
0
 10
30.69780981
 20
0.49711691
  0
VERTEX
  8
0
 10
30.68963359
 20
0.49952968
  0
VERTEX
  8
0
 10
30.68074765
 20
0.50125517
  0
VERTEX
  8
0
 10
30.66084661
 20
0.50264435
  0
VERTEX
  8
0
 10
30.64092218
 20
0.50128251
  0
VERTEX
  8
0
 10
30.63200702
 20
0.49956924
  0
VERTEX
  8
0
 10
30.62378988
 20
0.49716772
  0
VERTEX
  8
0
 10
30.61627078
 20
0.49407797
  0
VERTEX
  8
0
 10
30.60944971
 20
0.49029999
  0
VERTEX
  8
0
 10
30.60332667
 20
0.48583376
  0
VERTEX
  8
0
 10
30.59790166
 20
0.48067930
  0
VERTEX
  8
0
 10
30.59322307
 20
0.47487418
  0
VERTEX
  8
0
 10
30.58916734
 20
0.46845610
  0
VERTEX
  8
0
 10
30.58573447
 20
0.46142506
  0
VERTEX
  8
0
 10
30.58292446
 20
0.45378105
  0
VERTEX
  8
0
 10
30.57917302
 20
0.43665415
  0
VERTEX
  8
0
 10
30.57791302
 20
0.41707540
  0
VERTEX
  8
0
 10
30.57775697
 20
0.18977147
  0
VERTEX
  8
0
 10
30.57901168
 20
0.17031995
  0
VERTEX
  8
0
 10
30.58280411
 20
0.15323086
  0
VERTEX
  8
0
 10
30.58565197
 20
0.14557222
  0
VERTEX
  8
0
 10
30.58913427
 20
0.13850419
  0
VERTEX
  8
0
 10
30.59325099
 20
0.13202677
  0
VERTEX
  8
0
 10
30.59800216
 20
0.12613995
  0
VERTEX
  8
0
 10
30.60341471
 20
0.12097805
  0
VERTEX
  8
0
 10
30.60951549
 20
0.11650343
  0
VERTEX
  8
0
 10
30.61630450
 20
0.11271610
  0
VERTEX
  8
0
 10
30.62378174
 20
0.10961606
  0
VERTEX
  8
0
 10
30.63194721
 20
0.10720330
  0
VERTEX
  8
0
 10
30.64080091
 20
0.10547782
  0
VERTEX
  8
0
 10
30.66057300
 20
0.10408874
  0
SEQEND
  0
ENDSEC
  0
EOF
