  0
SECTION
  2
HEADER
  9
$ACADVER
  1
AC1009
  9
$INSBASE
 10
0.0
 20
0.0
 30
0.0
  9
$EXTMIN
 10
0.0
 20
0.0
 30
0.0
  9
$EXTMAX
 10
68.0
 20
44.0
 30
0.0
  9
$LIMMIN
 10
0.0
 20
0.0
  9
$LIMMAX
 10
68.0
 20
44.0
  9
$ORTHOMODE
 70
     0
  9
$REGENMODE
 70
     1
  9
$FILLMODE
 70
     1
  9
$QTEXTMODE
 70
     0
  9
$MIRRTEXT
 70
     0
  9
$DRAGMODE
 70
     2
  9
$LTSCALE
 40
1.0
  9
$OSMODE
 70
     0
  9
$ATTMODE
 70
     1
  9
$TEXTSIZE
 40
0.2
  9
$TRACEWID
 40
0.05
  9
$TEXTSTYLE
  7
STANDARD
  9
$CLAYER
  8
0
  9
$CELTYPE
  6
BYLAYER
  9
$CECOLOR
 62
   256
  9
$DIMSCALE
 40
1.0
  9
$DIMASZ
 40
0.18
  9
$DIMEXO
 40
0.0625
  9
$DIMDLI
 40
0.38
  9
$DIMRND
 40
0.0
  9
$DIMDLE
 40
0.0
  9
$DIMEXE
 40
0.18
  9
$DIMTP
 40
0.0
  9
$DIMTM
 40
0.0
  9
$DIMTXT
 40
0.18
  9
$DIMCEN
 40
0.09
  9
$DIMTSZ
 40
0.0
  9
$DIMTOL
 70
     0
  9
$DIMLIM
 70
     0
  9
$DIMTIH
 70
     1
  9
$DIMTOH
 70
     1
  9
$DIMSE1
 70
     0
  9
$DIMSE2
 70
     0
  9
$DIMTAD
 70
     0
  9
$DIMZIN
 70
     0
  9
$DIMBLK
  1

  9
$DIMASO
 70
     1
  9
$DIMSHO
 70
     1
  9
$DIMPOST
  1

  9
$DIMAPOST
  1

  9
$DIMALT
 70
     0
  9
$DIMALTD
 70
     2
  9
$DIMALTF
 40
25.3999999999999986
  9
$DIMLFAC
 40
1.0
  9
$DIMTOFL
 70
     0
  9
$DIMTVP
 40
0.0
  9
$DIMTIX
 70
     0
  9
$DIMSOXD
 70
     0
  9
$DIMSAH
 70
     0
  9
$DIMBLK1
  1

  9
$DIMBLK2
  1

  9
$DIMSTYLE
  2
STANDARD
  9
$DIMCLRD
 70
     0
  9
$DIMCLRE
 70
     0
  9
$DIMCLRT
 70
     0
  9
$DIMTFAC
 40
1.0
  9
$DIMGAP
 40
0.09
  9
$LUNITS
 70
     2
  9
$LUPREC
 70
     4
  9
$SKETCHINC
 40
0.1
  9
$FILLETRAD
 40
0.0
  9
$AUNITS
 70
     0
  9
$AUPREC
 70
     0
  9
$MENU
  1
.
  9
$ELEVATION
 40
0.0
  9
$PELEVATION
 40
0.0
  9
$THICKNESS
 40
0.0
  9
$LIMCHECK
 70
     0
  9
$BLIPMODE
 70
     0
  9
$CHAMFERA
 40
0.0
  9
$CHAMFERB
 40
0.0
  9
$SKPOLY
 70
     0
  9
$TDCREATE
 40
2459104.5823842589743435
  9
$TDUPDATE
 40
2459104.5823842589743435
  9
$TDINDWG
 40
0.0000115741
  9
$TDUSRTIMER
 40
0.0000115741
  9
$USRTIMER
 70
     1
  9
$ANGBASE
 50
0.0
  9
$ANGDIR
 70
     0
  9
$PDMODE
 70
     0
  9
$PDSIZE
 40
0.0
  9
$PLINEWID
 40
0.0
  9
$COORDS
 70
     0
  9
$SPLFRAME
 70
     0
  9
$SPLINETYPE
 70
     6
  9
$SPLINESEGS
 70
     8
  9
$ATTDIA
 70
     1
  9
$ATTREQ
 70
     1
  9
$HANDLING
 70
     1
  9
$HANDSEED
  5
277
  9
$SURFTAB1
 70
     6
  9
$SURFTAB2
 70
     6
  9
$SURFTYPE
 70
     6
  9
$SURFU
 70
     6
  9
$SURFV
 70
     6
  9
$UCSNAME
  2

  9
$UCSORG
 10
0.0
 20
0.0
 30
0.0
  9
$UCSXDIR
 10
1.0
 20
0.0
 30
0.0
  9
$UCSYDIR
 10
0.0
 20
1.0
 30
0.0
  9
$PUCSNAME
  2

  9
$PUCSORG
 10
0.0
 20
0.0
 30
0.0
  9
$PUCSXDIR
 10
1.0
 20
0.0
 30
0.0
  9
$PUCSYDIR
 10
0.0
 20
1.0
 30
0.0
  9
$USERI1
 70
     0
  9
$USERI2
 70
     0
  9
$USERI3
 70
     0
  9
$USERI4
 70
     0
  9
$USERI5
 70
     0
  9
$USERR1
 40
0.0
  9
$USERR2
 40
0.0
  9
$USERR3
 40
0.0
  9
$USERR4
 40
0.0
  9
$USERR5
 40
0.0
  9
$WORLDVIEW
 70
     1
  9
$SHADEDGE
 70
     3
  9
$SHADEDIF
 70
    70
  9
$TILEMODE
 70
     1
  9
$MAXACTVP
 70
    64
  9
$PLIMCHECK
 70
     0
  9
$PEXTMIN
 10
0.0
 20
0.0
 30
0.0
  9
$PEXTMAX
 10
68.0
 20
44.0
 30
0.0
  9
$PLIMMIN
 10
0.0
 20
0.0
  9
$PLIMMAX
 10
68.0
 20
44.0
  9
$UNITMODE
 70
     0
  9
$VISRETAIN
 70
     1
  9
$PLINEGEN
 70
     0
  9
$PSLTSCALE
 70
     1
  0
ENDSEC
  0
SECTION
  2
TABLES
  0
TABLE
  2
VPORT
 70
     1
  0
VPORT
  2
*ACTIVE
 70
     0
 10
0.0
 20
0.0
 11
1.0
 21
1.0
 12
34.0
 22
22.0
 13
0.0
 23
0.0
 14
1.0
 24
1.0
 15
0.0
 25
0.0
 16
0.0
 26
0.0
 36
1.0
 17
0.0
 27
0.0
 37
0.0
 40
44.0
 41
1.545454545454545
 42
50.0
 43
0.0
 44
0.0
 50
0.0
 51
0.0
 71
     0
 72
   100
 73
     1
 74
     0
 75
     1
 76
     0
 77
     0
 78
     0
  0
ENDTAB
  0
TABLE
  2
LTYPE
 70
    59
  0
LTYPE
  2
CONTINUOUS
 70
     0
  3
Solid line
 72
    65
 73
     0
 40
0.0
  0
LTYPE
  2
BY_STANDARD
 70
     0
  3
By Standard ____________    ____    ____   _
 72
    65
 73
     6
 40
1.2402999999999991
 49
0.6614
 49
-0.0827
 49
0.1654
 49
-0.0827
 49
0.1654
 49
-0.0827
  0
LTYPE
  2
CHAIN
 70
     0
  3
Chain ____ _ ____ _ ____ _ ____ _ ____ _ ____
 72
    65
 73
     4
 40
0.7087
 49
0.4724000000000001
 49
-0.0591
 49
0.1181
 49
-0.0591
  0
LTYPE
  2
DASH_DOT
 70
     0
  3
Dash dot __ . __ . __ . __ . __ . __ . __ . __
 72
    65
 73
     4
 40
0.37
 49
0.24
 49
-0.06
 49
0.01
 49
-0.06
  0
LTYPE
  2
DOUBLE_DASH_DOT
 70
     0
  3
Double-Dash Dot __ __ . __ __ . __ __ . __ _
 72
    65
 73
     6
 40
0.4398
 49
0.24
 49
-0.06
 49
0.0098
 49
-0.06
 49
0.01
 49
-0.06
  0
LTYPE
  2
DASH_TRIPLE_DOT
 70
     0
  3
Dash Triple-Dot _ . . . _ . . . _ . . . _
 72
    65
 73
     8
 40
0.51
 49
0.24
 49
-0.06
 49
0.01
 49
-0.06
 49
0.01
 49
-0.06
 49
0.01
 49
-0.06
  0
LTYPE
  2
DASHED
 70
     0
  3
Dashed __ __ __ __ __ __ __ __ __ __ __ __ __ _
 72
    65
 73
     2
 40
0.2067
 49
0.1654
 49
-0.0413
  0
LTYPE
  2
DASH_DOUBLE_DOT
 70
     0
  3
Dash Double-Dot __ . . __ . . __ . . __ . .
 72
    65
 73
     6
 40
0.4398
 49
0.24
 49
-0.06
 49
0.0098
 49
-0.06
 49
0.01
 49
-0.06
  0
LTYPE
  2
DASHED_SPACE
 70
     0
  3
Dashed Space __ __ __ __ __ __ __ __ __ __ __ _
 72
    65
 73
     2
 40
0.2067
 49
0.1654
 49
-0.0413
  0
LTYPE
  2
DOTTED
 70
     0
  3
Dotted . . . . . . . . . . . . . . . . . . . . 
 72
    65
 73
     2
 40
0.0482
 49
0.0069
 49
-0.0413
  0
LTYPE
  2
DOUBLE_DASH_CHAIN
 70
     0
  3
Double-Dash Chain ______  __  __  ______  __  _
 72
    65
 73
     6
 40
1.2402999999999991
 49
0.6614
 49
-0.0827
 49
0.1654
 49
-0.0827
 49
0.1654
 49
-0.0827
  0
LTYPE
  2
DOUBLE_DASH_DOUBLE_DOT
 70
     0
  3
Double-Dash Double-dot _ _ . . _ _ . . _
 72
    65
 73
     8
 40
0.7400000000000001
 49
0.24
 49
-0.06
 49
0.24
 49
-0.06
 49
0.01
 49
-0.06
 49
0.01
 49
-0.06
  0
LTYPE
  2
DOUBLE_DASH_TRIPLE_DOT
 70
     0
  3
Double Dash Triple Dot __ __ . . . __ __ . .
 72
    65
 73
    10
 40
0.8100000000000001
 49
0.24
 49
-0.06
 49
0.24
 49
-0.06
 49
0.01
 49
-0.06
 49
0.01
 49
-0.06
 49
0.01
 49
-0.06
  0
LTYPE
  2
LONG_DASH_DOTTED
 70
     0
  3
Long Dash Dotted ____ . ____ . ____ . ____ . _
 72
    65
 73
     4
 40
0.3543
 49
0.2362
 49
-0.0295
 49
0.0591
 49
-0.0295
  0
LTYPE
  2
LONG_DASH_DOUBLE_DOT
 70
     0
  3
Long Dash Double Dot ________  .  .  ________  
 72
    65
 73
     6
 40
0.6799999999999999
 49
0.48
 49
-0.06
 49
0.01
 49
-0.06
 49
0.01
 49
-0.06
  0
LTYPE
  2
LONG_DASH_TRIPLE_DOT
 70
     0
  3
Long Dash Triple Dot ____ ... ____ ... ____
 72
    65
 73
     8
 40
0.3689
 49
0.2362
 49
-0.0295
 49
0.0049
 49
-0.0295
 49
0.0049
 49
-0.0295
 49
0.0049
 49
-0.0295
  0
LTYPE
  2
BORDER
 70
     0
  3
Border __ __ . __ __ . __ __ . __ __ . __ __ .
 72
    65
 73
     6
 40
1.75
 49
0.5
 49
-0.25
 49
0.5
 49
-0.25
 49
0.0
 49
-0.25
  0
LTYPE
  2
BORDER2
 70
     0
  3
Border (.5x) __.__.__.__.__.__.__.__.__.__.__.
 72
    65
 73
     6
 40
0.875
 49
0.25
 49
-0.125
 49
0.25
 49
-0.125
 49
0.0
 49
-0.125
  0
LTYPE
  2
BORDERX2
 70
     0
  3
Border (2x) ____  ____  .  ____  ____  .  ___
 72
    65
 73
     6
 40
3.5
 49
1.0
 49
-0.5
 49
1.0
 49
-0.5
 49
0.0
 49
-0.5
  0
LTYPE
  2
CENTER
 70
     0
  3
Center ____ _ ____ _ ____ _ ____ _ ____ _ ____
 72
    65
 73
     4
 40
2.0
 49
1.25
 49
-0.25
 49
0.25
 49
-0.25
  0
LTYPE
  2
CENTER2
 70
     0
  3
Center (.5x) ___ _ ___ _ ___ _ ___ _ ___ _ ___
 72
    65
 73
     4
 40
1.125
 49
0.75
 49
-0.125
 49
0.125
 49
-0.125
  0
LTYPE
  2
CENTERX2
 70
     0
  3
Center (2x) ________  __  ________  __  _____
 72
    65
 73
     4
 40
4.0
 49
2.5
 49
-0.5
 49
0.5
 49
-0.5
  0
LTYPE
  2
DASHDOT2
 70
     0
  3
Dash dot (.5x) _._._._._._._._._._._._._._._.
 72
    65
 73
     4
 40
0.5
 49
0.25
 49
-0.125
 49
0.0
 49
-0.125
  0
LTYPE
  2
DASHDOTX2
 70
     0
  3
Dash dot (2x) ____  .  ____  .  ____  .  ___
 72
    65
 73
     4
 40
2.0
 49
1.0
 49
-0.5
 49
0.0
 49
-0.5
  0
LTYPE
  2
DASHED2
 70
     0
  3
Dashed (.5x) _ _ _ _ _ _ _ _ _ _ _ _ _ _ _ _ _
 72
    65
 73
     2
 40
0.375
 49
0.25
 49
-0.125
  0
LTYPE
  2
DASHEDX2
 70
     0
  3
Dashed (2x) ____  ____  ____  ____  ____  ___
 72
    65
 73
     2
 40
1.5
 49
1.0
 49
-0.5
  0
LTYPE
  2
DIVIDE
 70
     0
  3
Divide ____ . . ____ . . ____ . . ____ . . ____
 72
    65
 73
     6
 40
1.25
 49
0.5
 49
-0.25
 49
0.0
 49
-0.25
 49
0.0
 49
-0.25
  0
LTYPE
  2
DIVIDE2
 70
     0
  3
Divide (.5x) __..__..__..__..__..__..__..__.._
 72
    65
 73
     6
 40
0.625
 49
0.25
 49
-0.125
 49
0.0
 49
-0.125
 49
0.0
 49
-0.125
  0
LTYPE
  2
DIVIDEX2
 70
     0
  3
Divide (2x) ________  .  .  ________  .  .  _
 72
    65
 73
     6
 40
2.5
 49
1.0
 49
-0.5
 49
0.0
 49
-0.5
 49
0.0
 49
-0.5
  0
LTYPE
  2
DOT
 70
     0
  3
Dot . . . . . . . . . . . . . . . . . . . . . .
 72
    65
 73
     2
 40
0.25
 49
0.0
 49
-0.25
  0
LTYPE
  2
DOT2
 70
     0
  3
Dot (.5x) .....................................
 72
    65
 73
     2
 40
0.125
 49
0.0
 49
-0.125
  0
LTYPE
  2
DOTX2
 70
     0
  3
Dot (2x) .  .  .  .  .  .  .  .  .  .  .  .  . 
 72
    65
 73
     2
 40
0.5
 49
0.0
 49
-0.5
  0
LTYPE
  2
HIDDEN
 70
     0
  3
Hidden __ __ __ __ __ __ __ __ __ __ __ __ __ _
 72
    65
 73
     2
 40
0.375
 49
0.25
 49
-0.125
  0
LTYPE
  2
HIDDEN2
 70
     0
  3
Hidden (.5x) _ _ _ _ _ _ _ _ _ _ _ _ _ _ _ _ _
 72
    65
 73
     2
 40
0.1875
 49
0.125
 49
-0.0625
  0
LTYPE
  2
HIDDENX2
 70
     0
  3
Hidden (2x) ____ ____ ____ ____ ____ ____ ____
 72
    65
 73
     2
 40
0.75
 49
0.5
 49
-0.25
  0
LTYPE
  2
PHANTOM
 70
     0
  3
Phantom ______  __  __  ______  __  __  ______
 72
    65
 73
     6
 40
2.5
 49
1.25
 49
-0.25
 49
0.25
 49
-0.25
 49
0.25
 49
-0.25
  0
LTYPE
  2
PHANTOM2
 70
     0
  3
Phantom (.5x) ___ _ _ ___ _ _ ___ _ _ ___ _ _
 72
    65
 73
     6
 40
1.25
 49
0.625
 49
-0.125
 49
0.125
 49
-0.125
 49
0.125
 49
-0.125
  0
LTYPE
  2
PHANTOMX2
 70
     0
  3
Phantom (2x) ____________    ____    ____   _
 72
    65
 73
     6
 40
5.0
 49
2.5
 49
-0.5
 49
0.5
 49
-0.5
 49
0.5
 49
-0.5
  0
LTYPE
  2
ACAD_ISO02W100
 70
     0
  3
ISO dash __ __ __ __ __ __ __ __ __ __ __ __ __
 72
    65
 73
     2
 40
0.59
 49
0.47
 49
-0.12
  0
LTYPE
  2
ACAD_ISO03W100
 70
     0
  3
ISO dash space __    __    __    __    __    __
 72
    65
 73
     2
 40
1.179999999999999
 49
0.47
 49
-0.71
  0
LTYPE
  2
ACAD_ISO04W100
 70
     0
  3
ISO long-dash dot ____ . ____ . ____ . ____ . _
 72
    65
 73
     4
 40
1.179999999999999
 49
0.9399999999999998
 49
-0.12
 49
0.0
 49
-0.12
  0
LTYPE
  2
ACAD_ISO05W100
 70
     0
  3
ISO long-dash double-dot ____ .. ____ .. ____ .
 72
    65
 73
     6
 40
1.2999999999999989
 49
0.9399999999999998
 49
-0.12
 49
0.0
 49
-0.12
 49
0.0
 49
-0.12
  0
LTYPE
  2
ACAD_ISO06W100
 70
     0
  3
ISO long-dash triple-dot ____ ... ____ ... ____
 72
    65
 73
     8
 40
1.419999999999999
 49
0.9399999999999998
 49
-0.12
 49
0.0
 49
-0.12
 49
0.0
 49
-0.12
 49
0.0
 49
-0.12
  0
LTYPE
  2
ACAD_ISO07W100
 70
     0
  3
ISO dot . . . . . . . . . . . . . . . . . . . .
 72
    65
 73
     2
 40
0.12
 49
0.0
 49
-0.12
  0
LTYPE
  2
ACAD_ISO08W100
 70
     0
  3
ISO long-dash short-dash ____ __ ____ __ ____ _
 72
    65
 73
     4
 40
0.95
 49
0.47
 49
-0.12
 49
0.24
 49
-0.12
  0
LTYPE
  2
ACAD_ISO09W100
 70
     0
  3
ISO long-dash double-short-dash ____ __ __ ____
 72
    65
 73
     6
 40
1.3100000000000001
 49
0.47
 49
-0.12
 49
0.24
 49
-0.12
 49
0.24
 49
-0.12
  0
LTYPE
  2
ACAD_ISO10W100
 70
     0
  3
ISO dash dot __ . __ . __ . __ . __ . __ . __ .
 72
    65
 73
     4
 40
0.71
 49
0.47
 49
-0.12
 49
0.0
 49
-0.12
  0
LTYPE
  2
ACAD_ISO11W100
 70
     0
  3
ISO double-dash dot __ __ . __ __ . __ __ . __ 
 72
    65
 73
     6
 40
1.2999999999999989
 49
0.47
 49
-0.12
 49
0.47
 49
-0.12
 49
0.0
 49
-0.12
  0
LTYPE
  2
ACAD_ISO12W100
 70
     0
  3
ISO dash double-dot __ . . __ . . __ . . __ . .
 72
    65
 73
     6
 40
0.8299999999999998
 49
0.47
 49
-0.12
 49
0.0
 49
-0.12
 49
0.0
 49
-0.12
  0
LTYPE
  2
ACAD_ISO13W100
 70
     0
  3
ISO double-dash double-dot __ __ . . __ __ . . 
 72
    65
 73
     8
 40
1.419999999999999
 49
0.47
 49
-0.12
 49
0.47
 49
-0.12
 49
0.0
 49
-0.12
 49
0.0
 49
-0.12
  0
LTYPE
  2
ACAD_ISO14W100
 70
     0
  3
ISO dash triple-dot __ . . . __ . . . __ . . . 
 72
    65
 73
     8
 40
0.95
 49
0.47
 49
-0.12
 49
0.0
 49
-0.12
 49
0.0
 49
-0.12
 49
0.0
 49
-0.12
  0
LTYPE
  2
ACAD_ISO15W100
 70
     0
  3
ISO double-dash triple-dot __ __ . . . __ __ . 
 72
    65
 73
    10
 40
1.5399999999999989
 49
0.47
 49
-0.12
 49
0.47
 49
-0.12
 49
0.0
 49
-0.12
 49
0.0
 49
-0.12
 49
0.0
 49
-0.12
  0
LTYPE
  2
FENCELINE1
 70
     0
  3
Fenceline circle ----0-----0----0-----0----0---
 72
    65
 73
     4
 40
1.45
 49
0.25
 49
-0.1
 49
-0.1
 49
1.0
  0
LTYPE
  2
FENCELINE2
 70
     0
  3
Fenceline square ----[]-----[]----[]-----[]----
 72
    65
 73
     4
 40
1.45
 49
0.25
 49
-0.1
 49
-0.1
 49
1.0
  0
LTYPE
  2
TRACKS
 70
     0
  3
Tracks -|-|-|-|-|-|-|-|-|-|-|-|-|-|-|-|-|-|-|-|
 72
    65
 73
     2
 40
0.3
 49
0.15
 49
0.15
  0
LTYPE
  2
BATTING
 70
     0
  3
Batting SSSSSSSSSSSSSSSSSSSSSSSSSSSSSSSSSSSSSSS
 72
    65
 73
     4
 40
0.4001000000000001
 49
0.0001
 49
-0.1
 49
-0.2
 49
-0.1
  0
LTYPE
  2
HOT_WATER_SUPPLY
 70
     0
  3
Hot water supply ---- HW ---- HW ---- HW ----
 72
    65
 73
     3
 40
0.9
 49
0.5
 49
-0.2
 49
-0.2
  0
LTYPE
  2
GAS_LINE
 70
     0
  3
Gas line ----GAS----GAS----GAS----GAS----GAS---
 72
    65
 73
     3
 40
0.95
 49
0.5
 49
-0.2
 49
-0.25
  0
LTYPE
  2
ZIGZAG
 70
     0
  3
Zig zag /\/\/\/\/\/\/\/\/\/\/\/\/\/\/\/\/\/\/\/
 72
    65
 73
     4
 40
0.8001000000000001
 49
0.0001
 49
-0.2
 49
-0.4
 49
-0.2
  0
ENDTAB
  0
TABLE
  2
LAYER
 70
    72
  0
LAYER
  2
0
 70
     0
 62
     7
  6
CONTINUOUS
  0
LAYER
  2
THREADS_BRAUN_
 70
     0
 62
     7
  6
DASHED
  0
LAYER
  2
VISIBLE_EDGES_BRAUN_
 70
     0
 62
     7
  6
CONTINUOUS
  0
ENDTAB
  0
TABLE
  2
STYLE
 70
     3
  0
STYLE
  2
STANDARD
 70
     0
 40
0.0
 41
1.0
 50
0.0
 71
     0
 42
0.2
  3
txt
  4

  0
STYLE
  2
ANNOTATIVE
 70
     0
 40
0.0
 41
1.0
 50
0.0
 71
     0
 42
0.2
  3
txt
  4

  0
STYLE
  2

 70
     1
 40
0.0
 41
1.0
 50
0.0
 71
     0
 42
0.2
  3
ltypeshp.shx
  4

  0
ENDTAB
  0
TABLE
  2
VIEW
 70
     0
  0
ENDTAB
  0
TABLE
  2
UCS
 70
     0
  0
ENDTAB
  0
TABLE
  2
APPID
 70
     3
  0
APPID
  2
ACAD
 70
     0
  0
APPID
  2
ACADANNOTATIVE
 70
     0
  0
APPID
  2
ACAD_MLEADERVER
 70
     0
  0
ENDTAB
  0
TABLE
  2
DIMSTYLE
 70
     2
  0
DIMSTYLE
  2
STANDARD
 70
     0
  3

  4

  5

  6

  7

 40
1.0
 41
0.18
 42
0.0625
 43
0.38
 44
0.18
 45
0.0
 46
0.0
 47
0.0
 48
0.0
140
0.18
141
0.09
142
0.0
143
25.3999999999999986
144
1.0
145
0.0
146
1.0
147
0.09
 71
     0
 72
     0
 73
     1
 74
     1
 75
     0
 76
     0
 77
     0
 78
     0
170
     0
171
     2
172
     0
173
     0
174
     0
175
     0
176
     0
177
     0
178
     0
  0
DIMSTYLE
  2
ANNOTATIVE
 70
     0
  3

  4

  5

  6

  7

 40
1.0
 41
0.18
 42
0.0625
 43
0.38
 44
0.18
 45
0.0
 46
0.0
 47
0.0
 48
0.0
140
0.18
141
0.09
142
0.0
143
25.3999999999999986
144
1.0
145
0.0
146
1.0
147
0.09
 71
     0
 72
     0
 73
     1
 74
     1
 75
     0
 76
     0
 77
     0
 78
     0
170
     0
171
     2
172
     0
173
     0
174
     0
175
     0
176
     0
177
     0
178
     0
  0
ENDTAB
  0
ENDSEC
  0
SECTION
  2
BLOCKS
  0
BLOCK
  8
0
  2
$MODEL_SPACE
 70
     0
 10
0.0
 20
0.0
 30
0.0
  3
$MODEL_SPACE
  1

  0
ENDBLK
  5
72
  8
0
  0
BLOCK
 67
     1
  8
0
  2
$PAPER_SPACE
 70
     0
 10
0.0
 20
0.0
 30
0.0
  3
$PAPER_SPACE
  1

  0
ENDBLK
  5
6E
 67
     1
  8
0
  0
ENDSEC
  0
SECTION
  2
ENTITIES
  0
CIRCLE
  5
FD
  8
VISIBLE_EDGES_BRAUN_
 10
18.667856080719389
 20
22.3535280785387513
 30
0.0
 40
0.098
  0
CIRCLE
  5
FF
  8
VISIBLE_EDGES_BRAUN_
 10
14.6678560807193907
 20
22.3535280785387513
 30
0.0
 40
0.098
  0
CIRCLE
  5
100
  8
VISIBLE_EDGES_BRAUN_
 10
10.6678560807193996
 20
22.3535280785387513
 30
0.0
 40
0.098
  0
CIRCLE
  5
101
  8
VISIBLE_EDGES_BRAUN_
 10
18.667856080719389
 20
20.3535280785387513
 30
0.0
 40
0.098
  0
CIRCLE
  5
102
  8
VISIBLE_EDGES_BRAUN_
 10
14.6678560807193996
 20
20.3535280785387513
 30
0.0
 40
0.098
  0
CIRCLE
  5
103
  8
VISIBLE_EDGES_BRAUN_
 10
10.6678560807193996
 20
20.3535280785387513
 30
0.0
 40
0.098
  0
CIRCLE
  5
104
  8
VISIBLE_EDGES_BRAUN_
 10
18.6678560807193996
 20
18.3535280785387513
 30
0.0
 40
0.098
  0
CIRCLE
  5
105
  8
VISIBLE_EDGES_BRAUN_
 10
14.6678560807193996
 20
18.3535280785387513
 30
0.0
 40
0.098
  0
CIRCLE
  5
106
  8
VISIBLE_EDGES_BRAUN_
 10
10.6678560807193996
 20
18.3535280785387513
 30
0.0
 40
0.098
  0
CIRCLE
  5
107
  8
VISIBLE_EDGES_BRAUN_
 10
18.6678560807193996
 20
16.3535280785387513
 30
0.0
 40
0.098
  0
CIRCLE
  5
108
  8
VISIBLE_EDGES_BRAUN_
 10
14.6678560807193996
 20
16.3535280785387513
 30
0.0
 40
0.098
  0
CIRCLE
  5
109
  8
VISIBLE_EDGES_BRAUN_
 10
10.6678560807193996
 20
16.3535280785387513
 30
0.0
 40
0.098
  0
CIRCLE
  5
10A
  8
VISIBLE_EDGES_BRAUN_
 10
18.6678560807193996
 20
14.3535280785387496
 30
0.0
 40
0.098
  0
CIRCLE
  5
10B
  8
VISIBLE_EDGES_BRAUN_
 10
14.6678560807193996
 20
14.3535280785387496
 30
0.0
 40
0.098
  0
CIRCLE
  5
10C
  8
VISIBLE_EDGES_BRAUN_
 10
10.6678560807193996
 20
14.3535280785387496
 30
0.0
 40
0.098
  0
CIRCLE
  5
10D
  8
VISIBLE_EDGES_BRAUN_
 10
30.6678560807193996
 20
14.3535280785387602
 30
0.0
 40
0.098
  0
CIRCLE
  5
10E
  8
VISIBLE_EDGES_BRAUN_
 10
26.6678560807193996
 20
14.3535280785387496
 30
0.0
 40
0.098
  0
CIRCLE
  5
10F
  8
VISIBLE_EDGES_BRAUN_
 10
22.6678560807193996
 20
14.3535280785387496
 30
0.0
 40
0.098
  0
CIRCLE
  5
110
  8
VISIBLE_EDGES_BRAUN_
 10
30.6678560807193996
 20
16.3535280785387585
 30
0.0
 40
0.098
  0
CIRCLE
  5
111
  8
VISIBLE_EDGES_BRAUN_
 10
26.6678560807193996
 20
16.3535280785387513
 30
0.0
 40
0.098
  0
CIRCLE
  5
112
  8
VISIBLE_EDGES_BRAUN_
 10
22.6678560807193996
 20
16.3535280785387513
 30
0.0
 40
0.098
  0
CIRCLE
  5
113
  8
VISIBLE_EDGES_BRAUN_
 10
30.6678560807193996
 20
18.3535280785387513
 30
0.0
 40
0.098
  0
CIRCLE
  5
114
  8
VISIBLE_EDGES_BRAUN_
 10
26.6678560807193996
 20
18.3535280785387513
 30
0.0
 40
0.098
  0
CIRCLE
  5
115
  8
VISIBLE_EDGES_BRAUN_
 10
22.6678560807193996
 20
18.3535280785387513
 30
0.0
 40
0.098
  0
CIRCLE
  5
116
  8
VISIBLE_EDGES_BRAUN_
 10
30.6678560807193996
 20
20.3535280785387513
 30
0.0
 40
0.098
  0
CIRCLE
  5
117
  8
VISIBLE_EDGES_BRAUN_
 10
26.6678560807193996
 20
20.3535280785387513
 30
0.0
 40
0.098
  0
CIRCLE
  5
118
  8
VISIBLE_EDGES_BRAUN_
 10
22.6678560807193996
 20
20.3535280785387513
 30
0.0
 40
0.098
  0
CIRCLE
  5
119
  8
VISIBLE_EDGES_BRAUN_
 10
30.6678560807193996
 20
22.3535280785387585
 30
0.0
 40
0.098
  0
CIRCLE
  5
11A
  8
VISIBLE_EDGES_BRAUN_
 10
26.6678560807193996
 20
22.3535280785387585
 30
0.0
 40
0.098
  0
CIRCLE
  5
11B
  8
VISIBLE_EDGES_BRAUN_
 10
22.667856080719389
 20
22.3535280785387513
 30
0.0
 40
0.098
  0
CIRCLE
  5
11C
  8
VISIBLE_EDGES_BRAUN_
 10
24.6678560807193996
 20
24.3535280785387513
 30
0.0
 40
0.098
  0
CIRCLE
  5
11D
  8
VISIBLE_EDGES_BRAUN_
 10
28.667856080719389
 20
24.3535280785387513
 30
0.0
 40
0.098
  0
CIRCLE
  5
11E
  8
VISIBLE_EDGES_BRAUN_
 10
32.6678560807194032
 20
24.3535280785387513
 30
0.0
 40
0.098
  0
CIRCLE
  5
11F
  8
VISIBLE_EDGES_BRAUN_
 10
24.6678560807193996
 20
26.3535280785387513
 30
0.0
 40
0.098
  0
CIRCLE
  5
120
  8
VISIBLE_EDGES_BRAUN_
 10
28.667856080719389
 20
26.3535280785387513
 30
0.0
 40
0.098
  0
CIRCLE
  5
121
  8
VISIBLE_EDGES_BRAUN_
 10
32.6678560807194032
 20
26.3535280785387513
 30
0.0
 40
0.098
  0
CIRCLE
  5
122
  8
VISIBLE_EDGES_BRAUN_
 10
24.6678560807193996
 20
28.3535280785387513
 30
0.0
 40
0.098
  0
CIRCLE
  5
123
  8
VISIBLE_EDGES_BRAUN_
 10
28.667856080719389
 20
28.3535280785387513
 30
0.0
 40
0.098
  0
CIRCLE
  5
124
  8
VISIBLE_EDGES_BRAUN_
 10
32.6678560807194032
 20
28.3535280785387513
 30
0.0
 40
0.098
  0
CIRCLE
  5
125
  8
VISIBLE_EDGES_BRAUN_
 10
24.6678560807193996
 20
30.3535280785387513
 30
0.0
 40
0.098
  0
CIRCLE
  5
126
  8
VISIBLE_EDGES_BRAUN_
 10
28.667856080719389
 20
30.3535280785387513
 30
0.0
 40
0.098
  0
CIRCLE
  5
127
  8
VISIBLE_EDGES_BRAUN_
 10
32.6678560807194032
 20
30.3535280785387513
 30
0.0
 40
0.098
  0
CIRCLE
  5
128
  8
VISIBLE_EDGES_BRAUN_
 10
24.6678560807193996
 20
32.3535280785387513
 30
0.0
 40
0.098
  0
CIRCLE
  5
129
  8
VISIBLE_EDGES_BRAUN_
 10
28.667856080719389
 20
32.3535280785387513
 30
0.0
 40
0.098
  0
CIRCLE
  5
12A
  8
VISIBLE_EDGES_BRAUN_
 10
32.6678560807194032
 20
32.3535280785387513
 30
0.0
 40
0.098
  0
CIRCLE
  5
12B
  8
VISIBLE_EDGES_BRAUN_
 10
12.6678560807193996
 20
32.3535280785387513
 30
0.0
 40
0.098
  0
CIRCLE
  5
12C
  8
VISIBLE_EDGES_BRAUN_
 10
16.667856080719389
 20
32.3535280785387513
 30
0.0
 40
0.098
  0
CIRCLE
  5
12D
  8
VISIBLE_EDGES_BRAUN_
 10
20.6678560807193996
 20
32.3535280785387513
 30
0.0
 40
0.098
  0
CIRCLE
  5
12E
  8
VISIBLE_EDGES_BRAUN_
 10
12.6678560807193996
 20
30.3535280785387513
 30
0.0
 40
0.098
  0
CIRCLE
  5
12F
  8
VISIBLE_EDGES_BRAUN_
 10
16.667856080719389
 20
30.3535280785387513
 30
0.0
 40
0.098
  0
CIRCLE
  5
130
  8
VISIBLE_EDGES_BRAUN_
 10
20.6678560807193996
 20
30.3535280785387513
 30
0.0
 40
0.098
  0
CIRCLE
  5
131
  8
VISIBLE_EDGES_BRAUN_
 10
12.6678560807193996
 20
28.3535280785387513
 30
0.0
 40
0.098
  0
CIRCLE
  5
132
  8
VISIBLE_EDGES_BRAUN_
 10
16.667856080719389
 20
28.3535280785387513
 30
0.0
 40
0.098
  0
CIRCLE
  5
133
  8
VISIBLE_EDGES_BRAUN_
 10
20.6678560807193996
 20
28.3535280785387513
 30
0.0
 40
0.098
  0
CIRCLE
  5
134
  8
VISIBLE_EDGES_BRAUN_
 10
12.6678560807193996
 20
26.3535280785387513
 30
0.0
 40
0.098
  0
CIRCLE
  5
135
  8
VISIBLE_EDGES_BRAUN_
 10
16.667856080719389
 20
26.3535280785387513
 30
0.0
 40
0.098
  0
CIRCLE
  5
136
  8
VISIBLE_EDGES_BRAUN_
 10
20.6678560807193996
 20
26.3535280785387513
 30
0.0
 40
0.098
  0
CIRCLE
  5
137
  8
VISIBLE_EDGES_BRAUN_
 10
12.6678560807193996
 20
24.3535280785387513
 30
0.0
 40
0.098
  0
CIRCLE
  5
138
  8
VISIBLE_EDGES_BRAUN_
 10
16.667856080719389
 20
24.3535280785387513
 30
0.0
 40
0.098
  0
CIRCLE
  5
139
  8
VISIBLE_EDGES_BRAUN_
 10
20.6678560807193996
 20
24.3535280785387513
 30
0.0
 40
0.098
  0
CIRCLE
  5
13A
  8
VISIBLE_EDGES_BRAUN_
 10
18.667856080719389
 20
24.3535280785387513
 30
0.0
 40
0.098
  0
CIRCLE
  5
13B
  8
VISIBLE_EDGES_BRAUN_
 10
14.6678560807193907
 20
24.3535280785387513
 30
0.0
 40
0.098
  0
CIRCLE
  5
13C
  8
VISIBLE_EDGES_BRAUN_
 10
10.6678560807193996
 20
24.3535280785387513
 30
0.0
 40
0.098
  0
CIRCLE
  5
13D
  8
VISIBLE_EDGES_BRAUN_
 10
18.667856080719389
 20
26.3535280785387513
 30
0.0
 40
0.098
  0
CIRCLE
  5
13E
  8
VISIBLE_EDGES_BRAUN_
 10
14.6678560807193907
 20
26.3535280785387513
 30
0.0
 40
0.098
  0
CIRCLE
  5
13F
  8
VISIBLE_EDGES_BRAUN_
 10
10.6678560807193996
 20
26.3535280785387513
 30
0.0
 40
0.098
  0
CIRCLE
  5
140
  8
VISIBLE_EDGES_BRAUN_
 10
18.667856080719389
 20
28.3535280785387513
 30
0.0
 40
0.098
  0
CIRCLE
  5
141
  8
VISIBLE_EDGES_BRAUN_
 10
14.6678560807193907
 20
28.3535280785387513
 30
0.0
 40
0.098
  0
CIRCLE
  5
142
  8
VISIBLE_EDGES_BRAUN_
 10
10.6678560807193996
 20
28.3535280785387513
 30
0.0
 40
0.098
  0
CIRCLE
  5
143
  8
VISIBLE_EDGES_BRAUN_
 10
18.667856080719389
 20
30.3535280785387513
 30
0.0
 40
0.098
  0
CIRCLE
  5
144
  8
VISIBLE_EDGES_BRAUN_
 10
14.6678560807193907
 20
30.3535280785387513
 30
0.0
 40
0.098
  0
CIRCLE
  5
145
  8
VISIBLE_EDGES_BRAUN_
 10
10.6678560807193996
 20
30.3535280785387513
 30
0.0
 40
0.098
  0
CIRCLE
  5
146
  8
VISIBLE_EDGES_BRAUN_
 10
18.667856080719389
 20
32.3535280785387513
 30
0.0
 40
0.098
  0
CIRCLE
  5
147
  8
VISIBLE_EDGES_BRAUN_
 10
14.6678560807193907
 20
32.3535280785387513
 30
0.0
 40
0.098
  0
CIRCLE
  5
148
  8
VISIBLE_EDGES_BRAUN_
 10
10.6678560807193996
 20
32.3535280785387513
 30
0.0
 40
0.098
  0
CIRCLE
  5
149
  8
VISIBLE_EDGES_BRAUN_
 10
30.6678560807193996
 20
32.3535280785387513
 30
0.0
 40
0.098
  0
CIRCLE
  5
14A
  8
VISIBLE_EDGES_BRAUN_
 10
26.6678560807193996
 20
32.3535280785387513
 30
0.0
 40
0.098
  0
CIRCLE
  5
14B
  8
VISIBLE_EDGES_BRAUN_
 10
22.667856080719389
 20
32.3535280785387513
 30
0.0
 40
0.098
  0
CIRCLE
  5
14C
  8
VISIBLE_EDGES_BRAUN_
 10
30.6678560807193996
 20
30.3535280785387513
 30
0.0
 40
0.098
  0
CIRCLE
  5
14D
  8
VISIBLE_EDGES_BRAUN_
 10
26.6678560807193996
 20
30.3535280785387513
 30
0.0
 40
0.098
  0
CIRCLE
  5
14E
  8
VISIBLE_EDGES_BRAUN_
 10
22.667856080719389
 20
30.3535280785387513
 30
0.0
 40
0.098
  0
CIRCLE
  5
14F
  8
VISIBLE_EDGES_BRAUN_
 10
30.6678560807193996
 20
28.3535280785387513
 30
0.0
 40
0.098
  0
CIRCLE
  5
150
  8
VISIBLE_EDGES_BRAUN_
 10
26.6678560807193996
 20
28.3535280785387513
 30
0.0
 40
0.098
  0
CIRCLE
  5
151
  8
VISIBLE_EDGES_BRAUN_
 10
22.667856080719389
 20
28.3535280785387513
 30
0.0
 40
0.098
  0
CIRCLE
  5
152
  8
VISIBLE_EDGES_BRAUN_
 10
30.6678560807193996
 20
26.3535280785387513
 30
0.0
 40
0.098
  0
CIRCLE
  5
153
  8
VISIBLE_EDGES_BRAUN_
 10
26.6678560807193996
 20
26.3535280785387513
 30
0.0
 40
0.098
  0
CIRCLE
  5
154
  8
VISIBLE_EDGES_BRAUN_
 10
22.667856080719389
 20
26.3535280785387513
 30
0.0
 40
0.098
  0
CIRCLE
  5
155
  8
VISIBLE_EDGES_BRAUN_
 10
30.6678560807193996
 20
24.3535280785387513
 30
0.0
 40
0.098
  0
CIRCLE
  5
156
  8
VISIBLE_EDGES_BRAUN_
 10
26.6678560807193996
 20
24.3535280785387513
 30
0.0
 40
0.098
  0
CIRCLE
  5
157
  8
VISIBLE_EDGES_BRAUN_
 10
22.667856080719389
 20
24.3535280785387513
 30
0.0
 40
0.098
  0
CIRCLE
  5
158
  8
VISIBLE_EDGES_BRAUN_
 10
24.6678560807193996
 20
22.3535280785387513
 30
0.0
 40
0.098
  0
CIRCLE
  5
159
  8
VISIBLE_EDGES_BRAUN_
 10
28.667856080719389
 20
22.3535280785387585
 30
0.0
 40
0.098
  0
CIRCLE
  5
15A
  8
VISIBLE_EDGES_BRAUN_
 10
32.6678560807194032
 20
22.3535280785387585
 30
0.0
 40
0.098
  0
CIRCLE
  5
15B
  8
VISIBLE_EDGES_BRAUN_
 10
24.6678560807193996
 20
20.3535280785387513
 30
0.0
 40
0.098
  0
CIRCLE
  5
15C
  8
VISIBLE_EDGES_BRAUN_
 10
28.667856080719389
 20
20.3535280785387513
 30
0.0
 40
0.098
  0
CIRCLE
  5
15D
  8
VISIBLE_EDGES_BRAUN_
 10
32.6678560807194032
 20
20.3535280785387585
 30
0.0
 40
0.098
  0
CIRCLE
  5
15E
  8
VISIBLE_EDGES_BRAUN_
 10
24.6678560807193996
 20
18.3535280785387513
 30
0.0
 40
0.098
  0
CIRCLE
  5
15F
  8
VISIBLE_EDGES_BRAUN_
 10
28.667856080719389
 20
18.3535280785387513
 30
0.0
 40
0.098
  0
CIRCLE
  5
160
  8
VISIBLE_EDGES_BRAUN_
 10
32.6678560807194032
 20
18.3535280785387513
 30
0.0
 40
0.098
  0
CIRCLE
  5
161
  8
VISIBLE_EDGES_BRAUN_
 10
24.6678560807193996
 20
16.3535280785387513
 30
0.0
 40
0.098
  0
CIRCLE
  5
162
  8
VISIBLE_EDGES_BRAUN_
 10
28.667856080719389
 20
16.3535280785387585
 30
0.0
 40
0.098
  0
CIRCLE
  5
163
  8
VISIBLE_EDGES_BRAUN_
 10
32.6678560807194032
 20
16.3535280785387585
 30
0.0
 40
0.098
  0
CIRCLE
  5
164
  8
VISIBLE_EDGES_BRAUN_
 10
24.6678560807193996
 20
14.3535280785387496
 30
0.0
 40
0.098
  0
CIRCLE
  5
165
  8
VISIBLE_EDGES_BRAUN_
 10
28.6678560807194103
 20
14.3535280785387602
 30
0.0
 40
0.098
  0
CIRCLE
  5
166
  8
VISIBLE_EDGES_BRAUN_
 10
32.6678560807194032
 20
14.3535280785387602
 30
0.0
 40
0.098
  0
CIRCLE
  5
167
  8
VISIBLE_EDGES_BRAUN_
 10
12.6678560807193996
 20
14.3535280785387496
 30
0.0
 40
0.098
  0
CIRCLE
  5
168
  8
VISIBLE_EDGES_BRAUN_
 10
16.6678560807193996
 20
14.3535280785387496
 30
0.0
 40
0.098
  0
CIRCLE
  5
169
  8
VISIBLE_EDGES_BRAUN_
 10
20.6678560807193996
 20
14.3535280785387496
 30
0.0
 40
0.098
  0
CIRCLE
  5
16A
  8
VISIBLE_EDGES_BRAUN_
 10
12.6678560807193996
 20
16.3535280785387513
 30
0.0
 40
0.098
  0
CIRCLE
  5
16B
  8
VISIBLE_EDGES_BRAUN_
 10
16.6678560807193996
 20
16.3535280785387513
 30
0.0
 40
0.098
  0
CIRCLE
  5
16C
  8
VISIBLE_EDGES_BRAUN_
 10
20.6678560807193996
 20
16.3535280785387513
 30
0.0
 40
0.098
  0
CIRCLE
  5
16D
  8
VISIBLE_EDGES_BRAUN_
 10
12.6678560807193996
 20
18.3535280785387513
 30
0.0
 40
0.098
  0
CIRCLE
  5
16E
  8
VISIBLE_EDGES_BRAUN_
 10
16.6678560807193996
 20
18.3535280785387513
 30
0.0
 40
0.098
  0
CIRCLE
  5
16F
  8
VISIBLE_EDGES_BRAUN_
 10
20.6678560807193996
 20
18.3535280785387513
 30
0.0
 40
0.098
  0
CIRCLE
  5
170
  8
VISIBLE_EDGES_BRAUN_
 10
12.6678560807193996
 20
20.3535280785387513
 30
0.0
 40
0.098
  0
CIRCLE
  5
171
  8
VISIBLE_EDGES_BRAUN_
 10
16.6678560807193996
 20
20.3535280785387513
 30
0.0
 40
0.098
  0
CIRCLE
  5
172
  8
VISIBLE_EDGES_BRAUN_
 10
20.6678560807193996
 20
20.3535280785387513
 30
0.0
 40
0.098
  0
CIRCLE
  5
173
  8
VISIBLE_EDGES_BRAUN_
 10
12.6678560807193996
 20
22.3535280785387513
 30
0.0
 40
0.098
  0
CIRCLE
  5
174
  8
VISIBLE_EDGES_BRAUN_
 10
16.6678560807193996
 20
22.3535280785387513
 30
0.0
 40
0.098
  0
CIRCLE
  5
175
  8
VISIBLE_EDGES_BRAUN_
 10
20.6678560807193996
 20
22.3535280785387513
 30
0.0
 40
0.098
  0
CIRCLE
  5
176
  8
THREADS_BRAUN_
 10
18.667856080719389
 20
22.3535280785387513
 30
0.0
 40
0.125
  0
CIRCLE
  5
177
  8
THREADS_BRAUN_
 10
14.6678560807193907
 20
22.3535280785387513
 30
0.0
 40
0.125
  0
CIRCLE
  5
178
  8
THREADS_BRAUN_
 10
10.6678560807193996
 20
22.3535280785387513
 30
0.0
 40
0.125
  0
CIRCLE
  5
179
  8
THREADS_BRAUN_
 10
18.667856080719389
 20
20.3535280785387513
 30
0.0
 40
0.125
  0
CIRCLE
  5
17A
  8
THREADS_BRAUN_
 10
14.6678560807193996
 20
20.3535280785387513
 30
0.0
 40
0.125
  0
CIRCLE
  5
17B
  8
THREADS_BRAUN_
 10
10.6678560807193996
 20
20.3535280785387513
 30
0.0
 40
0.125
  0
CIRCLE
  5
17C
  8
THREADS_BRAUN_
 10
18.6678560807193996
 20
18.3535280785387513
 30
0.0
 40
0.125
  0
CIRCLE
  5
17D
  8
THREADS_BRAUN_
 10
14.6678560807193996
 20
18.3535280785387513
 30
0.0
 40
0.125
  0
CIRCLE
  5
17E
  8
THREADS_BRAUN_
 10
10.6678560807193996
 20
18.3535280785387513
 30
0.0
 40
0.125
  0
CIRCLE
  5
17F
  8
THREADS_BRAUN_
 10
18.6678560807193996
 20
16.3535280785387513
 30
0.0
 40
0.125
  0
CIRCLE
  5
180
  8
THREADS_BRAUN_
 10
14.6678560807193996
 20
16.3535280785387513
 30
0.0
 40
0.125
  0
CIRCLE
  5
181
  8
THREADS_BRAUN_
 10
10.6678560807193996
 20
16.3535280785387513
 30
0.0
 40
0.125
  0
CIRCLE
  5
182
  8
THREADS_BRAUN_
 10
18.6678560807193996
 20
14.3535280785387496
 30
0.0
 40
0.125
  0
CIRCLE
  5
183
  8
THREADS_BRAUN_
 10
14.6678560807193996
 20
14.3535280785387496
 30
0.0
 40
0.125
  0
CIRCLE
  5
184
  8
THREADS_BRAUN_
 10
10.6678560807193996
 20
14.3535280785387496
 30
0.0
 40
0.125
  0
CIRCLE
  5
185
  8
THREADS_BRAUN_
 10
30.6678560807193996
 20
14.3535280785387602
 30
0.0
 40
0.125
  0
CIRCLE
  5
186
  8
THREADS_BRAUN_
 10
26.6678560807193996
 20
14.3535280785387496
 30
0.0
 40
0.125
  0
CIRCLE
  5
187
  8
THREADS_BRAUN_
 10
22.6678560807193996
 20
14.3535280785387496
 30
0.0
 40
0.125
  0
CIRCLE
  5
188
  8
THREADS_BRAUN_
 10
30.6678560807193996
 20
16.3535280785387585
 30
0.0
 40
0.125
  0
CIRCLE
  5
189
  8
THREADS_BRAUN_
 10
26.6678560807193996
 20
16.3535280785387513
 30
0.0
 40
0.125
  0
CIRCLE
  5
18A
  8
THREADS_BRAUN_
 10
22.6678560807193996
 20
16.3535280785387513
 30
0.0
 40
0.125
  0
CIRCLE
  5
18B
  8
THREADS_BRAUN_
 10
30.6678560807193996
 20
18.3535280785387513
 30
0.0
 40
0.125
  0
CIRCLE
  5
18C
  8
THREADS_BRAUN_
 10
26.6678560807193996
 20
18.3535280785387513
 30
0.0
 40
0.125
  0
CIRCLE
  5
18D
  8
THREADS_BRAUN_
 10
22.6678560807193996
 20
18.3535280785387513
 30
0.0
 40
0.125
  0
CIRCLE
  5
18E
  8
THREADS_BRAUN_
 10
30.6678560807193996
 20
20.3535280785387513
 30
0.0
 40
0.125
  0
CIRCLE
  5
18F
  8
THREADS_BRAUN_
 10
26.6678560807193996
 20
20.3535280785387513
 30
0.0
 40
0.125
  0
CIRCLE
  5
190
  8
THREADS_BRAUN_
 10
22.6678560807193996
 20
20.3535280785387513
 30
0.0
 40
0.125
  0
CIRCLE
  5
191
  8
THREADS_BRAUN_
 10
30.6678560807193996
 20
22.3535280785387585
 30
0.0
 40
0.125
  0
CIRCLE
  5
192
  8
THREADS_BRAUN_
 10
26.6678560807193996
 20
22.3535280785387585
 30
0.0
 40
0.125
  0
CIRCLE
  5
193
  8
THREADS_BRAUN_
 10
22.667856080719389
 20
22.3535280785387513
 30
0.0
 40
0.125
  0
CIRCLE
  5
194
  8
THREADS_BRAUN_
 10
24.6678560807193996
 20
24.3535280785387513
 30
0.0
 40
0.125
  0
CIRCLE
  5
195
  8
THREADS_BRAUN_
 10
28.667856080719389
 20
24.3535280785387513
 30
0.0
 40
0.125
  0
CIRCLE
  5
196
  8
THREADS_BRAUN_
 10
32.6678560807194032
 20
24.3535280785387513
 30
0.0
 40
0.125
  0
CIRCLE
  5
197
  8
THREADS_BRAUN_
 10
24.6678560807193996
 20
26.3535280785387513
 30
0.0
 40
0.125
  0
CIRCLE
  5
198
  8
THREADS_BRAUN_
 10
28.667856080719389
 20
26.3535280785387513
 30
0.0
 40
0.125
  0
CIRCLE
  5
199
  8
THREADS_BRAUN_
 10
32.6678560807194032
 20
26.3535280785387513
 30
0.0
 40
0.125
  0
CIRCLE
  5
19A
  8
THREADS_BRAUN_
 10
24.6678560807193996
 20
28.3535280785387513
 30
0.0
 40
0.125
  0
CIRCLE
  5
19B
  8
THREADS_BRAUN_
 10
28.667856080719389
 20
28.3535280785387513
 30
0.0
 40
0.125
  0
CIRCLE
  5
19C
  8
THREADS_BRAUN_
 10
32.6678560807194032
 20
28.3535280785387513
 30
0.0
 40
0.125
  0
CIRCLE
  5
19D
  8
THREADS_BRAUN_
 10
24.6678560807193996
 20
30.3535280785387513
 30
0.0
 40
0.125
  0
CIRCLE
  5
19E
  8
THREADS_BRAUN_
 10
28.667856080719389
 20
30.3535280785387513
 30
0.0
 40
0.125
  0
CIRCLE
  5
19F
  8
THREADS_BRAUN_
 10
32.6678560807194032
 20
30.3535280785387513
 30
0.0
 40
0.125
  0
CIRCLE
  5
1A0
  8
THREADS_BRAUN_
 10
24.6678560807193996
 20
32.3535280785387513
 30
0.0
 40
0.125
  0
CIRCLE
  5
1A1
  8
THREADS_BRAUN_
 10
28.667856080719389
 20
32.3535280785387513
 30
0.0
 40
0.125
  0
CIRCLE
  5
1A2
  8
THREADS_BRAUN_
 10
32.6678560807194032
 20
32.3535280785387513
 30
0.0
 40
0.125
  0
CIRCLE
  5
1A3
  8
THREADS_BRAUN_
 10
12.6678560807193996
 20
32.3535280785387513
 30
0.0
 40
0.125
  0
CIRCLE
  5
1A4
  8
THREADS_BRAUN_
 10
16.667856080719389
 20
32.3535280785387513
 30
0.0
 40
0.125
  0
CIRCLE
  5
1A5
  8
THREADS_BRAUN_
 10
20.6678560807193996
 20
32.3535280785387513
 30
0.0
 40
0.125
  0
CIRCLE
  5
1A6
  8
THREADS_BRAUN_
 10
12.6678560807193996
 20
30.3535280785387513
 30
0.0
 40
0.125
  0
CIRCLE
  5
1A7
  8
THREADS_BRAUN_
 10
16.667856080719389
 20
30.3535280785387513
 30
0.0
 40
0.125
  0
CIRCLE
  5
1A8
  8
THREADS_BRAUN_
 10
20.6678560807193996
 20
30.3535280785387513
 30
0.0
 40
0.125
  0
CIRCLE
  5
1A9
  8
THREADS_BRAUN_
 10
12.6678560807193996
 20
28.3535280785387513
 30
0.0
 40
0.125
  0
CIRCLE
  5
1AA
  8
THREADS_BRAUN_
 10
16.667856080719389
 20
28.3535280785387513
 30
0.0
 40
0.125
  0
CIRCLE
  5
1AB
  8
THREADS_BRAUN_
 10
20.6678560807193996
 20
28.3535280785387513
 30
0.0
 40
0.125
  0
CIRCLE
  5
1AC
  8
THREADS_BRAUN_
 10
12.6678560807193996
 20
26.3535280785387513
 30
0.0
 40
0.125
  0
CIRCLE
  5
1AD
  8
THREADS_BRAUN_
 10
16.667856080719389
 20
26.3535280785387513
 30
0.0
 40
0.125
  0
CIRCLE
  5
1AE
  8
THREADS_BRAUN_
 10
20.6678560807193996
 20
26.3535280785387513
 30
0.0
 40
0.125
  0
CIRCLE
  5
1AF
  8
THREADS_BRAUN_
 10
12.6678560807193996
 20
24.3535280785387513
 30
0.0
 40
0.125
  0
CIRCLE
  5
1B0
  8
THREADS_BRAUN_
 10
16.667856080719389
 20
24.3535280785387513
 30
0.0
 40
0.125
  0
CIRCLE
  5
1B1
  8
THREADS_BRAUN_
 10
20.6678560807193996
 20
24.3535280785387513
 30
0.0
 40
0.125
  0
CIRCLE
  5
1B2
  8
THREADS_BRAUN_
 10
18.667856080719389
 20
24.3535280785387513
 30
0.0
 40
0.125
  0
CIRCLE
  5
1B3
  8
THREADS_BRAUN_
 10
14.6678560807193907
 20
24.3535280785387513
 30
0.0
 40
0.125
  0
CIRCLE
  5
1B4
  8
THREADS_BRAUN_
 10
10.6678560807193996
 20
24.3535280785387513
 30
0.0
 40
0.125
  0
CIRCLE
  5
1B5
  8
THREADS_BRAUN_
 10
18.667856080719389
 20
26.3535280785387513
 30
0.0
 40
0.125
  0
CIRCLE
  5
1B6
  8
THREADS_BRAUN_
 10
14.6678560807193907
 20
26.3535280785387513
 30
0.0
 40
0.125
  0
CIRCLE
  5
1B7
  8
THREADS_BRAUN_
 10
10.6678560807193996
 20
26.3535280785387513
 30
0.0
 40
0.125
  0
CIRCLE
  5
1B8
  8
THREADS_BRAUN_
 10
18.667856080719389
 20
28.3535280785387513
 30
0.0
 40
0.125
  0
CIRCLE
  5
1B9
  8
THREADS_BRAUN_
 10
14.6678560807193907
 20
28.3535280785387513
 30
0.0
 40
0.125
  0
CIRCLE
  5
1BA
  8
THREADS_BRAUN_
 10
10.6678560807193996
 20
28.3535280785387513
 30
0.0
 40
0.125
  0
CIRCLE
  5
1BB
  8
THREADS_BRAUN_
 10
18.667856080719389
 20
30.3535280785387513
 30
0.0
 40
0.125
  0
CIRCLE
  5
1BC
  8
THREADS_BRAUN_
 10
14.6678560807193907
 20
30.3535280785387513
 30
0.0
 40
0.125
  0
CIRCLE
  5
1BD
  8
THREADS_BRAUN_
 10
10.6678560807193996
 20
30.3535280785387513
 30
0.0
 40
0.125
  0
CIRCLE
  5
1BE
  8
THREADS_BRAUN_
 10
18.667856080719389
 20
32.3535280785387513
 30
0.0
 40
0.125
  0
CIRCLE
  5
1BF
  8
THREADS_BRAUN_
 10
14.6678560807193907
 20
32.3535280785387513
 30
0.0
 40
0.125
  0
CIRCLE
  5
1C0
  8
THREADS_BRAUN_
 10
10.6678560807193996
 20
32.3535280785387513
 30
0.0
 40
0.125
  0
CIRCLE
  5
1C1
  8
THREADS_BRAUN_
 10
30.6678560807193996
 20
32.3535280785387513
 30
0.0
 40
0.125
  0
CIRCLE
  5
1C2
  8
THREADS_BRAUN_
 10
26.6678560807193996
 20
32.3535280785387513
 30
0.0
 40
0.125
  0
CIRCLE
  5
1C3
  8
THREADS_BRAUN_
 10
22.667856080719389
 20
32.3535280785387513
 30
0.0
 40
0.125
  0
CIRCLE
  5
1C4
  8
THREADS_BRAUN_
 10
30.6678560807193996
 20
30.3535280785387513
 30
0.0
 40
0.125
  0
CIRCLE
  5
1C5
  8
THREADS_BRAUN_
 10
26.6678560807193996
 20
30.3535280785387513
 30
0.0
 40
0.125
  0
CIRCLE
  5
1C6
  8
THREADS_BRAUN_
 10
22.667856080719389
 20
30.3535280785387513
 30
0.0
 40
0.125
  0
CIRCLE
  5
1C7
  8
THREADS_BRAUN_
 10
30.6678560807193996
 20
28.3535280785387513
 30
0.0
 40
0.125
  0
CIRCLE
  5
1C8
  8
THREADS_BRAUN_
 10
26.6678560807193996
 20
28.3535280785387513
 30
0.0
 40
0.125
  0
CIRCLE
  5
1C9
  8
THREADS_BRAUN_
 10
22.667856080719389
 20
28.3535280785387513
 30
0.0
 40
0.125
  0
CIRCLE
  5
1CA
  8
THREADS_BRAUN_
 10
30.6678560807193996
 20
26.3535280785387513
 30
0.0
 40
0.125
  0
CIRCLE
  5
1CB
  8
THREADS_BRAUN_
 10
26.6678560807193996
 20
26.3535280785387513
 30
0.0
 40
0.125
  0
CIRCLE
  5
1CC
  8
THREADS_BRAUN_
 10
22.667856080719389
 20
26.3535280785387513
 30
0.0
 40
0.125
  0
CIRCLE
  5
1CD
  8
THREADS_BRAUN_
 10
30.6678560807193996
 20
24.3535280785387513
 30
0.0
 40
0.125
  0
CIRCLE
  5
1CE
  8
THREADS_BRAUN_
 10
26.6678560807193996
 20
24.3535280785387513
 30
0.0
 40
0.125
  0
CIRCLE
  5
1CF
  8
THREADS_BRAUN_
 10
22.667856080719389
 20
24.3535280785387513
 30
0.0
 40
0.125
  0
CIRCLE
  5
1D0
  8
THREADS_BRAUN_
 10
24.6678560807193996
 20
22.3535280785387513
 30
0.0
 40
0.125
  0
CIRCLE
  5
1D1
  8
THREADS_BRAUN_
 10
28.667856080719389
 20
22.3535280785387585
 30
0.0
 40
0.125
  0
CIRCLE
  5
1D2
  8
THREADS_BRAUN_
 10
32.6678560807194032
 20
22.3535280785387585
 30
0.0
 40
0.125
  0
CIRCLE
  5
1D3
  8
THREADS_BRAUN_
 10
24.6678560807193996
 20
20.3535280785387513
 30
0.0
 40
0.125
  0
CIRCLE
  5
1D4
  8
THREADS_BRAUN_
 10
28.667856080719389
 20
20.3535280785387513
 30
0.0
 40
0.125
  0
CIRCLE
  5
1D5
  8
THREADS_BRAUN_
 10
32.6678560807194032
 20
20.3535280785387585
 30
0.0
 40
0.125
  0
CIRCLE
  5
1D6
  8
THREADS_BRAUN_
 10
24.6678560807193996
 20
18.3535280785387513
 30
0.0
 40
0.125
  0
CIRCLE
  5
1D7
  8
THREADS_BRAUN_
 10
28.667856080719389
 20
18.3535280785387513
 30
0.0
 40
0.125
  0
CIRCLE
  5
1D8
  8
THREADS_BRAUN_
 10
32.6678560807194032
 20
18.3535280785387513
 30
0.0
 40
0.125
  0
CIRCLE
  5
1D9
  8
THREADS_BRAUN_
 10
24.6678560807193996
 20
16.3535280785387513
 30
0.0
 40
0.125
  0
CIRCLE
  5
1DA
  8
THREADS_BRAUN_
 10
28.667856080719389
 20
16.3535280785387585
 30
0.0
 40
0.125
  0
CIRCLE
  5
1DB
  8
THREADS_BRAUN_
 10
32.6678560807194032
 20
16.3535280785387585
 30
0.0
 40
0.125
  0
CIRCLE
  5
1DC
  8
THREADS_BRAUN_
 10
24.6678560807193996
 20
14.3535280785387496
 30
0.0
 40
0.125
  0
CIRCLE
  5
1DD
  8
THREADS_BRAUN_
 10
28.6678560807194103
 20
14.3535280785387602
 30
0.0
 40
0.125
  0
CIRCLE
  5
1DE
  8
THREADS_BRAUN_
 10
32.6678560807194032
 20
14.3535280785387602
 30
0.0
 40
0.125
  0
CIRCLE
  5
1DF
  8
THREADS_BRAUN_
 10
12.6678560807193996
 20
14.3535280785387496
 30
0.0
 40
0.125
  0
CIRCLE
  5
1E0
  8
THREADS_BRAUN_
 10
16.6678560807193996
 20
14.3535280785387496
 30
0.0
 40
0.125
  0
CIRCLE
  5
1E1
  8
THREADS_BRAUN_
 10
20.6678560807193996
 20
14.3535280785387496
 30
0.0
 40
0.125
  0
CIRCLE
  5
1E2
  8
THREADS_BRAUN_
 10
12.6678560807193996
 20
16.3535280785387513
 30
0.0
 40
0.125
  0
CIRCLE
  5
1E3
  8
THREADS_BRAUN_
 10
16.6678560807193996
 20
16.3535280785387513
 30
0.0
 40
0.125
  0
CIRCLE
  5
1E4
  8
THREADS_BRAUN_
 10
20.6678560807193996
 20
16.3535280785387513
 30
0.0
 40
0.125
  0
CIRCLE
  5
1E5
  8
THREADS_BRAUN_
 10
12.6678560807193996
 20
18.3535280785387513
 30
0.0
 40
0.125
  0
CIRCLE
  5
1E6
  8
THREADS_BRAUN_
 10
16.6678560807193996
 20
18.3535280785387513
 30
0.0
 40
0.125
  0
CIRCLE
  5
1E7
  8
THREADS_BRAUN_
 10
20.6678560807193996
 20
18.3535280785387513
 30
0.0
 40
0.125
  0
CIRCLE
  5
1E8
  8
THREADS_BRAUN_
 10
12.6678560807193996
 20
20.3535280785387513
 30
0.0
 40
0.125
  0
CIRCLE
  5
1E9
  8
THREADS_BRAUN_
 10
16.6678560807193996
 20
20.3535280785387513
 30
0.0
 40
0.125
  0
CIRCLE
  5
1EA
  8
THREADS_BRAUN_
 10
20.6678560807193996
 20
20.3535280785387513
 30
0.0
 40
0.125
  0
CIRCLE
  5
1EB
  8
THREADS_BRAUN_
 10
12.6678560807193996
 20
22.3535280785387513
 30
0.0
 40
0.125
  0
CIRCLE
  5
1EC
  8
THREADS_BRAUN_
 10
16.6678560807193996
 20
22.3535280785387513
 30
0.0
 40
0.125
  0
CIRCLE
  5
1ED
  8
THREADS_BRAUN_
 10
20.6678560807193996
 20
22.3535280785387513
 30
0.0
 40
0.125
  0
CIRCLE
  5
1EE
  8
VISIBLE_EDGES_BRAUN_
 10
21.6678560807193996
 20
23.3535280785387513
 30
0.0
 40
0.2362204724409449
  0
CIRCLE
  5
1EF
  8
VISIBLE_EDGES_BRAUN_
 10
21.6678560807193996
 20
23.3535280785387513
 30
0.0
 40
0.11
  0
CIRCLE
  5
1F0
  8
VISIBLE_EDGES_BRAUN_
 10
27.667856080719389
 20
34.573028078538762
 30
0.0
 40
0.2362204724409449
  0
CIRCLE
  5
1F1
  8
VISIBLE_EDGES_BRAUN_
 10
27.667856080719389
 20
34.573028078538762
 30
0.0
 40
0.11
  0
CIRCLE
  5
1F2
  8
VISIBLE_EDGES_BRAUN_
 10
35.2493560807194015
 20
17.3535280785387513
 30
0.0
 40
0.2362204724409449
  0
CIRCLE
  5
1F3
  8
VISIBLE_EDGES_BRAUN_
 10
35.2493560807194015
 20
17.3535280785387513
 30
0.0
 40
0.11
  0
CIRCLE
  5
1F4
  8
VISIBLE_EDGES_BRAUN_
 10
15.6678560807193996
 20
12.1340280785387407
 30
0.0
 40
0.2362204724409449
  0
CIRCLE
  5
1F5
  8
VISIBLE_EDGES_BRAUN_
 10
15.6678560807193996
 20
12.1340280785387407
 30
0.0
 40
0.11
  0
CIRCLE
  5
1F6
  8
VISIBLE_EDGES_BRAUN_
 10
8.0863560807193995
 20
29.3535280785387513
 30
0.0
 40
0.2362204724409449
  0
CIRCLE
  5
1F7
  8
VISIBLE_EDGES_BRAUN_
 10
8.0863560807193995
 20
29.3535280785387513
 30
0.0
 40
0.11
  0
CIRCLE
  5
1F8
  8
VISIBLE_EDGES_BRAUN_
 10
35.2493560807194015
 20
23.3535280785387513
 30
0.0
 40
0.2362204724409449
  0
CIRCLE
  5
1F9
  8
VISIBLE_EDGES_BRAUN_
 10
35.2493560807194015
 20
23.3535280785387513
 30
0.0
 40
0.11
  0
CIRCLE
  5
1FA
  8
VISIBLE_EDGES_BRAUN_
 10
8.0863560807193995
 20
23.3535280785387513
 30
0.0
 40
0.2362204724409449
  0
CIRCLE
  5
1FB
  8
VISIBLE_EDGES_BRAUN_
 10
8.0863560807193995
 20
23.3535280785387513
 30
0.0
 40
0.11
  0
CIRCLE
  5
1FC
  8
VISIBLE_EDGES_BRAUN_
 10
15.6678560807193907
 20
34.573028078538762
 30
0.0
 40
0.2362204724409449
  0
CIRCLE
  5
1FD
  8
VISIBLE_EDGES_BRAUN_
 10
15.6678560807193907
 20
34.573028078538762
 30
0.0
 40
0.11
  0
CIRCLE
  5
1FE
  8
VISIBLE_EDGES_BRAUN_
 10
35.2493560807194015
 20
29.3535280785387513
 30
0.0
 40
0.2362204724409449
  0
CIRCLE
  5
1FF
  8
VISIBLE_EDGES_BRAUN_
 10
35.2493560807194015
 20
29.3535280785387513
 30
0.0
 40
0.11
  0
CIRCLE
  5
200
  8
VISIBLE_EDGES_BRAUN_
 10
8.0863560807193995
 20
17.3535280785387513
 30
0.0
 40
0.2362204724409449
  0
CIRCLE
  5
201
  8
VISIBLE_EDGES_BRAUN_
 10
8.0863560807193995
 20
17.3535280785387513
 30
0.0
 40
0.11
  0
CIRCLE
  5
202
  8
VISIBLE_EDGES_BRAUN_
 10
27.667856080719389
 20
12.1340280785387407
 30
0.0
 40
0.2362204724409449
  0
CIRCLE
  5
203
  8
VISIBLE_EDGES_BRAUN_
 10
27.667856080719389
 20
12.1340280785387407
 30
0.0
 40
0.11
  0
CIRCLE
  5
204
  8
VISIBLE_EDGES_BRAUN_
 10
21.667856080719389
 20
31.3535280785387513
 30
0.0
 40
0.2362204724409449
  0
CIRCLE
  5
205
  8
VISIBLE_EDGES_BRAUN_
 10
21.667856080719389
 20
31.3535280785387513
 30
0.0
 40
0.11
  0
CIRCLE
  5
206
  8
VISIBLE_EDGES_BRAUN_
 10
21.6678560807193996
 20
15.3535280785387496
 30
0.0
 40
0.2362204724409449
  0
CIRCLE
  5
207
  8
VISIBLE_EDGES_BRAUN_
 10
21.6678560807193996
 20
15.3535280785387496
 30
0.0
 40
0.11
  0
CIRCLE
  5
208
  8
VISIBLE_EDGES_BRAUN_
 10
32.0863560807193906
 20
34.573028078538762
 30
0.0
 40
0.11
  0
CIRCLE
  5
209
  8
VISIBLE_EDGES_BRAUN_
 10
32.0863560807193977
 20
36.184028078538752
 30
0.0
 40
0.11
  0
CIRCLE
  5
20A
  8
VISIBLE_EDGES_BRAUN_
 10
35.2493560807194015
 20
34.573028078538762
 30
0.0
 40
0.11
  0
CIRCLE
  5
20B
  8
VISIBLE_EDGES_BRAUN_
 10
35.2493560807194015
 20
36.184028078538752
 30
0.0
 40
0.11
  0
CIRCLE
  5
20C
  8
VISIBLE_EDGES_BRAUN_
 10
32.0863560807193906
 20
12.1340280785387495
 30
0.0
 40
0.11
  0
CIRCLE
  5
20D
  8
VISIBLE_EDGES_BRAUN_
 10
32.0863560807193977
 20
10.5230280785387507
 30
0.0
 40
0.11
  0
CIRCLE
  5
20E
  8
VISIBLE_EDGES_BRAUN_
 10
35.2493560807194015
 20
12.1340280785387495
 30
0.0
 40
0.11
  0
CIRCLE
  5
20F
  8
VISIBLE_EDGES_BRAUN_
 10
35.2493560807194015
 20
10.5230280785387507
 30
0.0
 40
0.11
  0
CIRCLE
  5
210
  8
VISIBLE_EDGES_BRAUN_
 10
11.2493560807193997
 20
34.573028078538762
 30
0.0
 40
0.11
  0
CIRCLE
  5
211
  8
VISIBLE_EDGES_BRAUN_
 10
11.2493560807193997
 20
36.184028078538752
 30
0.0
 40
0.11
  0
CIRCLE
  5
212
  8
VISIBLE_EDGES_BRAUN_
 10
8.0863560807193995
 20
34.573028078538762
 30
0.0
 40
0.11
  0
CIRCLE
  5
213
  8
VISIBLE_EDGES_BRAUN_
 10
8.0863560807193995
 20
36.184028078538752
 30
0.0
 40
0.11
  0
CIRCLE
  5
214
  8
VISIBLE_EDGES_BRAUN_
 10
11.2493560807193997
 20
12.1340280785387495
 30
0.0
 40
0.11
  0
CIRCLE
  5
215
  8
VISIBLE_EDGES_BRAUN_
 10
8.0863560807193995
 20
10.5230280785387507
 30
0.0
 40
0.11
  0
CIRCLE
  5
216
  8
VISIBLE_EDGES_BRAUN_
 10
8.0863560807193995
 20
12.1340280785387495
 30
0.0
 40
0.11
  0
CIRCLE
  5
217
  8
VISIBLE_EDGES_BRAUN_
 10
11.2493560807193997
 20
10.5230280785387507
 30
0.0
 40
0.11
  0
LINE
  5
218
  8
VISIBLE_EDGES_BRAUN_
 10
35.6678560807194032
 20
36.5285280785387627
 30
0.0
 11
35.6678560807194032
 21
10.1785280785387506
 31
0.0
  0
LINE
  5
219
  8
VISIBLE_EDGES_BRAUN_
 10
35.6678560807194032
 20
10.1785280785387506
 30
0.0
 11
7.6678560807193961
 21
10.1785280785387506
 31
0.0
  0
LINE
  5
21A
  8
VISIBLE_EDGES_BRAUN_
 10
7.6678560807193961
 20
10.1785280785387506
 30
0.0
 11
7.6678560807193934
 21
36.5285280785387414
 31
0.0
  0
LINE
  5
21B
  8
VISIBLE_EDGES_BRAUN_
 10
7.6678560807193934
 20
36.5285280785387485
 30
0.0
 11
35.667856080719389
 21
36.5285280785387627
 31
0.0
  0
ENDSEC
  0
EOF
