  0
SECTION
  2
HEADER
  9
$ACADVER
  1
AC1009
  9
$DWGCODEPAGE
  3
ansi_1252
  9
$INSBASE
 10
0.0
 20
0.0
 30
0.0
  9
$EXTMIN
 10
0.0624756477084176
 20
0.0
 30
0.0
  9
$EXTMAX
 10
32.0
 20
32.0
 30
0.0
  9
$LIMMIN
 10
0.0
 20
0.0
  9
$LIMMAX
 10
12.0
 20
9.0
  9
$ORTHOMODE
 70
     0
  9
$REGENMODE
 70
     1
  9
$FILLMODE
 70
     1
  9
$QTEXTMODE
 70
     0
  9
$MIRRTEXT
 70
     1
  9
$DRAGMODE
 70
     2
  9
$LTSCALE
 40
1.0
  9
$OSMODE
 70
    37
  9
$ATTMODE
 70
     1
  9
$TEXTSIZE
 40
0.2
  9
$TRACEWID
 40
0.05
  9
$TEXTSTYLE
  7
STANDARD
  9
$CLAYER
  8
0
  9
$CELTYPE
  6
BYLAYER
  9
$CECOLOR
 62
   256
  9
$DIMSCALE
 40
1.0
  9
$DIMASZ
 40
0.18
  9
$DIMEXO
 40
0.0625
  9
$DIMDLI
 40
0.38
  9
$DIMRND
 40
0.0
  9
$DIMDLE
 40
0.0
  9
$DIMEXE
 40
0.18
  9
$DIMTP
 40
0.0
  9
$DIMTM
 40
0.0
  9
$DIMTXT
 40
0.18
  9
$DIMCEN
 40
0.09
  9
$DIMTSZ
 40
0.0
  9
$DIMTOL
 70
     0
  9
$DIMLIM
 70
     0
  9
$DIMTIH
 70
     1
  9
$DIMTOH
 70
     1
  9
$DIMSE1
 70
     0
  9
$DIMSE2
 70
     0
  9
$DIMTAD
 70
     0
  9
$DIMZIN
 70
     0
  9
$DIMBLK
  1

  9
$DIMASO
 70
     1
  9
$DIMSHO
 70
     1
  9
$DIMPOST
  1

  9
$DIMAPOST
  1

  9
$DIMALT
 70
     0
  9
$DIMALTD
 70
     2
  9
$DIMALTF
 40
25.4
  9
$DIMLFAC
 40
1.0
  9
$DIMTOFL
 70
     0
  9
$DIMTVP
 40
0.0
  9
$DIMTIX
 70
     0
  9
$DIMSOXD
 70
     0
  9
$DIMSAH
 70
     0
  9
$DIMBLK1
  1

  9
$DIMBLK2
  1

  9
$DIMSTYLE
  2
STANDARD
  9
$DIMCLRD
 70
     0
  9
$DIMCLRE
 70
     0
  9
$DIMCLRT
 70
     0
  9
$DIMTFAC
 40
1.0
  9
$DIMGAP
 40
0.09
  9
$LUNITS
 70
     2
  9
$LUPREC
 70
     4
  9
$SKETCHINC
 40
0.1
  9
$FILLETRAD
 40
0.5
  9
$AUNITS
 70
     0
  9
$AUPREC
 70
     0
  9
$MENU
  1
.
  9
$ELEVATION
 40
0.0
  9
$PELEVATION
 40
0.0
  9
$THICKNESS
 40
0.0
  9
$LIMCHECK
 70
     0
  9
$CHAMFERA
 40
0.0
  9
$CHAMFERB
 40
0.0
  9
$SKPOLY
 70
     0
  9
$TDCREATE
 40
2454910.5
  9
$TDUPDATE
 40
2459268.615995324
  9
$TDINDWG
 40
0.0000000116
  9
$TDUSRTIMER
 40
0.0000000116
  9
$USRTIMER
 70
     1
  9
$ANGBASE
 50
0.0
  9
$ANGDIR
 70
     0
  9
$PDMODE
 70
     0
  9
$PDSIZE
 40
0.0
  9
$PLINEWID
 40
0.0
  9
$COORDS
 70
     1
  9
$SPLFRAME
 70
     0
  9
$SPLINETYPE
 70
     6
  9
$SPLINESEGS
 70
     8
  9
$ATTDIA
 70
     0
  9
$ATTREQ
 70
     1
  9
$HANDLING
 70
     1
  9
$HANDSEED
  5
EFB
  9
$SURFTAB1
 70
     6
  9
$SURFTAB2
 70
     6
  9
$SURFTYPE
 70
     6
  9
$SURFU
 70
     6
  9
$SURFV
 70
     6
  9
$UCSNAME
  2

  9
$UCSORG
 10
0.0
 20
0.0
 30
0.0
  9
$UCSXDIR
 10
1.0
 20
0.0
 30
0.0
  9
$UCSYDIR
 10
0.0
 20
1.0
 30
0.0
  9
$PUCSNAME
  2

  9
$PUCSORG
 10
0.0
 20
0.0
 30
0.0
  9
$PUCSXDIR
 10
1.0
 20
0.0
 30
0.0
  9
$PUCSYDIR
 10
0.0
 20
1.0
 30
0.0
  9
$USERI1
 70
     0
  9
$USERI2
 70
     0
  9
$USERI3
 70
     0
  9
$USERI4
 70
     0
  9
$USERI5
 70
     0
  9
$USERR1
 40
0.0
  9
$USERR2
 40
0.0
  9
$USERR3
 40
0.0
  9
$USERR4
 40
0.0
  9
$USERR5
 40
0.0
  9
$WORLDVIEW
 70
     1
  9
$SHADEDGE
 70
     3
  9
$SHADEDIF
 70
    70
  9
$TILEMODE
 70
     1
  9
$MAXACTVP
 70
    64
  9
$PLIMCHECK
 70
     0
  9
$PEXTMIN
 10
1.000000000000000E+20
 20
1.000000000000000E+20
 30
1.000000000000000E+20
  9
$PEXTMAX
 10
-1.000000000000000E+20
 20
-1.000000000000000E+20
 30
-1.000000000000000E+20
  9
$PLIMMIN
 10
0.0
 20
0.0
  9
$PLIMMAX
 10
12.0
 20
9.0
  9
$UNITMODE
 70
     0
  9
$VISRETAIN
 70
     1
  9
$PLINEGEN
 70
     0
  9
$PSLTSCALE
 70
     1
  0
ENDSEC
  0
SECTION
  2
TABLES
  0
TABLE
  2
VPORT
 70
     1
  0
VPORT
  2
*ACTIVE
 70
     0
 10
0.0
 20
0.0
 11
1.0
 21
1.0
 12
10.42990654205607
 22
4.5
 13
0.0
 23
0.0
 14
0.5
 24
0.5
 15
0.5
 25
0.5
 16
0.0
 26
0.0
 36
1.0
 17
0.0
 27
0.0
 37
0.0
 40
9.0
 41
1.972972972850329
 42
50.0
 43
0.0
 44
0.0
 50
0.0
 51
0.0
 71
     0
 72
   100
 73
     1
 74
     3
 75
     0
 76
     0
 77
     0
 78
     0
  0
ENDTAB
  0
TABLE
  2
LTYPE
 70
     2
  0
LTYPE
  2
CONTINUOUS
 70
     0
  3
Solid line
 72
    65
 73
     0
 40
0.0
  0
LTYPE
  2
CONTINUOUS2
 70
     0
  3
Solid Line
 72
    65
 73
     0
 40
0.0
  0
ENDTAB
  0
TABLE
  2
LAYER
 70
     4
  0
LAYER
  2
0
 70
     0
 62
     7
  6
CONTINUOUS
  0
LAYER
  2
VERTIICAL_LINES
 70
     0
 62
     7
  6
CONTINUOUS
  0
LAYER
  2
HORIZONTAL_LINES
 70
     0
 62
     7
  6
CONTINUOUS
  0
LAYER
  2
RULER
 70
     0
 62
     7
  6
CONTINUOUS
  0
ENDTAB
  0
TABLE
  2
STYLE
 70
     1
  0
STYLE
  2
STANDARD
 70
     0
 40
0.0
 41
1.0
 50
0.0
 71
     0
 42
0.2
  3
txt
  4

  0
ENDTAB
  0
TABLE
  2
VIEW
 70
     0
  0
ENDTAB
  0
TABLE
  2
UCS
 70
     0
  0
ENDTAB
  0
TABLE
  2
APPID
 70
     1
  0
APPID
  2
ACAD
 70
     0
  0
ENDTAB
  0
TABLE
  2
DIMSTYLE
 70
     1
  0
DIMSTYLE
  2
STANDARD
 70
     0
  3

  4

  5

  6

  7

 40
1.0
 41
0.18
 42
0.0625
 43
0.38
 44
0.18
 45
0.0
 46
0.0
 47
0.0
 48
0.0
140
0.18
141
0.09
142
0.0
143
25.4
144
1.0
145
0.0
146
1.0
147
0.09
 71
     0
 72
     0
 73
     1
 74
     1
 75
     0
 76
     0
 77
     0
 78
     0
170
     0
171
     2
172
     0
173
     0
174
     0
175
     0
176
     0
177
     0
178
     0
  0
ENDTAB
  0
ENDSEC
  0
SECTION
  2
BLOCKS
  0
BLOCK
  8
0
  2
$MODEL_SPACE
 70
     0
 10
0.0
 20
0.0
 30
0.0
  3
$MODEL_SPACE
  1

  0
ENDBLK
  5
21
  8
0
  0
BLOCK
 67
     1
  8
0
  2
$PAPER_SPACE
 70
     0
 10
0.0
 20
0.0
 30
0.0
  3
$PAPER_SPACE
  1

  0
ENDBLK
  5
1D
 67
     1
  8
0
  0
ENDSEC
  0
SECTION
  2
ENTITIES
  0
POLYLINE
  5
70
  8
VERTIICAL_LINES
 66
     1
 10
0.0
 20
0.0
 30
0.0
  0
VERTEX
  5
30E
  8
VERTIICAL_LINES
 10
4.062524352312646
 20
32.0
 30
0.0
  0
VERTEX
  5
30F
  8
VERTIICAL_LINES
 10
4.062524352291579
 20
0.0
 30
0.0
  0
SEQEND
  5
C66
  8
VERTIICAL_LINES
  0
POLYLINE
  5
71
  8
VERTIICAL_LINES
 66
     1
 10
0.0
 20
0.0
 30
0.0
  0
VERTEX
  5
310
  8
VERTIICAL_LINES
 10
6.062524352312646
 20
32.0
 30
0.0
  0
VERTEX
  5
311
  8
VERTIICAL_LINES
 10
6.062524352291579
 20
0.0
 30
0.0
  0
SEQEND
  5
C67
  8
VERTIICAL_LINES
  0
POLYLINE
  5
72
  8
VERTIICAL_LINES
 66
     1
 10
0.0
 20
0.0
 30
0.0
  0
VERTEX
  5
312
  8
VERTIICAL_LINES
 10
8.062524352312646
 20
32.0
 30
0.0
  0
VERTEX
  5
313
  8
VERTIICAL_LINES
 10
8.062524352291579
 20
0.0
 30
0.0
  0
SEQEND
  5
C68
  8
VERTIICAL_LINES
  0
POLYLINE
  5
73
  8
VERTIICAL_LINES
 66
     1
 10
0.0
 20
0.0
 30
0.0
  0
VERTEX
  5
314
  8
VERTIICAL_LINES
 10
10.06252435231265
 20
32.0
 30
0.0
  0
VERTEX
  5
315
  8
VERTIICAL_LINES
 10
10.06252435229158
 20
0.0
 30
0.0
  0
SEQEND
  5
C69
  8
VERTIICAL_LINES
  0
POLYLINE
  5
74
  8
VERTIICAL_LINES
 66
     1
 10
0.0
 20
0.0
 30
0.0
  0
VERTEX
  5
316
  8
VERTIICAL_LINES
 10
12.06252435231265
 20
32.0
 30
0.0
  0
VERTEX
  5
317
  8
VERTIICAL_LINES
 10
12.06252435229158
 20
0.0
 30
0.0
  0
SEQEND
  5
C6A
  8
VERTIICAL_LINES
  0
POLYLINE
  5
75
  8
VERTIICAL_LINES
 66
     1
 10
0.0
 20
0.0
 30
0.0
  0
VERTEX
  5
318
  8
VERTIICAL_LINES
 10
14.06252435231265
 20
32.0
 30
0.0
  0
VERTEX
  5
319
  8
VERTIICAL_LINES
 10
14.06252435229158
 20
0.0
 30
0.0
  0
SEQEND
  5
C6B
  8
VERTIICAL_LINES
  0
POLYLINE
  5
76
  8
VERTIICAL_LINES
 66
     1
 10
0.0
 20
0.0
 30
0.0
  0
VERTEX
  5
31A
  8
VERTIICAL_LINES
 10
16.06252435231265
 20
32.0
 30
0.0
  0
VERTEX
  5
31B
  8
VERTIICAL_LINES
 10
16.06252435229158
 20
0.0
 30
0.0
  0
SEQEND
  5
C6C
  8
VERTIICAL_LINES
  0
POLYLINE
  5
77
  8
VERTIICAL_LINES
 66
     1
 10
0.0
 20
0.0
 30
0.0
  0
VERTEX
  5
31C
  8
VERTIICAL_LINES
 10
18.06252435231265
 20
32.0
 30
0.0
  0
VERTEX
  5
31D
  8
VERTIICAL_LINES
 10
18.06252435229158
 20
0.0
 30
0.0
  0
SEQEND
  5
C6D
  8
VERTIICAL_LINES
  0
POLYLINE
  5
78
  8
VERTIICAL_LINES
 66
     1
 10
0.0
 20
0.0
 30
0.0
  0
VERTEX
  5
31E
  8
VERTIICAL_LINES
 10
20.06252435231265
 20
32.0
 30
0.0
  0
VERTEX
  5
31F
  8
VERTIICAL_LINES
 10
20.06252435229158
 20
0.0
 30
0.0
  0
SEQEND
  5
C6E
  8
VERTIICAL_LINES
  0
POLYLINE
  5
79
  8
VERTIICAL_LINES
 66
     1
 10
0.0
 20
0.0
 30
0.0
  0
VERTEX
  5
320
  8
VERTIICAL_LINES
 10
22.06252435231265
 20
32.0
 30
0.0
  0
VERTEX
  5
321
  8
VERTIICAL_LINES
 10
22.06252435229158
 20
0.0
 30
0.0
  0
SEQEND
  5
C6F
  8
VERTIICAL_LINES
  0
POLYLINE
  5
7A
  8
VERTIICAL_LINES
 66
     1
 10
0.0
 20
0.0
 30
0.0
  0
VERTEX
  5
322
  8
VERTIICAL_LINES
 10
24.06252435231265
 20
32.0
 30
0.0
  0
VERTEX
  5
323
  8
VERTIICAL_LINES
 10
24.06252435229158
 20
0.0
 30
0.0
  0
SEQEND
  5
C70
  8
VERTIICAL_LINES
  0
POLYLINE
  5
7B
  8
VERTIICAL_LINES
 66
     1
 10
0.0
 20
0.0
 30
0.0
  0
VERTEX
  5
324
  8
VERTIICAL_LINES
 10
26.06252435231265
 20
32.0
 30
0.0
  0
VERTEX
  5
325
  8
VERTIICAL_LINES
 10
26.06252435229158
 20
0.0
 30
0.0
  0
SEQEND
  5
C71
  8
VERTIICAL_LINES
  0
POLYLINE
  5
7C
  8
VERTIICAL_LINES
 66
     1
 10
0.0
 20
0.0
 30
0.0
  0
VERTEX
  5
326
  8
VERTIICAL_LINES
 10
28.06252435231265
 20
32.0
 30
0.0
  0
VERTEX
  5
327
  8
VERTIICAL_LINES
 10
28.06252435229158
 20
0.0
 30
0.0
  0
SEQEND
  5
C72
  8
VERTIICAL_LINES
  0
POLYLINE
  5
7D
  8
VERTIICAL_LINES
 66
     1
 10
0.0
 20
0.0
 30
0.0
  0
VERTEX
  5
328
  8
VERTIICAL_LINES
 10
30.06252435231265
 20
32.0
 30
0.0
  0
VERTEX
  5
329
  8
VERTIICAL_LINES
 10
30.06252435229158
 20
0.0
 30
0.0
  0
SEQEND
  5
C73
  8
VERTIICAL_LINES
  0
POLYLINE
  5
7E
  8
VERTIICAL_LINES
 66
     1
 10
0.0
 20
0.0
 30
0.0
  0
VERTEX
  5
32A
  8
VERTIICAL_LINES
 10
2.062524352312646
 20
32.0
 30
0.0
  0
VERTEX
  5
32B
  8
VERTIICAL_LINES
 10
2.062524352291579
 20
0.0
 30
0.0
  0
SEQEND
  5
C74
  8
VERTIICAL_LINES
  0
POLYLINE
  5
80
  8
HORIZONTAL_LINES
 66
     1
 10
0.0
 20
0.0
 30
0.0
  0
VERTEX
  5
32C
  8
HORIZONTAL_LINES
 10
0.0625243522915788
 20
2.00000000005771
 30
0.0
  0
VERTEX
  5
32D
  8
HORIZONTAL_LINES
 10
32.0
 20
2.0
 30
0.0
  0
SEQEND
  5
C75
  8
HORIZONTAL_LINES
  0
POLYLINE
  5
81
  8
HORIZONTAL_LINES
 66
     1
 10
0.0
 20
0.0
 30
0.0
  0
VERTEX
  5
32E
  8
HORIZONTAL_LINES
 10
0.0625243522915788
 20
4.00000000005771
 30
0.0
  0
VERTEX
  5
32F
  8
HORIZONTAL_LINES
 10
32.0
 20
4.0
 30
0.0
  0
SEQEND
  5
C76
  8
HORIZONTAL_LINES
  0
POLYLINE
  5
82
  8
HORIZONTAL_LINES
 66
     1
 10
0.0
 20
0.0
 30
0.0
  0
VERTEX
  5
330
  8
HORIZONTAL_LINES
 10
0.0625243522915788
 20
6.00000000005771
 30
0.0
  0
VERTEX
  5
331
  8
HORIZONTAL_LINES
 10
32.0
 20
6.0
 30
0.0
  0
SEQEND
  5
C77
  8
HORIZONTAL_LINES
  0
POLYLINE
  5
83
  8
HORIZONTAL_LINES
 66
     1
 10
0.0
 20
0.0
 30
0.0
  0
VERTEX
  5
332
  8
HORIZONTAL_LINES
 10
0.0625243522915788
 20
8.00000000005771
 30
0.0
  0
VERTEX
  5
333
  8
HORIZONTAL_LINES
 10
32.0
 20
8.0
 30
0.0
  0
SEQEND
  5
C78
  8
HORIZONTAL_LINES
  0
POLYLINE
  5
84
  8
HORIZONTAL_LINES
 66
     1
 10
0.0
 20
0.0
 30
0.0
  0
VERTEX
  5
334
  8
HORIZONTAL_LINES
 10
0.0625243522915788
 20
10.00000000005771
 30
0.0
  0
VERTEX
  5
335
  8
HORIZONTAL_LINES
 10
32.0
 20
10.0
 30
0.0
  0
SEQEND
  5
C79
  8
HORIZONTAL_LINES
  0
POLYLINE
  5
85
  8
HORIZONTAL_LINES
 66
     1
 10
0.0
 20
0.0
 30
0.0
  0
VERTEX
  5
336
  8
HORIZONTAL_LINES
 10
0.0625243522915788
 20
12.00000000005771
 30
0.0
  0
VERTEX
  5
337
  8
HORIZONTAL_LINES
 10
32.0
 20
12.0
 30
0.0
  0
SEQEND
  5
C7A
  8
HORIZONTAL_LINES
  0
POLYLINE
  5
86
  8
HORIZONTAL_LINES
 66
     1
 10
0.0
 20
0.0
 30
0.0
  0
VERTEX
  5
338
  8
HORIZONTAL_LINES
 10
0.0625243522915788
 20
14.00000000005771
 30
0.0
  0
VERTEX
  5
339
  8
HORIZONTAL_LINES
 10
32.0
 20
14.0
 30
0.0
  0
SEQEND
  5
C7B
  8
HORIZONTAL_LINES
  0
POLYLINE
  5
87
  8
HORIZONTAL_LINES
 66
     1
 10
0.0
 20
0.0
 30
0.0
  0
VERTEX
  5
33A
  8
HORIZONTAL_LINES
 10
0.0625243522915788
 20
16.00000000005771
 30
0.0
  0
VERTEX
  5
33B
  8
HORIZONTAL_LINES
 10
32.0
 20
16.0
 30
0.0
  0
SEQEND
  5
C7C
  8
HORIZONTAL_LINES
  0
POLYLINE
  5
88
  8
HORIZONTAL_LINES
 66
     1
 10
0.0
 20
0.0
 30
0.0
  0
VERTEX
  5
33C
  8
HORIZONTAL_LINES
 10
0.0625243522915788
 20
18.00000000005771
 30
0.0
  0
VERTEX
  5
33D
  8
HORIZONTAL_LINES
 10
32.0
 20
18.0
 30
0.0
  0
SEQEND
  5
C7D
  8
HORIZONTAL_LINES
  0
POLYLINE
  5
89
  8
HORIZONTAL_LINES
 66
     1
 10
0.0
 20
0.0
 30
0.0
  0
VERTEX
  5
33E
  8
HORIZONTAL_LINES
 10
0.0625243522915788
 20
20.00000000005771
 30
0.0
  0
VERTEX
  5
33F
  8
HORIZONTAL_LINES
 10
32.0
 20
20.0
 30
0.0
  0
SEQEND
  5
C7E
  8
HORIZONTAL_LINES
  0
POLYLINE
  5
8A
  8
HORIZONTAL_LINES
 66
     1
 10
0.0
 20
0.0
 30
0.0
  0
VERTEX
  5
340
  8
HORIZONTAL_LINES
 10
0.0625243522915788
 20
22.00000000005771
 30
0.0
  0
VERTEX
  5
341
  8
HORIZONTAL_LINES
 10
32.0
 20
22.0
 30
0.0
  0
SEQEND
  5
C7F
  8
HORIZONTAL_LINES
  0
POLYLINE
  5
8B
  8
HORIZONTAL_LINES
 66
     1
 10
0.0
 20
0.0
 30
0.0
  0
VERTEX
  5
342
  8
HORIZONTAL_LINES
 10
0.0625243522915788
 20
24.00000000005771
 30
0.0
  0
VERTEX
  5
343
  8
HORIZONTAL_LINES
 10
32.0
 20
24.0
 30
0.0
  0
SEQEND
  5
C80
  8
HORIZONTAL_LINES
  0
POLYLINE
  5
8C
  8
HORIZONTAL_LINES
 66
     1
 10
0.0
 20
0.0
 30
0.0
  0
VERTEX
  5
344
  8
HORIZONTAL_LINES
 10
0.0625243522915788
 20
26.00000000005771
 30
0.0
  0
VERTEX
  5
345
  8
HORIZONTAL_LINES
 10
32.0
 20
26.0
 30
0.0
  0
SEQEND
  5
C81
  8
HORIZONTAL_LINES
  0
POLYLINE
  5
8D
  8
HORIZONTAL_LINES
 66
     1
 10
0.0
 20
0.0
 30
0.0
  0
VERTEX
  5
346
  8
HORIZONTAL_LINES
 10
0.0625243522915788
 20
28.00000000005771
 30
0.0
  0
VERTEX
  5
347
  8
HORIZONTAL_LINES
 10
32.0
 20
28.0
 30
0.0
  0
SEQEND
  5
C82
  8
HORIZONTAL_LINES
  0
POLYLINE
  5
8E
  8
HORIZONTAL_LINES
 66
     1
 10
0.0
 20
0.0
 30
0.0
  0
VERTEX
  5
348
  8
HORIZONTAL_LINES
 10
0.0625243522915788
 20
30.00000000005771
 30
0.0
  0
VERTEX
  5
349
  8
HORIZONTAL_LINES
 10
32.0
 20
30.0
 30
0.0
  0
SEQEND
  5
C83
  8
HORIZONTAL_LINES
  0
POLYLINE
  5
90
  8
RULER
 66
     1
 10
0.0
 20
0.0
 30
0.0
  0
VERTEX
  5
34A
  8
RULER
 10
2.133176289684127
 20
1.158804692479476
 30
0.0
 42
-0.4238676972146167
  0
VERTEX
  5
34B
  8
RULER
 10
2.208176289684127
 20
1.236304692479476
 30
0.0
 42
-0.4139114804918755
  0
VERTEX
  5
34C
  8
RULER
 10
2.283176289684127
 20
1.161304692479476
 30
0.0
 42
-0.1946370063820205
  0
VERTEX
  5
34D
  8
RULER
 10
2.260676289684127
 20
1.108804692479476
 30
0.0
  0
VERTEX
  5
34E
  8
RULER
 10
2.135676289684127
 20
0.9838046924794761
 30
0.0
  0
VERTEX
  5
34F
  8
RULER
 10
2.295676289684127
 20
0.9838046924794761
 30
0.0
  0
SEQEND
  5
C84
  8
RULER
  0
POLYLINE
  5
91
  8
RULER
 66
     1
 10
0.0
 20
0.0
 30
0.0
  0
VERTEX
  5
350
  8
RULER
 10
3.145676289684127
 20
1.173804692479476
 30
0.0
 42
-0.4548493327042687
  0
VERTEX
  5
351
  8
RULER
 10
3.200676289684127
 20
1.236804692479476
 30
0.0
 42
-0.4114350750726344
  0
VERTEX
  5
352
  8
RULER
 10
3.255676289684127
 20
1.181304692479476
 30
0.0
  0
VERTEX
  5
353
  8
RULER
 10
3.255676289684127
 20
1.173804692479476
 30
0.0
 42
-0.4121212121212124
  0
VERTEX
  5
354
  8
RULER
 10
3.200676289684127
 20
1.118804692479476
 30
0.0
  0
VERTEX
  5
355
  8
RULER
 10
3.188176289684127
 20
1.118804692479476
 30
0.0
  0
VERTEX
  5
356
  8
RULER
 10
3.203176289684127
 20
1.118804692479476
 30
0.0
 42
-0.4142857142857143
  0
VERTEX
  5
357
  8
RULER
 10
3.273176289684127
 20
1.048804692479476
 30
0.0
 42
-0.9462693881493045
  0
VERTEX
  5
358
  8
RULER
 10
3.133176289684127
 20
1.046304692479476
 30
0.0
  0
SEQEND
  5
C85
  8
RULER
  0
POLYLINE
  5
92
  8
RULER
 66
     1
 10
0.0
 20
0.0
 30
0.0
  0
VERTEX
  5
359
  8
RULER
 10
4.310676289684127
 20
1.028804692479476
 30
0.0
  0
VERTEX
  5
35A
  8
RULER
 10
4.133176289684127
 20
1.028804692479476
 30
0.0
  0
VERTEX
  5
35B
  8
RULER
 10
4.273176289684127
 20
1.233804692479476
 30
0.0
  0
VERTEX
  5
35C
  8
RULER
 10
4.273176289684127
 20
0.9838046924794761
 30
0.0
  0
SEQEND
  5
C86
  8
RULER
  0
POLYLINE
  5
93
  8
RULER
 66
     1
 10
0.0
 20
0.0
 30
0.0
  0
VERTEX
  5
35D
  8
RULER
 10
5.133176289684127
 20
1.061304692479476
 30
0.0
 42
0.8576084699939476
  0
VERTEX
  5
35E
  8
RULER
 10
5.300342956350794
 20
1.043804692479476
 30
0.0
 42
0.8394311096568591
  0
VERTEX
  5
35F
  8
RULER
 10
5.148176289684127
 20
1.113804692479476
 30
0.0
  0
VERTEX
  5
360
  8
RULER
 10
5.168176289684127
 20
1.233804692479476
 30
0.0
  0
VERTEX
  5
361
  8
RULER
 10
5.285676289684127
 20
1.233804692479476
 30
0.0
  0
SEQEND
  5
C87
  8
RULER
  0
POLYLINE
  5
94
  8
RULER
 66
     1
 10
0.0
 20
0.0
 30
0.0
 70
     1
  0
VERTEX
  5
362
  8
RULER
 10
6.218324679568195
 20
0.9813046924794762
 30
0.0
  0
VERTEX
  5
363
  8
RULER
 10
6.22701543579904
 20
0.9817435378974197
 30
0.0
  0
VERTEX
  5
364
  8
RULER
 10
6.235455144312601
 20
0.9830315903731324
 30
0.0
  0
VERTEX
  5
365
  8
RULER
 10
6.243601079441699
 20
0.9851261242394367
 30
0.0
  0
VERTEX
  5
366
  8
RULER
 10
6.251410515519158
 20
0.9879844138291549
 30
0.0
  0
VERTEX
  5
367
  8
RULER
 10
6.2588407268778
 20
0.99156373347511
 30
0.0
  0
VERTEX
  5
368
  8
RULER
 10
6.265848987850449
 20
0.9958213575101238
 30
0.0
  0
VERTEX
  5
369
  8
RULER
 10
6.272392572769924
 20
1.00071456026702
 30
0.0
  0
VERTEX
  5
36A
  8
RULER
 10
6.278428755969051
 20
1.006200616078619
 30
0.0
  0
VERTEX
  5
36B
  8
RULER
 10
6.283914811780651
 20
1.012236799277746
 30
0.0
  0
VERTEX
  5
36C
  8
RULER
 10
6.288808014537546
 20
1.018780384197222
 30
0.0
  0
VERTEX
  5
36D
  8
RULER
 10
6.293065638572561
 20
1.02578864516987
 30
0.0
  0
VERTEX
  5
36E
  8
RULER
 10
6.296644958218516
 20
1.033218856528512
 30
0.0
  0
VERTEX
  5
36F
  8
RULER
 10
6.299503247808235
 20
1.041028292605971
 30
0.0
  0
VERTEX
  5
370
  8
RULER
 10
6.301597781674539
 20
1.04917422773507
 30
0.0
  0
VERTEX
  5
371
  8
RULER
 10
6.302885834150251
 20
1.057613936248631
 30
0.0
  0
VERTEX
  5
372
  8
RULER
 10
6.303324679568195
 20
1.066304692479476
 30
0.0
  0
VERTEX
  5
373
  8
RULER
 10
6.302885834150251
 20
1.074995448710322
 30
0.0
  0
VERTEX
  5
374
  8
RULER
 10
6.301597781674539
 20
1.083435157223882
 30
0.0
  0
VERTEX
  5
375
  8
RULER
 10
6.299503247808235
 20
1.091581092352981
 30
0.0
  0
VERTEX
  5
376
  8
RULER
 10
6.296644958218516
 20
1.09939052843044
 30
0.0
  0
VERTEX
  5
377
  8
RULER
 10
6.293065638572561
 20
1.106820739789082
 30
0.0
  0
VERTEX
  5
378
  8
RULER
 10
6.288808014537546
 20
1.11382900076173
 30
0.0
  0
VERTEX
  5
379
  8
RULER
 10
6.283914811780651
 20
1.120372585681206
 30
0.0
  0
VERTEX
  5
37A
  8
RULER
 10
6.278428755969051
 20
1.126408768880333
 30
0.0
  0
VERTEX
  5
37B
  8
RULER
 10
6.272392572769924
 20
1.131894824691933
 30
0.0
  0
VERTEX
  5
37C
  8
RULER
 10
6.265848987850449
 20
1.136788027448828
 30
0.0
  0
VERTEX
  5
37D
  8
RULER
 10
6.2588407268778
 20
1.141045651483843
 30
0.0
  0
VERTEX
  5
37E
  8
RULER
 10
6.251410515519158
 20
1.144624971129797
 30
0.0
  0
VERTEX
  5
37F
  8
RULER
 10
6.243601079441699
 20
1.147483260719516
 30
0.0
  0
VERTEX
  5
380
  8
RULER
 10
6.235455144312601
 20
1.14957779458582
 30
0.0
  0
VERTEX
  5
381
  8
RULER
 10
6.22701543579904
 20
1.150865847061532
 30
0.0
  0
VERTEX
  5
382
  8
RULER
 10
6.218324679568195
 20
1.151304692479476
 30
0.0
  0
VERTEX
  5
383
  8
RULER
 10
6.209633923337349
 20
1.150865847061532
 30
0.0
  0
VERTEX
  5
384
  8
RULER
 10
6.201194214823788
 20
1.14957779458582
 30
0.0
  0
VERTEX
  5
385
  8
RULER
 10
6.19304827969469
 20
1.147483260719516
 30
0.0
  0
VERTEX
  5
386
  8
RULER
 10
6.18523884361723
 20
1.144624971129797
 30
0.0
  0
VERTEX
  5
387
  8
RULER
 10
6.177808632258587
 20
1.141045651483843
 30
0.0
  0
VERTEX
  5
388
  8
RULER
 10
6.17080037128594
 20
1.136788027448828
 30
0.0
  0
VERTEX
  5
389
  8
RULER
 10
6.164256786366463
 20
1.131894824691933
 30
0.0
  0
VERTEX
  5
38A
  8
RULER
 10
6.158220603167337
 20
1.126408768880333
 30
0.0
  0
VERTEX
  5
38B
  8
RULER
 10
6.152734547355736
 20
1.120372585681206
 30
0.0
  0
VERTEX
  5
38C
  8
RULER
 10
6.147841344598842
 20
1.11382900076173
 30
0.0
  0
VERTEX
  5
38D
  8
RULER
 10
6.143583720563827
 20
1.106820739789082
 30
0.0
  0
VERTEX
  5
38E
  8
RULER
 10
6.140004400917872
 20
1.09939052843044
 30
0.0
  0
VERTEX
  5
38F
  8
RULER
 10
6.137146111328154
 20
1.091581092352981
 30
0.0
  0
VERTEX
  5
390
  8
RULER
 10
6.135051577461851
 20
1.083435157223882
 30
0.0
  0
VERTEX
  5
391
  8
RULER
 10
6.133763524986138
 20
1.074995448710322
 30
0.0
  0
VERTEX
  5
392
  8
RULER
 10
6.133324679568194
 20
1.066304692479476
 30
0.0
  0
VERTEX
  5
393
  8
RULER
 10
6.133763524986138
 20
1.057613936248631
 30
0.0
  0
VERTEX
  5
394
  8
RULER
 10
6.135051577461851
 20
1.04917422773507
 30
0.0
  0
VERTEX
  5
395
  8
RULER
 10
6.137146111328154
 20
1.041028292605971
 30
0.0
  0
VERTEX
  5
396
  8
RULER
 10
6.140004400917872
 20
1.033218856528512
 30
0.0
  0
VERTEX
  5
397
  8
RULER
 10
6.143583720563827
 20
1.02578864516987
 30
0.0
  0
VERTEX
  5
398
  8
RULER
 10
6.147841344598842
 20
1.018780384197222
 30
0.0
  0
VERTEX
  5
399
  8
RULER
 10
6.152734547355736
 20
1.012236799277746
 30
0.0
  0
VERTEX
  5
39A
  8
RULER
 10
6.158220603167337
 20
1.006200616078619
 30
0.0
  0
VERTEX
  5
39B
  8
RULER
 10
6.164256786366463
 20
1.00071456026702
 30
0.0
  0
VERTEX
  5
39C
  8
RULER
 10
6.17080037128594
 20
0.9958213575101238
 30
0.0
  0
VERTEX
  5
39D
  8
RULER
 10
6.177808632258587
 20
0.99156373347511
 30
0.0
  0
VERTEX
  5
39E
  8
RULER
 10
6.18523884361723
 20
0.9879844138291549
 30
0.0
  0
VERTEX
  5
39F
  8
RULER
 10
6.19304827969469
 20
0.9851261242394367
 30
0.0
  0
VERTEX
  5
3A0
  8
RULER
 10
6.201194214823788
 20
0.9830315903731324
 30
0.0
  0
VERTEX
  5
3A1
  8
RULER
 10
6.209633923337349
 20
0.9817435378974197
 30
0.0
  0
SEQEND
  5
C88
  8
RULER
  0
POLYLINE
  5
95
  8
RULER
 66
     1
 10
0.0
 20
0.0
 30
0.0
  0
VERTEX
  5
3A2
  8
RULER
 10
6.218324679568195
 20
0.9813046924794762
 30
0.0
 42
-0.5862971619980313
  0
VERTEX
  5
3A3
  8
RULER
 10
6.145824679568194
 20
1.111304692479476
 30
0.0
  0
VERTEX
  5
3A4
  8
RULER
 10
6.228324679568194
 20
1.236304692479476
 30
0.0
  0
SEQEND
  5
C89
  8
RULER
  0
POLYLINE
  5
96
  8
RULER
 66
     1
 10
0.0
 20
0.0
 30
0.0
  0
VERTEX
  5
3A5
  8
RULER
 10
7.133176289684126
 20
1.233804692479476
 30
0.0
  0
VERTEX
  5
3A6
  8
RULER
 10
7.273176289684127
 20
1.233804692479476
 30
0.0
  0
VERTEX
  5
3A7
  8
RULER
 10
7.163176289684126
 20
0.9838046924794761
 30
0.0
  0
SEQEND
  5
C8A
  8
RULER
  0
POLYLINE
  5
97
  8
RULER
 66
     1
 10
0.0
 20
0.0
 30
0.0
 70
     1
  0
VERTEX
  5
3A8
  8
RULER
 10
8.203176289684126
 20
1.126304692479476
 30
0.0
  0
VERTEX
  5
3A9
  8
RULER
 10
8.197552859181814
 20
1.126588651279322
 30
0.0
  0
VERTEX
  5
3AA
  8
RULER
 10
8.192091871320098
 20
1.127422096998901
 30
0.0
  0
VERTEX
  5
3AB
  8
RULER
 10
8.186820972118918
 20
1.128777383618274
 30
0.0
  0
VERTEX
  5
3AC
  8
RULER
 10
8.18176780759821
 20
1.130626865117504
 30
0.0
  0
VERTEX
  5
3AD
  8
RULER
 10
8.176960023777912
 20
1.132942895476651
 30
0.0
  0
VERTEX
  5
3AE
  8
RULER
 10
8.172425266677964
 20
1.135697828675778
 30
0.0
  0
VERTEX
  5
3AF
  8
RULER
 10
8.168191182318303
 20
1.138864018694945
 30
0.0
  0
VERTEX
  5
3B0
  8
RULER
 10
8.164285416718867
 20
1.142413819514216
 30
0.0
  0
VERTEX
  5
3B1
  8
RULER
 10
8.160735615899597
 20
1.146319585113651
 30
0.0
  0
VERTEX
  5
3B2
  8
RULER
 10
8.157569425880428
 20
1.150553669473312
 30
0.0
  0
VERTEX
  5
3B3
  8
RULER
 10
8.154814492681302
 20
1.15508842657326
 30
0.0
  0
VERTEX
  5
3B4
  8
RULER
 10
8.152498462322153
 20
1.159896210393558
 30
0.0
  0
VERTEX
  5
3B5
  8
RULER
 10
8.150648980822924
 20
1.164949374914267
 30
0.0
  0
VERTEX
  5
3B6
  8
RULER
 10
8.14929369420355
 20
1.170220274115449
 30
0.0
  0
VERTEX
  5
3B7
  8
RULER
 10
8.148460248483971
 20
1.175681261977164
 30
0.0
  0
VERTEX
  5
3B8
  8
RULER
 10
8.148176289684127
 20
1.181304692479476
 30
0.0
  0
VERTEX
  5
3B9
  8
RULER
 10
8.148460248483971
 20
1.186928122981788
 30
0.0
  0
VERTEX
  5
3BA
  8
RULER
 10
8.14929369420355
 20
1.192389110843504
 30
0.0
  0
VERTEX
  5
3BB
  8
RULER
 10
8.150648980822924
 20
1.197660010044685
 30
0.0
  0
VERTEX
  5
3BC
  8
RULER
 10
8.152498462322153
 20
1.202713174565394
 30
0.0
  0
VERTEX
  5
3BD
  8
RULER
 10
8.154814492681302
 20
1.207520958385692
 30
0.0
  0
VERTEX
  5
3BE
  8
RULER
 10
8.157569425880428
 20
1.21205571548564
 30
0.0
  0
VERTEX
  5
3BF
  8
RULER
 10
8.160735615899597
 20
1.216289799845302
 30
0.0
  0
VERTEX
  5
3C0
  8
RULER
 10
8.164285416718867
 20
1.220195565444736
 30
0.0
  0
VERTEX
  5
3C1
  8
RULER
 10
8.168191182318303
 20
1.223745366264007
 30
0.0
  0
VERTEX
  5
3C2
  8
RULER
 10
8.172425266677964
 20
1.226911556283174
 30
0.0
  0
VERTEX
  5
3C3
  8
RULER
 10
8.176960023777912
 20
1.229666489482301
 30
0.0
  0
VERTEX
  5
3C4
  8
RULER
 10
8.18176780759821
 20
1.231982519841448
 30
0.0
  0
VERTEX
  5
3C5
  8
RULER
 10
8.186820972118918
 20
1.233832001340678
 30
0.0
  0
VERTEX
  5
3C6
  8
RULER
 10
8.192091871320098
 20
1.235187287960051
 30
0.0
  0
VERTEX
  5
3C7
  8
RULER
 10
8.197552859181814
 20
1.23602073367963
 30
0.0
  0
VERTEX
  5
3C8
  8
RULER
 10
8.203176289684126
 20
1.236304692479476
 30
0.0
  0
VERTEX
  5
3C9
  8
RULER
 10
8.20879972018644
 20
1.23602073367963
 30
0.0
  0
VERTEX
  5
3CA
  8
RULER
 10
8.214260708048155
 20
1.235187287960051
 30
0.0
  0
VERTEX
  5
3CB
  8
RULER
 10
8.219531607249335
 20
1.233832001340678
 30
0.0
  0
VERTEX
  5
3CC
  8
RULER
 10
8.224584771770044
 20
1.231982519841448
 30
0.0
  0
VERTEX
  5
3CD
  8
RULER
 10
8.22939255559034
 20
1.229666489482301
 30
0.0
  0
VERTEX
  5
3CE
  8
RULER
 10
8.23392731269029
 20
1.226911556283174
 30
0.0
  0
VERTEX
  5
3CF
  8
RULER
 10
8.23816139704995
 20
1.223745366264007
 30
0.0
  0
VERTEX
  5
3D0
  8
RULER
 10
8.242067162649386
 20
1.220195565444736
 30
0.0
  0
VERTEX
  5
3D1
  8
RULER
 10
8.245616963468656
 20
1.216289799845302
 30
0.0
  0
VERTEX
  5
3D2
  8
RULER
 10
8.248783153487825
 20
1.21205571548564
 30
0.0
  0
VERTEX
  5
3D3
  8
RULER
 10
8.251538086686951
 20
1.207520958385692
 30
0.0
  0
VERTEX
  5
3D4
  8
RULER
 10
8.2538541170461
 20
1.202713174565394
 30
0.0
  0
VERTEX
  5
3D5
  8
RULER
 10
8.25570359854533
 20
1.197660010044685
 30
0.0
  0
VERTEX
  5
3D6
  8
RULER
 10
8.257058885164703
 20
1.192389110843504
 30
0.0
  0
VERTEX
  5
3D7
  8
RULER
 10
8.257892330884282
 20
1.186928122981788
 30
0.0
  0
VERTEX
  5
3D8
  8
RULER
 10
8.258176289684126
 20
1.181304692479476
 30
0.0
  0
VERTEX
  5
3D9
  8
RULER
 10
8.257892330884282
 20
1.175681261977164
 30
0.0
  0
VERTEX
  5
3DA
  8
RULER
 10
8.257058885164703
 20
1.170220274115449
 30
0.0
  0
VERTEX
  5
3DB
  8
RULER
 10
8.25570359854533
 20
1.164949374914267
 30
0.0
  0
VERTEX
  5
3DC
  8
RULER
 10
8.2538541170461
 20
1.159896210393558
 30
0.0
  0
VERTEX
  5
3DD
  8
RULER
 10
8.251538086686951
 20
1.15508842657326
 30
0.0
  0
VERTEX
  5
3DE
  8
RULER
 10
8.248783153487825
 20
1.150553669473312
 30
0.0
  0
VERTEX
  5
3DF
  8
RULER
 10
8.245616963468656
 20
1.146319585113651
 30
0.0
  0
VERTEX
  5
3E0
  8
RULER
 10
8.242067162649386
 20
1.142413819514216
 30
0.0
  0
VERTEX
  5
3E1
  8
RULER
 10
8.23816139704995
 20
1.138864018694945
 30
0.0
  0
VERTEX
  5
3E2
  8
RULER
 10
8.23392731269029
 20
1.135697828675778
 30
0.0
  0
VERTEX
  5
3E3
  8
RULER
 10
8.22939255559034
 20
1.132942895476651
 30
0.0
  0
VERTEX
  5
3E4
  8
RULER
 10
8.224584771770044
 20
1.130626865117504
 30
0.0
  0
VERTEX
  5
3E5
  8
RULER
 10
8.219531607249335
 20
1.128777383618274
 30
0.0
  0
VERTEX
  5
3E6
  8
RULER
 10
8.214260708048155
 20
1.127422096998901
 30
0.0
  0
VERTEX
  5
3E7
  8
RULER
 10
8.20879972018644
 20
1.126588651279322
 30
0.0
  0
SEQEND
  5
C8B
  8
RULER
  0
POLYLINE
  5
98
  8
RULER
 66
     1
 10
0.0
 20
0.0
 30
0.0
 70
     1
  0
VERTEX
  5
3E8
  8
RULER
 10
8.203176289684126
 20
1.126304692479476
 30
0.0
 42
-0.4142857142857143
  0
VERTEX
  5
3E9
  8
RULER
 10
8.273176289684127
 20
1.056304692479476
 30
0.0
  0
VERTEX
  5
3EA
  8
RULER
 10
8.273176289684127
 20
1.051304692479476
 30
0.0
 42
-1.0
  0
VERTEX
  5
3EB
  8
RULER
 10
8.133176289684126
 20
1.051304692479476
 30
0.0
  0
VERTEX
  5
3EC
  8
RULER
 10
8.133176289684126
 20
1.056304692479476
 30
0.0
 42
-0.4142857142857144
  0
SEQEND
  5
C8C
  8
RULER
  0
POLYLINE
  5
99
  8
RULER
 66
     1
 10
0.0
 20
0.0
 30
0.0
  0
VERTEX
  5
3ED
  8
RULER
 10
9.208176289684127
 20
0.9838046924794761
 30
0.0
  0
VERTEX
  5
3EE
  8
RULER
 10
9.290676289684127
 20
1.108804692479476
 30
0.0
 42
0.1380051253523702
  0
VERTEX
  5
3EF
  8
RULER
 10
9.303176289684128
 20
1.151304692479476
 30
0.0
 42
1.0
  0
VERTEX
  5
3F0
  8
RULER
 10
9.133176289684126
 20
1.151304692479476
 30
0.0
 42
0.7699957824736615
  0
VERTEX
  5
3F1
  8
RULER
 10
9.290676289684127
 20
1.108804692479476
 30
0.0
  0
SEQEND
  5
C8D
  8
RULER
  0
POLYLINE
  5
9A
  8
RULER
 66
     1
 10
0.0
 20
0.0
 30
0.0
  0
VERTEX
  5
3F2
  8
RULER
 10
10.13317628968413
 20
1.233804692479476
 30
0.0
  0
VERTEX
  5
3F3
  8
RULER
 10
10.20067628968413
 20
1.233804692479476
 30
0.0
  0
VERTEX
  5
3F4
  8
RULER
 10
10.20067628968413
 20
0.9838046924794761
 30
0.0
  0
SEQEND
  5
C8E
  8
RULER
  0
POLYLINE
  5
9B
  8
RULER
 66
     1
 10
0.0
 20
0.0
 30
0.0
 70
     1
  0
VERTEX
  5
3F5
  8
RULER
 10
10.37567628968413
 20
0.9813046924794762
 30
0.0
  0
VERTEX
  5
3F6
  8
RULER
 10
10.37817628968413
 20
0.9813046924794762
 30
0.0
 42
0.4133333333333333
  0
VERTEX
  5
3F7
  8
RULER
 10
10.50317628968413
 20
1.106304692479476
 30
0.0
  0
VERTEX
  5
3F8
  8
RULER
 10
10.50317628968413
 20
1.108804692479476
 30
0.0
 42
0.4133333333333333
  0
VERTEX
  5
3F9
  8
RULER
 10
10.37817628968413
 20
1.233804692479476
 30
0.0
  0
VERTEX
  5
3FA
  8
RULER
 10
10.37567628968413
 20
1.233804692479476
 30
0.0
 42
0.4133333333333333
  0
VERTEX
  5
3FB
  8
RULER
 10
10.25067628968413
 20
1.108804692479476
 30
0.0
  0
VERTEX
  5
3FC
  8
RULER
 10
10.25067628968413
 20
1.106304692479476
 30
0.0
 42
0.4133333333333333
  0
SEQEND
  5
C8F
  8
RULER
  0
POLYLINE
  5
9C
  8
RULER
 66
     1
 10
0.0
 20
0.0
 30
0.0
  0
VERTEX
  5
3FD
  8
RULER
 10
11.13317628968413
 20
1.233804692479476
 30
0.0
  0
VERTEX
  5
3FE
  8
RULER
 10
11.20067628968413
 20
1.233804692479476
 30
0.0
  0
VERTEX
  5
3FF
  8
RULER
 10
11.20067628968413
 20
0.9838046924794761
 30
0.0
  0
SEQEND
  5
C90
  8
RULER
  0
POLYLINE
  5
9D
  8
RULER
 66
     1
 10
0.0
 20
0.0
 30
0.0
  0
VERTEX
  5
400
  8
RULER
 10
11.25067628968413
 20
1.233804692479476
 30
0.0
  0
VERTEX
  5
401
  8
RULER
 10
11.31817628968413
 20
1.233804692479476
 30
0.0
  0
VERTEX
  5
402
  8
RULER
 10
11.31817628968413
 20
0.9838046924794761
 30
0.0
  0
SEQEND
  5
C91
  8
RULER
  0
POLYLINE
  5
9E
  8
RULER
 66
     1
 10
0.0
 20
0.0
 30
0.0
  0
VERTEX
  5
403
  8
RULER
 10
12.13317628968413
 20
1.233804692479476
 30
0.0
  0
VERTEX
  5
404
  8
RULER
 10
12.20067628968413
 20
1.233804692479476
 30
0.0
  0
VERTEX
  5
405
  8
RULER
 10
12.20067628968413
 20
0.9838046924794761
 30
0.0
  0
SEQEND
  5
C92
  8
RULER
  0
POLYLINE
  5
9F
  8
RULER
 66
     1
 10
0.0
 20
0.0
 30
0.0
  0
VERTEX
  5
406
  8
RULER
 10
12.25067628968413
 20
1.158804692479476
 30
0.0
 42
-0.4238676972146167
  0
VERTEX
  5
407
  8
RULER
 10
12.32567628968413
 20
1.236304692479476
 30
0.0
 42
-0.4139114804918755
  0
VERTEX
  5
408
  8
RULER
 10
12.40067628968413
 20
1.161304692479476
 30
0.0
 42
-0.1946370063820205
  0
VERTEX
  5
409
  8
RULER
 10
12.37817628968413
 20
1.108804692479476
 30
0.0
  0
VERTEX
  5
40A
  8
RULER
 10
12.25317628968413
 20
0.9838046924794761
 30
0.0
  0
VERTEX
  5
40B
  8
RULER
 10
12.41317628968413
 20
0.9838046924794761
 30
0.0
  0
SEQEND
  5
C93
  8
RULER
  0
POLYLINE
  5
A0
  8
RULER
 66
     1
 10
0.0
 20
0.0
 30
0.0
  0
VERTEX
  5
40C
  8
RULER
 10
13.13317628968413
 20
1.233804692479476
 30
0.0
  0
VERTEX
  5
40D
  8
RULER
 10
13.20067628968413
 20
1.233804692479476
 30
0.0
  0
VERTEX
  5
40E
  8
RULER
 10
13.20067628968413
 20
0.9838046924794761
 30
0.0
  0
SEQEND
  5
C94
  8
RULER
  0
POLYLINE
  5
A1
  8
RULER
 66
     1
 10
0.0
 20
0.0
 30
0.0
  0
VERTEX
  5
40F
  8
RULER
 10
13.26300962301746
 20
1.173804692479476
 30
0.0
 42
-0.4548493327042687
  0
VERTEX
  5
410
  8
RULER
 10
13.31800962301746
 20
1.236804692479476
 30
0.0
 42
-0.4114350750726344
  0
VERTEX
  5
411
  8
RULER
 10
13.37300962301746
 20
1.181304692479476
 30
0.0
  0
VERTEX
  5
412
  8
RULER
 10
13.37300962301746
 20
1.173804692479476
 30
0.0
 42
-0.4121212121212124
  0
VERTEX
  5
413
  8
RULER
 10
13.31800962301746
 20
1.118804692479476
 30
0.0
  0
VERTEX
  5
414
  8
RULER
 10
13.30550962301746
 20
1.118804692479476
 30
0.0
  0
VERTEX
  5
415
  8
RULER
 10
13.32050962301746
 20
1.118804692479476
 30
0.0
 42
-0.4142857142857143
  0
VERTEX
  5
416
  8
RULER
 10
13.39050962301746
 20
1.048804692479476
 30
0.0
 42
-0.9462693881493045
  0
VERTEX
  5
417
  8
RULER
 10
13.25050962301746
 20
1.046304692479476
 30
0.0
  0
SEQEND
  5
C95
  8
RULER
  0
POLYLINE
  5
A2
  8
RULER
 66
     1
 10
0.0
 20
0.0
 30
0.0
  0
VERTEX
  5
418
  8
RULER
 10
14.13317628968413
 20
1.233804692479476
 30
0.0
  0
VERTEX
  5
419
  8
RULER
 10
14.20067628968413
 20
1.233804692479476
 30
0.0
  0
VERTEX
  5
41A
  8
RULER
 10
14.20067628968413
 20
0.9838046924794761
 30
0.0
  0
SEQEND
  5
C96
  8
RULER
  0
POLYLINE
  5
A3
  8
RULER
 66
     1
 10
0.0
 20
0.0
 30
0.0
  0
VERTEX
  5
41B
  8
RULER
 10
14.42817628968413
 20
1.028804692479476
 30
0.0
  0
VERTEX
  5
41C
  8
RULER
 10
14.25067628968413
 20
1.028804692479476
 30
0.0
  0
VERTEX
  5
41D
  8
RULER
 10
14.39067628968413
 20
1.233804692479476
 30
0.0
  0
VERTEX
  5
41E
  8
RULER
 10
14.39067628968413
 20
0.9838046924794761
 30
0.0
  0
SEQEND
  5
C97
  8
RULER
  0
POLYLINE
  5
A4
  8
RULER
 66
     1
 10
0.0
 20
0.0
 30
0.0
  0
VERTEX
  5
41F
  8
RULER
 10
15.13317628968413
 20
1.233804692479476
 30
0.0
  0
VERTEX
  5
420
  8
RULER
 10
15.20067628968413
 20
1.233804692479476
 30
0.0
  0
VERTEX
  5
421
  8
RULER
 10
15.20067628968413
 20
0.9838046924794761
 30
0.0
  0
SEQEND
  5
C98
  8
RULER
  0
POLYLINE
  5
A5
  8
RULER
 66
     1
 10
0.0
 20
0.0
 30
0.0
  0
VERTEX
  5
422
  8
RULER
 10
15.23567628968413
 20
1.061304692479476
 30
0.0
 42
0.8576084699939476
  0
VERTEX
  5
423
  8
RULER
 10
15.40284295635079
 20
1.043804692479476
 30
0.0
 42
0.8394311096568591
  0
VERTEX
  5
424
  8
RULER
 10
15.25067628968413
 20
1.113804692479476
 30
0.0
  0
VERTEX
  5
425
  8
RULER
 10
15.27067628968413
 20
1.233804692479476
 30
0.0
  0
VERTEX
  5
426
  8
RULER
 10
15.38817628968413
 20
1.233804692479476
 30
0.0
  0
SEQEND
  5
C99
  8
RULER
  0
POLYLINE
  5
A6
  8
RULER
 66
     1
 10
0.0
 20
0.0
 30
0.0
  0
VERTEX
  5
427
  8
RULER
 10
16.13317628968413
 20
1.233804692479476
 30
0.0
  0
VERTEX
  5
428
  8
RULER
 10
16.20067628968413
 20
1.233804692479476
 30
0.0
  0
VERTEX
  5
429
  8
RULER
 10
16.20067628968413
 20
0.9838046924794761
 30
0.0
  0
SEQEND
  5
C9A
  8
RULER
  0
POLYLINE
  5
A7
  8
RULER
 66
     1
 10
0.0
 20
0.0
 30
0.0
 70
     1
  0
VERTEX
  5
42A
  8
RULER
 10
16.33567628968413
 20
0.9813046924794762
 30
0.0
  0
VERTEX
  5
42B
  8
RULER
 10
16.34436704591497
 20
0.9817435378974197
 30
0.0
  0
VERTEX
  5
42C
  8
RULER
 10
16.35280675442853
 20
0.9830315903731324
 30
0.0
  0
VERTEX
  5
42D
  8
RULER
 10
16.36095268955763
 20
0.9851261242394367
 30
0.0
  0
VERTEX
  5
42E
  8
RULER
 10
16.36876212563509
 20
0.9879844138291549
 30
0.0
  0
VERTEX
  5
42F
  8
RULER
 10
16.37619233699373
 20
0.99156373347511
 30
0.0
  0
VERTEX
  5
430
  8
RULER
 10
16.38320059796638
 20
0.9958213575101238
 30
0.0
  0
VERTEX
  5
431
  8
RULER
 10
16.38974418288586
 20
1.00071456026702
 30
0.0
  0
VERTEX
  5
432
  8
RULER
 10
16.39578036608498
 20
1.006200616078619
 30
0.0
  0
VERTEX
  5
433
  8
RULER
 10
16.40126642189659
 20
1.012236799277746
 30
0.0
  0
VERTEX
  5
434
  8
RULER
 10
16.40615962465348
 20
1.018780384197222
 30
0.0
  0
VERTEX
  5
435
  8
RULER
 10
16.4104172486885
 20
1.02578864516987
 30
0.0
  0
VERTEX
  5
436
  8
RULER
 10
16.41399656833445
 20
1.033218856528512
 30
0.0
  0
VERTEX
  5
437
  8
RULER
 10
16.41685485792417
 20
1.041028292605971
 30
0.0
  0
VERTEX
  5
438
  8
RULER
 10
16.41894939179047
 20
1.04917422773507
 30
0.0
  0
VERTEX
  5
439
  8
RULER
 10
16.42023744426618
 20
1.057613936248631
 30
0.0
  0
VERTEX
  5
43A
  8
RULER
 10
16.42067628968413
 20
1.066304692479476
 30
0.0
  0
VERTEX
  5
43B
  8
RULER
 10
16.42023744426618
 20
1.074995448710322
 30
0.0
  0
VERTEX
  5
43C
  8
RULER
 10
16.41894939179047
 20
1.083435157223882
 30
0.0
  0
VERTEX
  5
43D
  8
RULER
 10
16.41685485792417
 20
1.091581092352981
 30
0.0
  0
VERTEX
  5
43E
  8
RULER
 10
16.41399656833445
 20
1.09939052843044
 30
0.0
  0
VERTEX
  5
43F
  8
RULER
 10
16.4104172486885
 20
1.106820739789082
 30
0.0
  0
VERTEX
  5
440
  8
RULER
 10
16.40615962465348
 20
1.11382900076173
 30
0.0
  0
VERTEX
  5
441
  8
RULER
 10
16.40126642189659
 20
1.120372585681206
 30
0.0
  0
VERTEX
  5
442
  8
RULER
 10
16.39578036608498
 20
1.126408768880333
 30
0.0
  0
VERTEX
  5
443
  8
RULER
 10
16.38974418288586
 20
1.131894824691933
 30
0.0
  0
VERTEX
  5
444
  8
RULER
 10
16.38320059796638
 20
1.136788027448828
 30
0.0
  0
VERTEX
  5
445
  8
RULER
 10
16.37619233699373
 20
1.141045651483843
 30
0.0
  0
VERTEX
  5
446
  8
RULER
 10
16.36876212563509
 20
1.144624971129797
 30
0.0
  0
VERTEX
  5
447
  8
RULER
 10
16.36095268955763
 20
1.147483260719516
 30
0.0
  0
VERTEX
  5
448
  8
RULER
 10
16.35280675442853
 20
1.14957779458582
 30
0.0
  0
VERTEX
  5
449
  8
RULER
 10
16.34436704591497
 20
1.150865847061532
 30
0.0
  0
VERTEX
  5
44A
  8
RULER
 10
16.33567628968413
 20
1.151304692479476
 30
0.0
  0
VERTEX
  5
44B
  8
RULER
 10
16.32698553345328
 20
1.150865847061532
 30
0.0
  0
VERTEX
  5
44C
  8
RULER
 10
16.31854582493972
 20
1.14957779458582
 30
0.0
  0
VERTEX
  5
44D
  8
RULER
 10
16.31039988981062
 20
1.147483260719516
 30
0.0
  0
VERTEX
  5
44E
  8
RULER
 10
16.30259045373316
 20
1.144624971129797
 30
0.0
  0
VERTEX
  5
44F
  8
RULER
 10
16.29516024237452
 20
1.141045651483843
 30
0.0
  0
VERTEX
  5
450
  8
RULER
 10
16.28815198140187
 20
1.136788027448828
 30
0.0
  0
VERTEX
  5
451
  8
RULER
 10
16.2816083964824
 20
1.131894824691933
 30
0.0
  0
VERTEX
  5
452
  8
RULER
 10
16.27557221328327
 20
1.126408768880333
 30
0.0
  0
VERTEX
  5
453
  8
RULER
 10
16.27008615747167
 20
1.120372585681206
 30
0.0
  0
VERTEX
  5
454
  8
RULER
 10
16.26519295471477
 20
1.11382900076173
 30
0.0
  0
VERTEX
  5
455
  8
RULER
 10
16.26093533067976
 20
1.106820739789082
 30
0.0
  0
VERTEX
  5
456
  8
RULER
 10
16.2573560110338
 20
1.09939052843044
 30
0.0
  0
VERTEX
  5
457
  8
RULER
 10
16.25449772144409
 20
1.091581092352981
 30
0.0
  0
VERTEX
  5
458
  8
RULER
 10
16.25240318757778
 20
1.083435157223882
 30
0.0
  0
VERTEX
  5
459
  8
RULER
 10
16.25111513510207
 20
1.074995448710322
 30
0.0
  0
VERTEX
  5
45A
  8
RULER
 10
16.25067628968413
 20
1.066304692479476
 30
0.0
  0
VERTEX
  5
45B
  8
RULER
 10
16.25111513510207
 20
1.057613936248631
 30
0.0
  0
VERTEX
  5
45C
  8
RULER
 10
16.25240318757778
 20
1.04917422773507
 30
0.0
  0
VERTEX
  5
45D
  8
RULER
 10
16.25449772144409
 20
1.041028292605971
 30
0.0
  0
VERTEX
  5
45E
  8
RULER
 10
16.2573560110338
 20
1.033218856528512
 30
0.0
  0
VERTEX
  5
45F
  8
RULER
 10
16.26093533067976
 20
1.02578864516987
 30
0.0
  0
VERTEX
  5
460
  8
RULER
 10
16.26519295471477
 20
1.018780384197222
 30
0.0
  0
VERTEX
  5
461
  8
RULER
 10
16.27008615747167
 20
1.012236799277746
 30
0.0
  0
VERTEX
  5
462
  8
RULER
 10
16.27557221328327
 20
1.006200616078619
 30
0.0
  0
VERTEX
  5
463
  8
RULER
 10
16.2816083964824
 20
1.00071456026702
 30
0.0
  0
VERTEX
  5
464
  8
RULER
 10
16.28815198140187
 20
0.9958213575101238
 30
0.0
  0
VERTEX
  5
465
  8
RULER
 10
16.29516024237452
 20
0.99156373347511
 30
0.0
  0
VERTEX
  5
466
  8
RULER
 10
16.30259045373316
 20
0.9879844138291549
 30
0.0
  0
VERTEX
  5
467
  8
RULER
 10
16.31039988981062
 20
0.9851261242394367
 30
0.0
  0
VERTEX
  5
468
  8
RULER
 10
16.31854582493972
 20
0.9830315903731324
 30
0.0
  0
VERTEX
  5
469
  8
RULER
 10
16.32698553345328
 20
0.9817435378974197
 30
0.0
  0
SEQEND
  5
C9B
  8
RULER
  0
POLYLINE
  5
A8
  8
RULER
 66
     1
 10
0.0
 20
0.0
 30
0.0
  0
VERTEX
  5
46A
  8
RULER
 10
16.33567628968413
 20
0.9813046924794762
 30
0.0
 42
-0.5862971619980313
  0
VERTEX
  5
46B
  8
RULER
 10
16.26317628968413
 20
1.111304692479476
 30
0.0
  0
VERTEX
  5
46C
  8
RULER
 10
16.34567628968412
 20
1.236304692479476
 30
0.0
  0
SEQEND
  5
C9C
  8
RULER
  0
POLYLINE
  5
A9
  8
RULER
 66
     1
 10
0.0
 20
0.0
 30
0.0
  0
VERTEX
  5
46D
  8
RULER
 10
17.13317628968413
 20
1.233804692479476
 30
0.0
  0
VERTEX
  5
46E
  8
RULER
 10
17.20067628968413
 20
1.233804692479476
 30
0.0
  0
VERTEX
  5
46F
  8
RULER
 10
17.20067628968413
 20
0.9838046924794761
 30
0.0
  0
SEQEND
  5
C9D
  8
RULER
  0
POLYLINE
  5
AA
  8
RULER
 66
     1
 10
0.0
 20
0.0
 30
0.0
  0
VERTEX
  5
470
  8
RULER
 10
17.25067628968413
 20
1.233804692479476
 30
0.0
  0
VERTEX
  5
471
  8
RULER
 10
17.39067628968413
 20
1.233804692479476
 30
0.0
  0
VERTEX
  5
472
  8
RULER
 10
17.28067628968413
 20
0.9838046924794761
 30
0.0
  0
SEQEND
  5
C9E
  8
RULER
  0
POLYLINE
  5
AB
  8
RULER
 66
     1
 10
0.0
 20
0.0
 30
0.0
  0
VERTEX
  5
473
  8
RULER
 10
18.13317628968413
 20
1.233804692479476
 30
0.0
  0
VERTEX
  5
474
  8
RULER
 10
18.20067628968413
 20
1.233804692479476
 30
0.0
  0
VERTEX
  5
475
  8
RULER
 10
18.20067628968413
 20
0.9838046924794761
 30
0.0
  0
SEQEND
  5
C9F
  8
RULER
  0
POLYLINE
  5
AC
  8
RULER
 66
     1
 10
0.0
 20
0.0
 30
0.0
 70
     1
  0
VERTEX
  5
476
  8
RULER
 10
18.32067628968413
 20
1.126304692479476
 30
0.0
  0
VERTEX
  5
477
  8
RULER
 10
18.31505285918181
 20
1.126588651279322
 30
0.0
  0
VERTEX
  5
478
  8
RULER
 10
18.3095918713201
 20
1.127422096998901
 30
0.0
  0
VERTEX
  5
479
  8
RULER
 10
18.30432097211892
 20
1.128777383618274
 30
0.0
  0
VERTEX
  5
47A
  8
RULER
 10
18.29926780759821
 20
1.130626865117504
 30
0.0
  0
VERTEX
  5
47B
  8
RULER
 10
18.29446002377791
 20
1.132942895476651
 30
0.0
  0
VERTEX
  5
47C
  8
RULER
 10
18.28992526667796
 20
1.135697828675778
 30
0.0
  0
VERTEX
  5
47D
  8
RULER
 10
18.2856911823183
 20
1.138864018694945
 30
0.0
  0
VERTEX
  5
47E
  8
RULER
 10
18.28178541671886
 20
1.142413819514216
 30
0.0
  0
VERTEX
  5
47F
  8
RULER
 10
18.27823561589959
 20
1.146319585113651
 30
0.0
  0
VERTEX
  5
480
  8
RULER
 10
18.27506942588043
 20
1.150553669473312
 30
0.0
  0
VERTEX
  5
481
  8
RULER
 10
18.2723144926813
 20
1.15508842657326
 30
0.0
  0
VERTEX
  5
482
  8
RULER
 10
18.26999846232216
 20
1.159896210393558
 30
0.0
  0
VERTEX
  5
483
  8
RULER
 10
18.26814898082293
 20
1.164949374914267
 30
0.0
  0
VERTEX
  5
484
  8
RULER
 10
18.26679369420355
 20
1.170220274115449
 30
0.0
  0
VERTEX
  5
485
  8
RULER
 10
18.26596024848397
 20
1.175681261977164
 30
0.0
  0
VERTEX
  5
486
  8
RULER
 10
18.26567628968413
 20
1.181304692479476
 30
0.0
  0
VERTEX
  5
487
  8
RULER
 10
18.26596024848397
 20
1.186928122981788
 30
0.0
  0
VERTEX
  5
488
  8
RULER
 10
18.26679369420355
 20
1.192389110843504
 30
0.0
  0
VERTEX
  5
489
  8
RULER
 10
18.26814898082293
 20
1.197660010044685
 30
0.0
  0
VERTEX
  5
48A
  8
RULER
 10
18.26999846232216
 20
1.202713174565394
 30
0.0
  0
VERTEX
  5
48B
  8
RULER
 10
18.2723144926813
 20
1.207520958385692
 30
0.0
  0
VERTEX
  5
48C
  8
RULER
 10
18.27506942588043
 20
1.21205571548564
 30
0.0
  0
VERTEX
  5
48D
  8
RULER
 10
18.27823561589959
 20
1.216289799845302
 30
0.0
  0
VERTEX
  5
48E
  8
RULER
 10
18.28178541671886
 20
1.220195565444736
 30
0.0
  0
VERTEX
  5
48F
  8
RULER
 10
18.2856911823183
 20
1.223745366264007
 30
0.0
  0
VERTEX
  5
490
  8
RULER
 10
18.28992526667796
 20
1.226911556283174
 30
0.0
  0
VERTEX
  5
491
  8
RULER
 10
18.29446002377791
 20
1.229666489482301
 30
0.0
  0
VERTEX
  5
492
  8
RULER
 10
18.29926780759821
 20
1.231982519841448
 30
0.0
  0
VERTEX
  5
493
  8
RULER
 10
18.30432097211892
 20
1.233832001340678
 30
0.0
  0
VERTEX
  5
494
  8
RULER
 10
18.3095918713201
 20
1.235187287960051
 30
0.0
  0
VERTEX
  5
495
  8
RULER
 10
18.31505285918181
 20
1.23602073367963
 30
0.0
  0
VERTEX
  5
496
  8
RULER
 10
18.32067628968413
 20
1.236304692479476
 30
0.0
  0
VERTEX
  5
497
  8
RULER
 10
18.32629972018644
 20
1.23602073367963
 30
0.0
  0
VERTEX
  5
498
  8
RULER
 10
18.33176070804815
 20
1.235187287960051
 30
0.0
  0
VERTEX
  5
499
  8
RULER
 10
18.33703160724933
 20
1.233832001340678
 30
0.0
  0
VERTEX
  5
49A
  8
RULER
 10
18.34208477177004
 20
1.231982519841448
 30
0.0
  0
VERTEX
  5
49B
  8
RULER
 10
18.34689255559034
 20
1.229666489482301
 30
0.0
  0
VERTEX
  5
49C
  8
RULER
 10
18.35142731269029
 20
1.226911556283174
 30
0.0
  0
VERTEX
  5
49D
  8
RULER
 10
18.35566139704995
 20
1.223745366264007
 30
0.0
  0
VERTEX
  5
49E
  8
RULER
 10
18.35956716264939
 20
1.220195565444736
 30
0.0
  0
VERTEX
  5
49F
  8
RULER
 10
18.36311696346866
 20
1.216289799845302
 30
0.0
  0
VERTEX
  5
4A0
  8
RULER
 10
18.36628315348782
 20
1.21205571548564
 30
0.0
  0
VERTEX
  5
4A1
  8
RULER
 10
18.36903808668695
 20
1.207520958385692
 30
0.0
  0
VERTEX
  5
4A2
  8
RULER
 10
18.3713541170461
 20
1.202713174565394
 30
0.0
  0
VERTEX
  5
4A3
  8
RULER
 10
18.37320359854532
 20
1.197660010044685
 30
0.0
  0
VERTEX
  5
4A4
  8
RULER
 10
18.3745588851647
 20
1.192389110843504
 30
0.0
  0
VERTEX
  5
4A5
  8
RULER
 10
18.37539233088428
 20
1.186928122981788
 30
0.0
  0
VERTEX
  5
4A6
  8
RULER
 10
18.37567628968413
 20
1.181304692479476
 30
0.0
  0
VERTEX
  5
4A7
  8
RULER
 10
18.37539233088428
 20
1.175681261977164
 30
0.0
  0
VERTEX
  5
4A8
  8
RULER
 10
18.3745588851647
 20
1.170220274115449
 30
0.0
  0
VERTEX
  5
4A9
  8
RULER
 10
18.37320359854532
 20
1.164949374914267
 30
0.0
  0
VERTEX
  5
4AA
  8
RULER
 10
18.3713541170461
 20
1.159896210393558
 30
0.0
  0
VERTEX
  5
4AB
  8
RULER
 10
18.36903808668695
 20
1.15508842657326
 30
0.0
  0
VERTEX
  5
4AC
  8
RULER
 10
18.36628315348782
 20
1.150553669473312
 30
0.0
  0
VERTEX
  5
4AD
  8
RULER
 10
18.36311696346866
 20
1.146319585113651
 30
0.0
  0
VERTEX
  5
4AE
  8
RULER
 10
18.35956716264939
 20
1.142413819514216
 30
0.0
  0
VERTEX
  5
4AF
  8
RULER
 10
18.35566139704995
 20
1.138864018694945
 30
0.0
  0
VERTEX
  5
4B0
  8
RULER
 10
18.35142731269029
 20
1.135697828675778
 30
0.0
  0
VERTEX
  5
4B1
  8
RULER
 10
18.34689255559034
 20
1.132942895476651
 30
0.0
  0
VERTEX
  5
4B2
  8
RULER
 10
18.34208477177004
 20
1.130626865117504
 30
0.0
  0
VERTEX
  5
4B3
  8
RULER
 10
18.33703160724933
 20
1.128777383618274
 30
0.0
  0
VERTEX
  5
4B4
  8
RULER
 10
18.33176070804815
 20
1.127422096998901
 30
0.0
  0
VERTEX
  5
4B5
  8
RULER
 10
18.32629972018644
 20
1.126588651279322
 30
0.0
  0
SEQEND
  5
CA0
  8
RULER
  0
POLYLINE
  5
AD
  8
RULER
 66
     1
 10
0.0
 20
0.0
 30
0.0
 70
     1
  0
VERTEX
  5
4B6
  8
RULER
 10
18.32067628968413
 20
1.126304692479476
 30
0.0
 42
-0.4142857142857143
  0
VERTEX
  5
4B7
  8
RULER
 10
18.39067628968413
 20
1.056304692479476
 30
0.0
  0
VERTEX
  5
4B8
  8
RULER
 10
18.39067628968413
 20
1.051304692479476
 30
0.0
 42
-1.0
  0
VERTEX
  5
4B9
  8
RULER
 10
18.25067628968413
 20
1.051304692479476
 30
0.0
  0
VERTEX
  5
4BA
  8
RULER
 10
18.25067628968413
 20
1.056304692479476
 30
0.0
 42
-0.4142857142857144
  0
SEQEND
  5
CA1
  8
RULER
  0
POLYLINE
  5
AE
  8
RULER
 66
     1
 10
0.0
 20
0.0
 30
0.0
  0
VERTEX
  5
4BB
  8
RULER
 10
19.13317628968413
 20
1.233804692479476
 30
0.0
  0
VERTEX
  5
4BC
  8
RULER
 10
19.20067628968413
 20
1.233804692479476
 30
0.0
  0
VERTEX
  5
4BD
  8
RULER
 10
19.20067628968413
 20
0.9838046924794761
 30
0.0
  0
SEQEND
  5
CA2
  8
RULER
  0
POLYLINE
  5
AF
  8
RULER
 66
     1
 10
0.0
 20
0.0
 30
0.0
  0
VERTEX
  5
4BE
  8
RULER
 10
19.32567628968413
 20
0.9838046924794761
 30
0.0
  0
VERTEX
  5
4BF
  8
RULER
 10
19.40817628968413
 20
1.108804692479476
 30
0.0
 42
0.1380051253523702
  0
VERTEX
  5
4C0
  8
RULER
 10
19.42067628968413
 20
1.151304692479476
 30
0.0
 42
1.0
  0
VERTEX
  5
4C1
  8
RULER
 10
19.25067628968413
 20
1.151304692479476
 30
0.0
 42
0.7699957824736615
  0
VERTEX
  5
4C2
  8
RULER
 10
19.40817628968413
 20
1.108804692479476
 30
0.0
  0
SEQEND
  5
CA3
  8
RULER
  0
POLYLINE
  5
B0
  8
RULER
 66
     1
 10
0.0
 20
0.0
 30
0.0
  0
VERTEX
  5
4C3
  8
RULER
 10
20.13317628968413
 20
1.158804692479476
 30
0.0
 42
-0.4238676972146167
  0
VERTEX
  5
4C4
  8
RULER
 10
20.20817628968413
 20
1.236304692479476
 30
0.0
 42
-0.4139114804918755
  0
VERTEX
  5
4C5
  8
RULER
 10
20.28317628968413
 20
1.161304692479476
 30
0.0
 42
-0.1946370063820205
  0
VERTEX
  5
4C6
  8
RULER
 10
20.26067628968413
 20
1.108804692479476
 30
0.0
  0
VERTEX
  5
4C7
  8
RULER
 10
20.13567628968413
 20
0.9838046924794761
 30
0.0
  0
VERTEX
  5
4C8
  8
RULER
 10
20.29567628968413
 20
0.9838046924794761
 30
0.0
  0
SEQEND
  5
CA4
  8
RULER
  0
POLYLINE
  5
B1
  8
RULER
 66
     1
 10
0.0
 20
0.0
 30
0.0
 70
     1
  0
VERTEX
  5
4C9
  8
RULER
 10
20.47067628968413
 20
0.9813046924794762
 30
0.0
  0
VERTEX
  5
4CA
  8
RULER
 10
20.47317628968413
 20
0.9813046924794762
 30
0.0
 42
0.4133333333333333
  0
VERTEX
  5
4CB
  8
RULER
 10
20.59817628968413
 20
1.106304692479476
 30
0.0
  0
VERTEX
  5
4CC
  8
RULER
 10
20.59817628968413
 20
1.108804692479476
 30
0.0
 42
0.4133333333333333
  0
VERTEX
  5
4CD
  8
RULER
 10
20.47317628968413
 20
1.233804692479476
 30
0.0
  0
VERTEX
  5
4CE
  8
RULER
 10
20.47067628968413
 20
1.233804692479476
 30
0.0
 42
0.4133333333333333
  0
VERTEX
  5
4CF
  8
RULER
 10
20.34567628968413
 20
1.108804692479476
 30
0.0
  0
VERTEX
  5
4D0
  8
RULER
 10
20.34567628968413
 20
1.106304692479476
 30
0.0
 42
0.4133333333333333
  0
SEQEND
  5
CA5
  8
RULER
  0
POLYLINE
  5
B2
  8
RULER
 66
     1
 10
0.0
 20
0.0
 30
0.0
  0
VERTEX
  5
4D1
  8
RULER
 10
21.13317628968413
 20
1.158804692479476
 30
0.0
 42
-0.4238676972146167
  0
VERTEX
  5
4D2
  8
RULER
 10
21.20817628968413
 20
1.236304692479476
 30
0.0
 42
-0.4139114804918755
  0
VERTEX
  5
4D3
  8
RULER
 10
21.28317628968413
 20
1.161304692479476
 30
0.0
 42
-0.1946370063820205
  0
VERTEX
  5
4D4
  8
RULER
 10
21.26067628968413
 20
1.108804692479476
 30
0.0
  0
VERTEX
  5
4D5
  8
RULER
 10
21.13567628968413
 20
0.9838046924794761
 30
0.0
  0
VERTEX
  5
4D6
  8
RULER
 10
21.29567628968413
 20
0.9838046924794761
 30
0.0
  0
SEQEND
  5
CA6
  8
RULER
  0
POLYLINE
  5
B3
  8
RULER
 66
     1
 10
0.0
 20
0.0
 30
0.0
  0
VERTEX
  5
4D7
  8
RULER
 10
21.34567628968412
 20
1.233804692479476
 30
0.0
  0
VERTEX
  5
4D8
  8
RULER
 10
21.41317628968413
 20
1.233804692479476
 30
0.0
  0
VERTEX
  5
4D9
  8
RULER
 10
21.41317628968413
 20
0.9838046924794761
 30
0.0
  0
SEQEND
  5
CA7
  8
RULER
  0
POLYLINE
  5
B4
  8
RULER
 66
     1
 10
0.0
 20
0.0
 30
0.0
  0
VERTEX
  5
4DA
  8
RULER
 10
22.13317628968413
 20
1.158804692479476
 30
0.0
 42
-0.4238676972146167
  0
VERTEX
  5
4DB
  8
RULER
 10
22.20817628968413
 20
1.236304692479476
 30
0.0
 42
-0.4139114804918755
  0
VERTEX
  5
4DC
  8
RULER
 10
22.28317628968413
 20
1.161304692479476
 30
0.0
 42
-0.1946370063820205
  0
VERTEX
  5
4DD
  8
RULER
 10
22.26067628968413
 20
1.108804692479476
 30
0.0
  0
VERTEX
  5
4DE
  8
RULER
 10
22.13567628968413
 20
0.9838046924794761
 30
0.0
  0
VERTEX
  5
4DF
  8
RULER
 10
22.29567628968413
 20
0.9838046924794761
 30
0.0
  0
SEQEND
  5
CA8
  8
RULER
  0
POLYLINE
  5
B5
  8
RULER
 66
     1
 10
0.0
 20
0.0
 30
0.0
  0
VERTEX
  5
4E0
  8
RULER
 10
22.34567628968412
 20
1.158804692479476
 30
0.0
 42
-0.4238676972146167
  0
VERTEX
  5
4E1
  8
RULER
 10
22.42067628968412
 20
1.236304692479476
 30
0.0
 42
-0.4139114804918755
  0
VERTEX
  5
4E2
  8
RULER
 10
22.49567628968413
 20
1.161304692479476
 30
0.0
 42
-0.1946370063820205
  0
VERTEX
  5
4E3
  8
RULER
 10
22.47317628968413
 20
1.108804692479476
 30
0.0
  0
VERTEX
  5
4E4
  8
RULER
 10
22.34817628968413
 20
0.9838046924794761
 30
0.0
  0
VERTEX
  5
4E5
  8
RULER
 10
22.50817628968413
 20
0.9838046924794761
 30
0.0
  0
SEQEND
  5
CA9
  8
RULER
  0
POLYLINE
  5
B6
  8
RULER
 66
     1
 10
0.0
 20
0.0
 30
0.0
  0
VERTEX
  5
4E6
  8
RULER
 10
23.13317628968413
 20
1.158804692479476
 30
0.0
 42
-0.4238676972146167
  0
VERTEX
  5
4E7
  8
RULER
 10
23.20817628968413
 20
1.236304692479476
 30
0.0
 42
-0.4139114804918755
  0
VERTEX
  5
4E8
  8
RULER
 10
23.28317628968413
 20
1.161304692479476
 30
0.0
 42
-0.1946370063820205
  0
VERTEX
  5
4E9
  8
RULER
 10
23.26067628968413
 20
1.108804692479476
 30
0.0
  0
VERTEX
  5
4EA
  8
RULER
 10
23.13567628968413
 20
0.9838046924794761
 30
0.0
  0
VERTEX
  5
4EB
  8
RULER
 10
23.29567628968413
 20
0.9838046924794761
 30
0.0
  0
SEQEND
  5
CAA
  8
RULER
  0
POLYLINE
  5
B7
  8
RULER
 66
     1
 10
0.0
 20
0.0
 30
0.0
  0
VERTEX
  5
4EC
  8
RULER
 10
23.35800962301746
 20
1.173804692479476
 30
0.0
 42
-0.4548493327042687
  0
VERTEX
  5
4ED
  8
RULER
 10
23.41300962301746
 20
1.236804692479476
 30
0.0
 42
-0.4114350750726344
  0
VERTEX
  5
4EE
  8
RULER
 10
23.46800962301746
 20
1.181304692479476
 30
0.0
  0
VERTEX
  5
4EF
  8
RULER
 10
23.46800962301746
 20
1.173804692479476
 30
0.0
 42
-0.4121212121212124
  0
VERTEX
  5
4F0
  8
RULER
 10
23.41300962301746
 20
1.118804692479476
 30
0.0
  0
VERTEX
  5
4F1
  8
RULER
 10
23.40050962301746
 20
1.118804692479476
 30
0.0
  0
VERTEX
  5
4F2
  8
RULER
 10
23.41550962301746
 20
1.118804692479476
 30
0.0
 42
-0.4142857142857143
  0
VERTEX
  5
4F3
  8
RULER
 10
23.48550962301746
 20
1.048804692479476
 30
0.0
 42
-0.9462693881493045
  0
VERTEX
  5
4F4
  8
RULER
 10
23.34550962301746
 20
1.046304692479476
 30
0.0
  0
SEQEND
  5
CAB
  8
RULER
  0
POLYLINE
  5
B8
  8
RULER
 66
     1
 10
0.0
 20
0.0
 30
0.0
  0
VERTEX
  5
4F5
  8
RULER
 10
24.13317628968413
 20
1.158804692479476
 30
0.0
 42
-0.4238676972146167
  0
VERTEX
  5
4F6
  8
RULER
 10
24.20817628968413
 20
1.236304692479476
 30
0.0
 42
-0.4139114804918755
  0
VERTEX
  5
4F7
  8
RULER
 10
24.28317628968413
 20
1.161304692479476
 30
0.0
 42
-0.1946370063820205
  0
VERTEX
  5
4F8
  8
RULER
 10
24.26067628968413
 20
1.108804692479476
 30
0.0
  0
VERTEX
  5
4F9
  8
RULER
 10
24.13567628968413
 20
0.9838046924794761
 30
0.0
  0
VERTEX
  5
4FA
  8
RULER
 10
24.29567628968413
 20
0.9838046924794761
 30
0.0
  0
SEQEND
  5
CAC
  8
RULER
  0
POLYLINE
  5
B9
  8
RULER
 66
     1
 10
0.0
 20
0.0
 30
0.0
  0
VERTEX
  5
4FB
  8
RULER
 10
24.52317628968413
 20
1.028804692479476
 30
0.0
  0
VERTEX
  5
4FC
  8
RULER
 10
24.34567628968412
 20
1.028804692479476
 30
0.0
  0
VERTEX
  5
4FD
  8
RULER
 10
24.48567628968413
 20
1.233804692479476
 30
0.0
  0
VERTEX
  5
4FE
  8
RULER
 10
24.48567628968413
 20
0.9838046924794761
 30
0.0
  0
SEQEND
  5
CAD
  8
RULER
  0
POLYLINE
  5
BA
  8
RULER
 66
     1
 10
0.0
 20
0.0
 30
0.0
  0
VERTEX
  5
4FF
  8
RULER
 10
25.13317628968413
 20
1.158804692479476
 30
0.0
 42
-0.4238676972146167
  0
VERTEX
  5
500
  8
RULER
 10
25.20817628968413
 20
1.236304692479476
 30
0.0
 42
-0.4139114804918755
  0
VERTEX
  5
501
  8
RULER
 10
25.28317628968413
 20
1.161304692479476
 30
0.0
 42
-0.1946370063820205
  0
VERTEX
  5
502
  8
RULER
 10
25.26067628968413
 20
1.108804692479476
 30
0.0
  0
VERTEX
  5
503
  8
RULER
 10
25.13567628968413
 20
0.9838046924794761
 30
0.0
  0
VERTEX
  5
504
  8
RULER
 10
25.29567628968413
 20
0.9838046924794761
 30
0.0
  0
SEQEND
  5
CAE
  8
RULER
  0
POLYLINE
  5
BB
  8
RULER
 66
     1
 10
0.0
 20
0.0
 30
0.0
  0
VERTEX
  5
505
  8
RULER
 10
25.33067628968413
 20
1.061304692479476
 30
0.0
 42
0.8576084699939476
  0
VERTEX
  5
506
  8
RULER
 10
25.49784295635079
 20
1.043804692479476
 30
0.0
 42
0.8394311096568591
  0
VERTEX
  5
507
  8
RULER
 10
25.34567628968413
 20
1.113804692479476
 30
0.0
  0
VERTEX
  5
508
  8
RULER
 10
25.36567628968413
 20
1.233804692479476
 30
0.0
  0
VERTEX
  5
509
  8
RULER
 10
25.48317628968413
 20
1.233804692479476
 30
0.0
  0
SEQEND
  5
CAF
  8
RULER
  0
POLYLINE
  5
BC
  8
RULER
 66
     1
 10
0.0
 20
0.0
 30
0.0
  0
VERTEX
  5
50A
  8
RULER
 10
26.13317628968413
 20
1.158804692479476
 30
0.0
 42
-0.4238676972146167
  0
VERTEX
  5
50B
  8
RULER
 10
26.20817628968413
 20
1.236304692479476
 30
0.0
 42
-0.4139114804918755
  0
VERTEX
  5
50C
  8
RULER
 10
26.28317628968413
 20
1.161304692479476
 30
0.0
 42
-0.1946370063820205
  0
VERTEX
  5
50D
  8
RULER
 10
26.26067628968413
 20
1.108804692479476
 30
0.0
  0
VERTEX
  5
50E
  8
RULER
 10
26.13567628968413
 20
0.9838046924794761
 30
0.0
  0
VERTEX
  5
50F
  8
RULER
 10
26.29567628968413
 20
0.9838046924794761
 30
0.0
  0
SEQEND
  5
CB0
  8
RULER
  0
POLYLINE
  5
BD
  8
RULER
 66
     1
 10
0.0
 20
0.0
 30
0.0
 70
     1
  0
VERTEX
  5
510
  8
RULER
 10
26.43067628968413
 20
0.9813046924794762
 30
0.0
  0
VERTEX
  5
511
  8
RULER
 10
26.43936704591497
 20
0.9817435378974197
 30
0.0
  0
VERTEX
  5
512
  8
RULER
 10
26.44780675442853
 20
0.9830315903731324
 30
0.0
  0
VERTEX
  5
513
  8
RULER
 10
26.45595268955763
 20
0.9851261242394367
 30
0.0
  0
VERTEX
  5
514
  8
RULER
 10
26.46376212563509
 20
0.9879844138291549
 30
0.0
  0
VERTEX
  5
515
  8
RULER
 10
26.47119233699373
 20
0.99156373347511
 30
0.0
  0
VERTEX
  5
516
  8
RULER
 10
26.47820059796638
 20
0.9958213575101238
 30
0.0
  0
VERTEX
  5
517
  8
RULER
 10
26.48474418288585
 20
1.00071456026702
 30
0.0
  0
VERTEX
  5
518
  8
RULER
 10
26.49078036608498
 20
1.006200616078619
 30
0.0
  0
VERTEX
  5
519
  8
RULER
 10
26.49626642189659
 20
1.012236799277746
 30
0.0
  0
VERTEX
  5
51A
  8
RULER
 10
26.50115962465348
 20
1.018780384197222
 30
0.0
  0
VERTEX
  5
51B
  8
RULER
 10
26.5054172486885
 20
1.02578864516987
 30
0.0
  0
VERTEX
  5
51C
  8
RULER
 10
26.50899656833445
 20
1.033218856528512
 30
0.0
  0
VERTEX
  5
51D
  8
RULER
 10
26.51185485792417
 20
1.041028292605971
 30
0.0
  0
VERTEX
  5
51E
  8
RULER
 10
26.51394939179047
 20
1.04917422773507
 30
0.0
  0
VERTEX
  5
51F
  8
RULER
 10
26.51523744426618
 20
1.057613936248631
 30
0.0
  0
VERTEX
  5
520
  8
RULER
 10
26.51567628968413
 20
1.066304692479476
 30
0.0
  0
VERTEX
  5
521
  8
RULER
 10
26.51523744426618
 20
1.074995448710322
 30
0.0
  0
VERTEX
  5
522
  8
RULER
 10
26.51394939179047
 20
1.083435157223882
 30
0.0
  0
VERTEX
  5
523
  8
RULER
 10
26.51185485792417
 20
1.091581092352981
 30
0.0
  0
VERTEX
  5
524
  8
RULER
 10
26.50899656833445
 20
1.09939052843044
 30
0.0
  0
VERTEX
  5
525
  8
RULER
 10
26.5054172486885
 20
1.106820739789082
 30
0.0
  0
VERTEX
  5
526
  8
RULER
 10
26.50115962465348
 20
1.11382900076173
 30
0.0
  0
VERTEX
  5
527
  8
RULER
 10
26.49626642189659
 20
1.120372585681206
 30
0.0
  0
VERTEX
  5
528
  8
RULER
 10
26.49078036608498
 20
1.126408768880333
 30
0.0
  0
VERTEX
  5
529
  8
RULER
 10
26.48474418288585
 20
1.131894824691933
 30
0.0
  0
VERTEX
  5
52A
  8
RULER
 10
26.47820059796638
 20
1.136788027448828
 30
0.0
  0
VERTEX
  5
52B
  8
RULER
 10
26.47119233699373
 20
1.141045651483843
 30
0.0
  0
VERTEX
  5
52C
  8
RULER
 10
26.46376212563509
 20
1.144624971129797
 30
0.0
  0
VERTEX
  5
52D
  8
RULER
 10
26.45595268955763
 20
1.147483260719516
 30
0.0
  0
VERTEX
  5
52E
  8
RULER
 10
26.44780675442853
 20
1.14957779458582
 30
0.0
  0
VERTEX
  5
52F
  8
RULER
 10
26.43936704591497
 20
1.150865847061532
 30
0.0
  0
VERTEX
  5
530
  8
RULER
 10
26.43067628968413
 20
1.151304692479476
 30
0.0
  0
VERTEX
  5
531
  8
RULER
 10
26.42198553345328
 20
1.150865847061532
 30
0.0
  0
VERTEX
  5
532
  8
RULER
 10
26.41354582493972
 20
1.14957779458582
 30
0.0
  0
VERTEX
  5
533
  8
RULER
 10
26.40539988981062
 20
1.147483260719516
 30
0.0
  0
VERTEX
  5
534
  8
RULER
 10
26.39759045373316
 20
1.144624971129797
 30
0.0
  0
VERTEX
  5
535
  8
RULER
 10
26.39016024237452
 20
1.141045651483843
 30
0.0
  0
VERTEX
  5
536
  8
RULER
 10
26.38315198140187
 20
1.136788027448828
 30
0.0
  0
VERTEX
  5
537
  8
RULER
 10
26.3766083964824
 20
1.131894824691933
 30
0.0
  0
VERTEX
  5
538
  8
RULER
 10
26.37057221328327
 20
1.126408768880333
 30
0.0
  0
VERTEX
  5
539
  8
RULER
 10
26.36508615747167
 20
1.120372585681206
 30
0.0
  0
VERTEX
  5
53A
  8
RULER
 10
26.36019295471477
 20
1.11382900076173
 30
0.0
  0
VERTEX
  5
53B
  8
RULER
 10
26.35593533067976
 20
1.106820739789082
 30
0.0
  0
VERTEX
  5
53C
  8
RULER
 10
26.3523560110338
 20
1.09939052843044
 30
0.0
  0
VERTEX
  5
53D
  8
RULER
 10
26.34949772144408
 20
1.091581092352981
 30
0.0
  0
VERTEX
  5
53E
  8
RULER
 10
26.34740318757778
 20
1.083435157223882
 30
0.0
  0
VERTEX
  5
53F
  8
RULER
 10
26.34611513510207
 20
1.074995448710322
 30
0.0
  0
VERTEX
  5
540
  8
RULER
 10
26.34567628968412
 20
1.066304692479476
 30
0.0
  0
VERTEX
  5
541
  8
RULER
 10
26.34611513510207
 20
1.057613936248631
 30
0.0
  0
VERTEX
  5
542
  8
RULER
 10
26.34740318757778
 20
1.04917422773507
 30
0.0
  0
VERTEX
  5
543
  8
RULER
 10
26.34949772144408
 20
1.041028292605971
 30
0.0
  0
VERTEX
  5
544
  8
RULER
 10
26.3523560110338
 20
1.033218856528512
 30
0.0
  0
VERTEX
  5
545
  8
RULER
 10
26.35593533067976
 20
1.02578864516987
 30
0.0
  0
VERTEX
  5
546
  8
RULER
 10
26.36019295471477
 20
1.018780384197222
 30
0.0
  0
VERTEX
  5
547
  8
RULER
 10
26.36508615747167
 20
1.012236799277746
 30
0.0
  0
VERTEX
  5
548
  8
RULER
 10
26.37057221328327
 20
1.006200616078619
 30
0.0
  0
VERTEX
  5
549
  8
RULER
 10
26.3766083964824
 20
1.00071456026702
 30
0.0
  0
VERTEX
  5
54A
  8
RULER
 10
26.38315198140187
 20
0.9958213575101238
 30
0.0
  0
VERTEX
  5
54B
  8
RULER
 10
26.39016024237452
 20
0.99156373347511
 30
0.0
  0
VERTEX
  5
54C
  8
RULER
 10
26.39759045373316
 20
0.9879844138291549
 30
0.0
  0
VERTEX
  5
54D
  8
RULER
 10
26.40539988981062
 20
0.9851261242394367
 30
0.0
  0
VERTEX
  5
54E
  8
RULER
 10
26.41354582493972
 20
0.9830315903731324
 30
0.0
  0
VERTEX
  5
54F
  8
RULER
 10
26.42198553345328
 20
0.9817435378974197
 30
0.0
  0
SEQEND
  5
CB1
  8
RULER
  0
POLYLINE
  5
BE
  8
RULER
 66
     1
 10
0.0
 20
0.0
 30
0.0
  0
VERTEX
  5
550
  8
RULER
 10
26.43067628968413
 20
0.9813046924794762
 30
0.0
 42
-0.5862971619980313
  0
VERTEX
  5
551
  8
RULER
 10
26.35817628968412
 20
1.111304692479476
 30
0.0
  0
VERTEX
  5
552
  8
RULER
 10
26.44067628968412
 20
1.236304692479476
 30
0.0
  0
SEQEND
  5
CB2
  8
RULER
  0
POLYLINE
  5
BF
  8
RULER
 66
     1
 10
0.0
 20
0.0
 30
0.0
  0
VERTEX
  5
553
  8
RULER
 10
27.13317628968413
 20
1.158804692479476
 30
0.0
 42
-0.4238676972146167
  0
VERTEX
  5
554
  8
RULER
 10
27.20817628968413
 20
1.236304692479476
 30
0.0
 42
-0.4139114804918755
  0
VERTEX
  5
555
  8
RULER
 10
27.28317628968413
 20
1.161304692479476
 30
0.0
 42
-0.1946370063820205
  0
VERTEX
  5
556
  8
RULER
 10
27.26067628968413
 20
1.108804692479476
 30
0.0
  0
VERTEX
  5
557
  8
RULER
 10
27.13567628968413
 20
0.9838046924794761
 30
0.0
  0
VERTEX
  5
558
  8
RULER
 10
27.29567628968413
 20
0.9838046924794761
 30
0.0
  0
SEQEND
  5
CB3
  8
RULER
  0
POLYLINE
  5
C0
  8
RULER
 66
     1
 10
0.0
 20
0.0
 30
0.0
  0
VERTEX
  5
559
  8
RULER
 10
27.34567628968412
 20
1.233804692479476
 30
0.0
  0
VERTEX
  5
55A
  8
RULER
 10
27.48567628968413
 20
1.233804692479476
 30
0.0
  0
VERTEX
  5
55B
  8
RULER
 10
27.37567628968413
 20
0.9838046924794761
 30
0.0
  0
SEQEND
  5
CB4
  8
RULER
  0
POLYLINE
  5
C1
  8
RULER
 66
     1
 10
0.0
 20
0.0
 30
0.0
  0
VERTEX
  5
55C
  8
RULER
 10
28.13317628968413
 20
1.158804692479476
 30
0.0
 42
-0.4238676972146167
  0
VERTEX
  5
55D
  8
RULER
 10
28.20817628968413
 20
1.236304692479476
 30
0.0
 42
-0.4139114804918755
  0
VERTEX
  5
55E
  8
RULER
 10
28.28317628968413
 20
1.161304692479476
 30
0.0
 42
-0.1946370063820205
  0
VERTEX
  5
55F
  8
RULER
 10
28.26067628968413
 20
1.108804692479476
 30
0.0
  0
VERTEX
  5
560
  8
RULER
 10
28.13567628968413
 20
0.9838046924794761
 30
0.0
  0
VERTEX
  5
561
  8
RULER
 10
28.29567628968413
 20
0.9838046924794761
 30
0.0
  0
SEQEND
  5
CB5
  8
RULER
  0
POLYLINE
  5
C2
  8
RULER
 66
     1
 10
0.0
 20
0.0
 30
0.0
 70
     1
  0
VERTEX
  5
562
  8
RULER
 10
28.41567628968413
 20
1.126304692479476
 30
0.0
  0
VERTEX
  5
563
  8
RULER
 10
28.41005285918181
 20
1.126588651279322
 30
0.0
  0
VERTEX
  5
564
  8
RULER
 10
28.4045918713201
 20
1.127422096998901
 30
0.0
  0
VERTEX
  5
565
  8
RULER
 10
28.39932097211892
 20
1.128777383618274
 30
0.0
  0
VERTEX
  5
566
  8
RULER
 10
28.39426780759821
 20
1.130626865117504
 30
0.0
  0
VERTEX
  5
567
  8
RULER
 10
28.38946002377791
 20
1.132942895476651
 30
0.0
  0
VERTEX
  5
568
  8
RULER
 10
28.38492526667796
 20
1.135697828675778
 30
0.0
  0
VERTEX
  5
569
  8
RULER
 10
28.3806911823183
 20
1.138864018694945
 30
0.0
  0
VERTEX
  5
56A
  8
RULER
 10
28.37678541671886
 20
1.142413819514216
 30
0.0
  0
VERTEX
  5
56B
  8
RULER
 10
28.37323561589959
 20
1.146319585113651
 30
0.0
  0
VERTEX
  5
56C
  8
RULER
 10
28.37006942588043
 20
1.150553669473312
 30
0.0
  0
VERTEX
  5
56D
  8
RULER
 10
28.3673144926813
 20
1.15508842657326
 30
0.0
  0
VERTEX
  5
56E
  8
RULER
 10
28.36499846232216
 20
1.159896210393558
 30
0.0
  0
VERTEX
  5
56F
  8
RULER
 10
28.36314898082293
 20
1.164949374914267
 30
0.0
  0
VERTEX
  5
570
  8
RULER
 10
28.36179369420355
 20
1.170220274115449
 30
0.0
  0
VERTEX
  5
571
  8
RULER
 10
28.36096024848397
 20
1.175681261977164
 30
0.0
  0
VERTEX
  5
572
  8
RULER
 10
28.36067628968413
 20
1.181304692479476
 30
0.0
  0
VERTEX
  5
573
  8
RULER
 10
28.36096024848397
 20
1.186928122981788
 30
0.0
  0
VERTEX
  5
574
  8
RULER
 10
28.36179369420355
 20
1.192389110843504
 30
0.0
  0
VERTEX
  5
575
  8
RULER
 10
28.36314898082293
 20
1.197660010044685
 30
0.0
  0
VERTEX
  5
576
  8
RULER
 10
28.36499846232216
 20
1.202713174565394
 30
0.0
  0
VERTEX
  5
577
  8
RULER
 10
28.3673144926813
 20
1.207520958385692
 30
0.0
  0
VERTEX
  5
578
  8
RULER
 10
28.37006942588043
 20
1.21205571548564
 30
0.0
  0
VERTEX
  5
579
  8
RULER
 10
28.37323561589959
 20
1.216289799845302
 30
0.0
  0
VERTEX
  5
57A
  8
RULER
 10
28.37678541671886
 20
1.220195565444736
 30
0.0
  0
VERTEX
  5
57B
  8
RULER
 10
28.3806911823183
 20
1.223745366264007
 30
0.0
  0
VERTEX
  5
57C
  8
RULER
 10
28.38492526667796
 20
1.226911556283174
 30
0.0
  0
VERTEX
  5
57D
  8
RULER
 10
28.38946002377791
 20
1.229666489482301
 30
0.0
  0
VERTEX
  5
57E
  8
RULER
 10
28.39426780759821
 20
1.231982519841448
 30
0.0
  0
VERTEX
  5
57F
  8
RULER
 10
28.39932097211892
 20
1.233832001340678
 30
0.0
  0
VERTEX
  5
580
  8
RULER
 10
28.4045918713201
 20
1.235187287960051
 30
0.0
  0
VERTEX
  5
581
  8
RULER
 10
28.41005285918181
 20
1.23602073367963
 30
0.0
  0
VERTEX
  5
582
  8
RULER
 10
28.41567628968413
 20
1.236304692479476
 30
0.0
  0
VERTEX
  5
583
  8
RULER
 10
28.42129972018644
 20
1.23602073367963
 30
0.0
  0
VERTEX
  5
584
  8
RULER
 10
28.42676070804815
 20
1.235187287960051
 30
0.0
  0
VERTEX
  5
585
  8
RULER
 10
28.43203160724933
 20
1.233832001340678
 30
0.0
  0
VERTEX
  5
586
  8
RULER
 10
28.43708477177004
 20
1.231982519841448
 30
0.0
  0
VERTEX
  5
587
  8
RULER
 10
28.44189255559034
 20
1.229666489482301
 30
0.0
  0
VERTEX
  5
588
  8
RULER
 10
28.44642731269029
 20
1.226911556283174
 30
0.0
  0
VERTEX
  5
589
  8
RULER
 10
28.45066139704995
 20
1.223745366264007
 30
0.0
  0
VERTEX
  5
58A
  8
RULER
 10
28.45456716264939
 20
1.220195565444736
 30
0.0
  0
VERTEX
  5
58B
  8
RULER
 10
28.45811696346866
 20
1.216289799845302
 30
0.0
  0
VERTEX
  5
58C
  8
RULER
 10
28.46128315348782
 20
1.21205571548564
 30
0.0
  0
VERTEX
  5
58D
  8
RULER
 10
28.46403808668695
 20
1.207520958385692
 30
0.0
  0
VERTEX
  5
58E
  8
RULER
 10
28.46635411704609
 20
1.202713174565394
 30
0.0
  0
VERTEX
  5
58F
  8
RULER
 10
28.46820359854532
 20
1.197660010044685
 30
0.0
  0
VERTEX
  5
590
  8
RULER
 10
28.4695588851647
 20
1.192389110843504
 30
0.0
  0
VERTEX
  5
591
  8
RULER
 10
28.47039233088428
 20
1.186928122981788
 30
0.0
  0
VERTEX
  5
592
  8
RULER
 10
28.47067628968412
 20
1.181304692479476
 30
0.0
  0
VERTEX
  5
593
  8
RULER
 10
28.47039233088428
 20
1.175681261977164
 30
0.0
  0
VERTEX
  5
594
  8
RULER
 10
28.4695588851647
 20
1.170220274115449
 30
0.0
  0
VERTEX
  5
595
  8
RULER
 10
28.46820359854532
 20
1.164949374914267
 30
0.0
  0
VERTEX
  5
596
  8
RULER
 10
28.46635411704609
 20
1.159896210393558
 30
0.0
  0
VERTEX
  5
597
  8
RULER
 10
28.46403808668695
 20
1.15508842657326
 30
0.0
  0
VERTEX
  5
598
  8
RULER
 10
28.46128315348782
 20
1.150553669473312
 30
0.0
  0
VERTEX
  5
599
  8
RULER
 10
28.45811696346866
 20
1.146319585113651
 30
0.0
  0
VERTEX
  5
59A
  8
RULER
 10
28.45456716264939
 20
1.142413819514216
 30
0.0
  0
VERTEX
  5
59B
  8
RULER
 10
28.45066139704995
 20
1.138864018694945
 30
0.0
  0
VERTEX
  5
59C
  8
RULER
 10
28.44642731269029
 20
1.135697828675778
 30
0.0
  0
VERTEX
  5
59D
  8
RULER
 10
28.44189255559034
 20
1.132942895476651
 30
0.0
  0
VERTEX
  5
59E
  8
RULER
 10
28.43708477177004
 20
1.130626865117504
 30
0.0
  0
VERTEX
  5
59F
  8
RULER
 10
28.43203160724933
 20
1.128777383618274
 30
0.0
  0
VERTEX
  5
5A0
  8
RULER
 10
28.42676070804815
 20
1.127422096998901
 30
0.0
  0
VERTEX
  5
5A1
  8
RULER
 10
28.42129972018644
 20
1.126588651279322
 30
0.0
  0
SEQEND
  5
CB6
  8
RULER
  0
POLYLINE
  5
C3
  8
RULER
 66
     1
 10
0.0
 20
0.0
 30
0.0
 70
     1
  0
VERTEX
  5
5A2
  8
RULER
 10
28.41567628968413
 20
1.126304692479476
 30
0.0
 42
-0.4142857142857143
  0
VERTEX
  5
5A3
  8
RULER
 10
28.48567628968413
 20
1.056304692479476
 30
0.0
  0
VERTEX
  5
5A4
  8
RULER
 10
28.48567628968413
 20
1.051304692479476
 30
0.0
 42
-1.0
  0
VERTEX
  5
5A5
  8
RULER
 10
28.34567628968412
 20
1.051304692479476
 30
0.0
  0
VERTEX
  5
5A6
  8
RULER
 10
28.34567628968412
 20
1.056304692479476
 30
0.0
 42
-0.4142857142857144
  0
SEQEND
  5
CB7
  8
RULER
  0
POLYLINE
  5
C4
  8
RULER
 66
     1
 10
0.0
 20
0.0
 30
0.0
  0
VERTEX
  5
5A7
  8
RULER
 10
29.13317628968413
 20
1.158804692479476
 30
0.0
 42
-0.4238676972146167
  0
VERTEX
  5
5A8
  8
RULER
 10
29.20817628968413
 20
1.236304692479476
 30
0.0
 42
-0.4139114804918755
  0
VERTEX
  5
5A9
  8
RULER
 10
29.28317628968413
 20
1.161304692479476
 30
0.0
 42
-0.1946370063820205
  0
VERTEX
  5
5AA
  8
RULER
 10
29.26067628968413
 20
1.108804692479476
 30
0.0
  0
VERTEX
  5
5AB
  8
RULER
 10
29.13567628968413
 20
0.9838046924794761
 30
0.0
  0
VERTEX
  5
5AC
  8
RULER
 10
29.29567628968413
 20
0.9838046924794761
 30
0.0
  0
SEQEND
  5
CB8
  8
RULER
  0
POLYLINE
  5
C5
  8
RULER
 66
     1
 10
0.0
 20
0.0
 30
0.0
  0
VERTEX
  5
5AD
  8
RULER
 10
29.42067628968412
 20
0.9838046924794761
 30
0.0
  0
VERTEX
  5
5AE
  8
RULER
 10
29.50317628968413
 20
1.108804692479476
 30
0.0
 42
0.1380051253523702
  0
VERTEX
  5
5AF
  8
RULER
 10
29.51567628968413
 20
1.151304692479476
 30
0.0
 42
1.0
  0
VERTEX
  5
5B0
  8
RULER
 10
29.34567628968412
 20
1.151304692479476
 30
0.0
 42
0.7699957824736615
  0
VERTEX
  5
5B1
  8
RULER
 10
29.50317628968413
 20
1.108804692479476
 30
0.0
  0
SEQEND
  5
CB9
  8
RULER
  0
POLYLINE
  5
C6
  8
RULER
 66
     1
 10
0.0
 20
0.0
 30
0.0
  0
VERTEX
  5
5B2
  8
RULER
 10
30.14567628968413
 20
1.173804692479476
 30
0.0
 42
-0.4548493327042687
  0
VERTEX
  5
5B3
  8
RULER
 10
30.20067628968413
 20
1.236804692479476
 30
0.0
 42
-0.4114350750726344
  0
VERTEX
  5
5B4
  8
RULER
 10
30.25567628968412
 20
1.181304692479476
 30
0.0
  0
VERTEX
  5
5B5
  8
RULER
 10
30.25567628968412
 20
1.173804692479476
 30
0.0
 42
-0.4121212121212124
  0
VERTEX
  5
5B6
  8
RULER
 10
30.20067628968413
 20
1.118804692479476
 30
0.0
  0
VERTEX
  5
5B7
  8
RULER
 10
30.18817628968413
 20
1.118804692479476
 30
0.0
  0
VERTEX
  5
5B8
  8
RULER
 10
30.20317628968413
 20
1.118804692479476
 30
0.0
 42
-0.4142857142857143
  0
VERTEX
  5
5B9
  8
RULER
 10
30.27317628968413
 20
1.048804692479476
 30
0.0
 42
-0.9462693881493045
  0
VERTEX
  5
5BA
  8
RULER
 10
30.13317628968413
 20
1.046304692479476
 30
0.0
  0
SEQEND
  5
CBA
  8
RULER
  0
POLYLINE
  5
C7
  8
RULER
 66
     1
 10
0.0
 20
0.0
 30
0.0
 70
     1
  0
VERTEX
  5
5BB
  8
RULER
 10
30.44817628968413
 20
0.9813046924794762
 30
0.0
  0
VERTEX
  5
5BC
  8
RULER
 10
30.45067628968413
 20
0.9813046924794762
 30
0.0
 42
0.4133333333333333
  0
VERTEX
  5
5BD
  8
RULER
 10
30.57567628968413
 20
1.106304692479476
 30
0.0
  0
VERTEX
  5
5BE
  8
RULER
 10
30.57567628968413
 20
1.108804692479476
 30
0.0
 42
0.4133333333333333
  0
VERTEX
  5
5BF
  8
RULER
 10
30.45067628968413
 20
1.233804692479476
 30
0.0
  0
VERTEX
  5
5C0
  8
RULER
 10
30.44817628968413
 20
1.233804692479476
 30
0.0
 42
0.4133333333333333
  0
VERTEX
  5
5C1
  8
RULER
 10
30.32317628968413
 20
1.108804692479476
 30
0.0
  0
VERTEX
  5
5C2
  8
RULER
 10
30.32317628968413
 20
1.106304692479476
 30
0.0
 42
0.4133333333333333
  0
SEQEND
  5
CBB
  8
RULER
  0
POLYLINE
  5
C8
  8
RULER
 66
     1
 10
0.0
 20
0.0
 30
0.0
  0
VERTEX
  5
5C3
  8
RULER
 10
31.14567628968413
 20
1.173804692479476
 30
0.0
 42
-0.4548493327042687
  0
VERTEX
  5
5C4
  8
RULER
 10
31.20067628968413
 20
1.236804692479476
 30
0.0
 42
-0.4114350750726344
  0
VERTEX
  5
5C5
  8
RULER
 10
31.25567628968412
 20
1.181304692479476
 30
0.0
  0
VERTEX
  5
5C6
  8
RULER
 10
31.25567628968412
 20
1.173804692479476
 30
0.0
 42
-0.4121212121212124
  0
VERTEX
  5
5C7
  8
RULER
 10
31.20067628968413
 20
1.118804692479476
 30
0.0
  0
VERTEX
  5
5C8
  8
RULER
 10
31.18817628968413
 20
1.118804692479476
 30
0.0
  0
VERTEX
  5
5C9
  8
RULER
 10
31.20317628968413
 20
1.118804692479476
 30
0.0
 42
-0.4142857142857143
  0
VERTEX
  5
5CA
  8
RULER
 10
31.27317628968413
 20
1.048804692479476
 30
0.0
 42
-0.9462693881493045
  0
VERTEX
  5
5CB
  8
RULER
 10
31.13317628968413
 20
1.046304692479476
 30
0.0
  0
SEQEND
  5
CBC
  8
RULER
  0
POLYLINE
  5
C9
  8
RULER
 66
     1
 10
0.0
 20
0.0
 30
0.0
  0
VERTEX
  5
5CC
  8
RULER
 10
31.32317628968412
 20
1.233804692479476
 30
0.0
  0
VERTEX
  5
5CD
  8
RULER
 10
31.39067628968413
 20
1.233804692479476
 30
0.0
  0
VERTEX
  5
5CE
  8
RULER
 10
31.39067628968413
 20
0.9838046924794761
 30
0.0
  0
SEQEND
  5
CBD
  8
RULER
  0
POLYLINE
  5
CA
  8
RULER
 66
     1
 10
0.0
 20
0.0
 30
0.0
  0
VERTEX
  5
5CF
  8
RULER
 10
1.133176289684127
 20
1.233804692479476
 30
0.0
  0
VERTEX
  5
5D0
  8
RULER
 10
1.200676289684127
 20
1.233804692479476
 30
0.0
  0
VERTEX
  5
5D1
  8
RULER
 10
1.200676289684127
 20
0.9838046924794761
 30
0.0
  0
SEQEND
  5
CBE
  8
RULER
  0
POLYLINE
  5
CB
  8
RULER
 66
     1
 10
0.0
 20
0.0
 30
0.0
  0
VERTEX
  5
5D2
  8
RULER
 10
1.55563631968353
 20
2.243296698479353
 30
0.0
 42
-0.4238676972146167
  0
VERTEX
  5
5D3
  8
RULER
 10
1.63063631968353
 20
2.320796698479353
 30
0.0
 42
-0.4139114804918755
  0
VERTEX
  5
5D4
  8
RULER
 10
1.70563631968353
 20
2.245796698479353
 30
0.0
 42
-0.1946370063820205
  0
VERTEX
  5
5D5
  8
RULER
 10
1.68313631968353
 20
2.193296698479353
 30
0.0
  0
VERTEX
  5
5D6
  8
RULER
 10
1.55813631968353
 20
2.068296698479353
 30
0.0
  0
VERTEX
  5
5D7
  8
RULER
 10
1.71813631968353
 20
2.068296698479353
 30
0.0
  0
SEQEND
  5
CBF
  8
RULER
  0
POLYLINE
  5
CC
  8
RULER
 66
     1
 10
0.0
 20
0.0
 30
0.0
  0
VERTEX
  5
5D8
  8
RULER
 10
1.145676289684127
 20
3.173804692479476
 30
0.0
 42
-0.4548493327042687
  0
VERTEX
  5
5D9
  8
RULER
 10
1.200676289684127
 20
3.236804692479476
 30
0.0
 42
-0.4114350750726344
  0
VERTEX
  5
5DA
  8
RULER
 10
1.255676289684127
 20
3.181304692479476
 30
0.0
  0
VERTEX
  5
5DB
  8
RULER
 10
1.255676289684127
 20
3.173804692479476
 30
0.0
 42
-0.4121212121212124
  0
VERTEX
  5
5DC
  8
RULER
 10
1.200676289684127
 20
3.118804692479476
 30
0.0
  0
VERTEX
  5
5DD
  8
RULER
 10
1.188176289684127
 20
3.118804692479476
 30
0.0
  0
VERTEX
  5
5DE
  8
RULER
 10
1.203176289684127
 20
3.118804692479476
 30
0.0
 42
-0.4142857142857143
  0
VERTEX
  5
5DF
  8
RULER
 10
1.273176289684127
 20
3.048804692479476
 30
0.0
 42
-0.9462693881493045
  0
VERTEX
  5
5E0
  8
RULER
 10
1.133176289684127
 20
3.046304692479476
 30
0.0
  0
SEQEND
  5
CC0
  8
RULER
  0
POLYLINE
  5
CD
  8
RULER
 66
     1
 10
0.0
 20
0.0
 30
0.0
  0
VERTEX
  5
5E1
  8
RULER
 10
1.73313631968353
 20
4.113296698479353
 30
0.0
  0
VERTEX
  5
5E2
  8
RULER
 10
1.55563631968353
 20
4.113296698479353
 30
0.0
  0
VERTEX
  5
5E3
  8
RULER
 10
1.69563631968353
 20
4.318296698479353
 30
0.0
  0
VERTEX
  5
5E4
  8
RULER
 10
1.69563631968353
 20
4.068296698479353
 30
0.0
  0
SEQEND
  5
CC1
  8
RULER
  0
POLYLINE
  5
CE
  8
RULER
 66
     1
 10
0.0
 20
0.0
 30
0.0
  0
VERTEX
  5
5E5
  8
RULER
 10
1.133176289684127
 20
5.061304692479475
 30
0.0
 42
0.8576084699939476
  0
VERTEX
  5
5E6
  8
RULER
 10
1.300342956350794
 20
5.043804692479475
 30
0.0
 42
0.8394311096568591
  0
VERTEX
  5
5E7
  8
RULER
 10
1.148176289684127
 20
5.113804692479476
 30
0.0
  0
VERTEX
  5
5E8
  8
RULER
 10
1.168176289684127
 20
5.233804692479476
 30
0.0
  0
VERTEX
  5
5E9
  8
RULER
 10
1.285676289684127
 20
5.233804692479476
 30
0.0
  0
SEQEND
  5
CC2
  8
RULER
  0
POLYLINE
  5
CF
  8
RULER
 66
     1
 10
0.0
 20
0.0
 30
0.0
 70
     1
  0
VERTEX
  5
5EA
  8
RULER
 10
1.640784709567597
 20
6.065796698479352
 30
0.0
  0
VERTEX
  5
5EB
  8
RULER
 10
1.649475465798442
 20
6.066235543897296
 30
0.0
  0
VERTEX
  5
5EC
  8
RULER
 10
1.657915174312003
 20
6.067523596373008
 30
0.0
  0
VERTEX
  5
5ED
  8
RULER
 10
1.666061109441102
 20
6.069618130239312
 30
0.0
  0
VERTEX
  5
5EE
  8
RULER
 10
1.673870545518561
 20
6.072476419829031
 30
0.0
  0
VERTEX
  5
5EF
  8
RULER
 10
1.681300756877203
 20
6.076055739474986
 30
0.0
  0
VERTEX
  5
5F0
  8
RULER
 10
1.688309017849851
 20
6.080313363510001
 30
0.0
  0
VERTEX
  5
5F1
  8
RULER
 10
1.694852602769327
 20
6.085206566266896
 30
0.0
  0
VERTEX
  5
5F2
  8
RULER
 10
1.700888785968453
 20
6.090692622078496
 30
0.0
  0
VERTEX
  5
5F3
  8
RULER
 10
1.706374841780053
 20
6.096728805277623
 30
0.0
  0
VERTEX
  5
5F4
  8
RULER
 10
1.711268044536949
 20
6.103272390197098
 30
0.0
  0
VERTEX
  5
5F5
  8
RULER
 10
1.715525668571963
 20
6.110280651169747
 30
0.0
  0
VERTEX
  5
5F6
  8
RULER
 10
1.719104988217918
 20
6.117710862528389
 30
0.0
  0
VERTEX
  5
5F7
  8
RULER
 10
1.721963277807636
 20
6.125520298605847
 30
0.0
  0
VERTEX
  5
5F8
  8
RULER
 10
1.72405781167394
 20
6.133666233734946
 30
0.0
  0
VERTEX
  5
5F9
  8
RULER
 10
1.725345864149653
 20
6.142105942248507
 30
0.0
  0
VERTEX
  5
5FA
  8
RULER
 10
1.725784709567597
 20
6.150796698479352
 30
0.0
  0
VERTEX
  5
5FB
  8
RULER
 10
1.725345864149653
 20
6.159487454710198
 30
0.0
  0
VERTEX
  5
5FC
  8
RULER
 10
1.72405781167394
 20
6.167927163223759
 30
0.0
  0
VERTEX
  5
5FD
  8
RULER
 10
1.721963277807636
 20
6.176073098352857
 30
0.0
  0
VERTEX
  5
5FE
  8
RULER
 10
1.719104988217918
 20
6.183882534430317
 30
0.0
  0
VERTEX
  5
5FF
  8
RULER
 10
1.715525668571963
 20
6.191312745788959
 30
0.0
  0
VERTEX
  5
600
  8
RULER
 10
1.711268044536949
 20
6.198321006761606
 30
0.0
  0
VERTEX
  5
601
  8
RULER
 10
1.706374841780053
 20
6.204864591681083
 30
0.0
  0
VERTEX
  5
602
  8
RULER
 10
1.700888785968453
 20
6.21090077488021
 30
0.0
  0
VERTEX
  5
603
  8
RULER
 10
1.694852602769327
 20
6.21638683069181
 30
0.0
  0
VERTEX
  5
604
  8
RULER
 10
1.688309017849851
 20
6.221280033448705
 30
0.0
  0
VERTEX
  5
605
  8
RULER
 10
1.681300756877203
 20
6.22553765748372
 30
0.0
  0
VERTEX
  5
606
  8
RULER
 10
1.673870545518561
 20
6.229116977129674
 30
0.0
  0
VERTEX
  5
607
  8
RULER
 10
1.666061109441102
 20
6.231975266719393
 30
0.0
  0
VERTEX
  5
608
  8
RULER
 10
1.657915174312003
 20
6.234069800585696
 30
0.0
  0
VERTEX
  5
609
  8
RULER
 10
1.649475465798442
 20
6.235357853061409
 30
0.0
  0
VERTEX
  5
60A
  8
RULER
 10
1.640784709567597
 20
6.235796698479353
 30
0.0
  0
VERTEX
  5
60B
  8
RULER
 10
1.632093953336751
 20
6.235357853061409
 30
0.0
  0
VERTEX
  5
60C
  8
RULER
 10
1.623654244823191
 20
6.234069800585696
 30
0.0
  0
VERTEX
  5
60D
  8
RULER
 10
1.615508309694092
 20
6.231975266719393
 30
0.0
  0
VERTEX
  5
60E
  8
RULER
 10
1.607698873616633
 20
6.229116977129674
 30
0.0
  0
VERTEX
  5
60F
  8
RULER
 10
1.60026866225799
 20
6.22553765748372
 30
0.0
  0
VERTEX
  5
610
  8
RULER
 10
1.593260401285343
 20
6.221280033448705
 30
0.0
  0
VERTEX
  5
611
  8
RULER
 10
1.586716816365867
 20
6.21638683069181
 30
0.0
  0
VERTEX
  5
612
  8
RULER
 10
1.58068063316674
 20
6.21090077488021
 30
0.0
  0
VERTEX
  5
613
  8
RULER
 10
1.57519457735514
 20
6.204864591681083
 30
0.0
  0
VERTEX
  5
614
  8
RULER
 10
1.570301374598244
 20
6.198321006761606
 30
0.0
  0
VERTEX
  5
615
  8
RULER
 10
1.56604375056323
 20
6.191312745788959
 30
0.0
  0
VERTEX
  5
616
  8
RULER
 10
1.562464430917275
 20
6.183882534430317
 30
0.0
  0
VERTEX
  5
617
  8
RULER
 10
1.559606141327557
 20
6.176073098352857
 30
0.0
  0
VERTEX
  5
618
  8
RULER
 10
1.557511607461253
 20
6.167927163223759
 30
0.0
  0
VERTEX
  5
619
  8
RULER
 10
1.556223554985541
 20
6.159487454710198
 30
0.0
  0
VERTEX
  5
61A
  8
RULER
 10
1.555784709567597
 20
6.150796698479352
 30
0.0
  0
VERTEX
  5
61B
  8
RULER
 10
1.556223554985541
 20
6.142105942248507
 30
0.0
  0
VERTEX
  5
61C
  8
RULER
 10
1.557511607461253
 20
6.133666233734946
 30
0.0
  0
VERTEX
  5
61D
  8
RULER
 10
1.559606141327557
 20
6.125520298605847
 30
0.0
  0
VERTEX
  5
61E
  8
RULER
 10
1.562464430917275
 20
6.117710862528389
 30
0.0
  0
VERTEX
  5
61F
  8
RULER
 10
1.56604375056323
 20
6.110280651169747
 30
0.0
  0
VERTEX
  5
620
  8
RULER
 10
1.570301374598244
 20
6.103272390197098
 30
0.0
  0
VERTEX
  5
621
  8
RULER
 10
1.57519457735514
 20
6.096728805277623
 30
0.0
  0
VERTEX
  5
622
  8
RULER
 10
1.58068063316674
 20
6.090692622078496
 30
0.0
  0
VERTEX
  5
623
  8
RULER
 10
1.586716816365867
 20
6.085206566266896
 30
0.0
  0
VERTEX
  5
624
  8
RULER
 10
1.593260401285343
 20
6.080313363510001
 30
0.0
  0
VERTEX
  5
625
  8
RULER
 10
1.60026866225799
 20
6.076055739474986
 30
0.0
  0
VERTEX
  5
626
  8
RULER
 10
1.607698873616633
 20
6.072476419829031
 30
0.0
  0
VERTEX
  5
627
  8
RULER
 10
1.615508309694092
 20
6.069618130239312
 30
0.0
  0
VERTEX
  5
628
  8
RULER
 10
1.623654244823191
 20
6.067523596373008
 30
0.0
  0
VERTEX
  5
629
  8
RULER
 10
1.632093953336751
 20
6.066235543897296
 30
0.0
  0
SEQEND
  5
CC3
  8
RULER
  0
POLYLINE
  5
D0
  8
RULER
 66
     1
 10
0.0
 20
0.0
 30
0.0
  0
VERTEX
  5
62A
  8
RULER
 10
1.640784709567597
 20
6.065796698479352
 30
0.0
 42
-0.5862971619980313
  0
VERTEX
  5
62B
  8
RULER
 10
1.568284709567597
 20
6.195796698479353
 30
0.0
  0
VERTEX
  5
62C
  8
RULER
 10
1.650784709567597
 20
6.320796698479353
 30
0.0
  0
SEQEND
  5
CC4
  8
RULER
  0
POLYLINE
  5
D1
  8
RULER
 66
     1
 10
0.0
 20
0.0
 30
0.0
  0
VERTEX
  5
62D
  8
RULER
 10
1.133176289684127
 20
7.233804692479476
 30
0.0
  0
VERTEX
  5
62E
  8
RULER
 10
1.273176289684127
 20
7.233804692479476
 30
0.0
  0
VERTEX
  5
62F
  8
RULER
 10
1.163176289684127
 20
6.983804692479476
 30
0.0
  0
SEQEND
  5
CC5
  8
RULER
  0
POLYLINE
  5
D2
  8
RULER
 66
     1
 10
0.0
 20
0.0
 30
0.0
 70
     1
  0
VERTEX
  5
630
  8
RULER
 10
1.62563631968353
 20
8.210796698479353
 30
0.0
  0
VERTEX
  5
631
  8
RULER
 10
1.620012889181218
 20
8.211080657279197
 30
0.0
  0
VERTEX
  5
632
  8
RULER
 10
1.614551901319503
 20
8.211914102998776
 30
0.0
  0
VERTEX
  5
633
  8
RULER
 10
1.609281002118321
 20
8.21326938961815
 30
0.0
  0
VERTEX
  5
634
  8
RULER
 10
1.604227837597612
 20
8.21511887111738
 30
0.0
  0
VERTEX
  5
635
  8
RULER
 10
1.599420053777314
 20
8.217434901476528
 30
0.0
  0
VERTEX
  5
636
  8
RULER
 10
1.594885296677365
 20
8.220189834675654
 30
0.0
  0
VERTEX
  5
637
  8
RULER
 10
1.590651212317704
 20
8.223356024694823
 30
0.0
  0
VERTEX
  5
638
  8
RULER
 10
1.58674544671827
 20
8.226905825514093
 30
0.0
  0
VERTEX
  5
639
  8
RULER
 10
1.583195645898999
 20
8.230811591113529
 30
0.0
  0
VERTEX
  5
63A
  8
RULER
 10
1.580029455879831
 20
8.23504567547319
 30
0.0
  0
VERTEX
  5
63B
  8
RULER
 10
1.577274522680705
 20
8.239580432573138
 30
0.0
  0
VERTEX
  5
63C
  8
RULER
 10
1.574958492321557
 20
8.244388216393435
 30
0.0
  0
VERTEX
  5
63D
  8
RULER
 10
1.573109010822328
 20
8.249441380914144
 30
0.0
  0
VERTEX
  5
63E
  8
RULER
 10
1.571753724202955
 20
8.254712280115324
 30
0.0
  0
VERTEX
  5
63F
  8
RULER
 10
1.570920278483376
 20
8.26017326797704
 30
0.0
  0
VERTEX
  5
640
  8
RULER
 10
1.57063631968353
 20
8.265796698479353
 30
0.0
  0
VERTEX
  5
641
  8
RULER
 10
1.570920278483376
 20
8.271420128981665
 30
0.0
  0
VERTEX
  5
642
  8
RULER
 10
1.571753724202955
 20
8.27688111684338
 30
0.0
  0
VERTEX
  5
643
  8
RULER
 10
1.573109010822328
 20
8.282152016044561
 30
0.0
  0
VERTEX
  5
644
  8
RULER
 10
1.574958492321557
 20
8.28720518056527
 30
0.0
  0
VERTEX
  5
645
  8
RULER
 10
1.577274522680705
 20
8.292012964385567
 30
0.0
  0
VERTEX
  5
646
  8
RULER
 10
1.580029455879831
 20
8.296547721485515
 30
0.0
  0
VERTEX
  5
647
  8
RULER
 10
1.583195645898999
 20
8.300781805845176
 30
0.0
  0
VERTEX
  5
648
  8
RULER
 10
1.58674544671827
 20
8.304687571444612
 30
0.0
  0
VERTEX
  5
649
  8
RULER
 10
1.590651212317704
 20
8.308237372263882
 30
0.0
  0
VERTEX
  5
64A
  8
RULER
 10
1.594885296677365
 20
8.31140356228305
 30
0.0
  0
VERTEX
  5
64B
  8
RULER
 10
1.599420053777314
 20
8.314158495482177
 30
0.0
  0
VERTEX
  5
64C
  8
RULER
 10
1.604227837597612
 20
8.316474525841326
 30
0.0
  0
VERTEX
  5
64D
  8
RULER
 10
1.609281002118321
 20
8.318324007340555
 30
0.0
  0
VERTEX
  5
64E
  8
RULER
 10
1.614551901319503
 20
8.319679293959929
 30
0.0
  0
VERTEX
  5
64F
  8
RULER
 10
1.620012889181218
 20
8.320512739679508
 30
0.0
  0
VERTEX
  5
650
  8
RULER
 10
1.62563631968353
 20
8.320796698479352
 30
0.0
  0
VERTEX
  5
651
  8
RULER
 10
1.631259750185841
 20
8.320512739679508
 30
0.0
  0
VERTEX
  5
652
  8
RULER
 10
1.636720738047557
 20
8.319679293959929
 30
0.0
  0
VERTEX
  5
653
  8
RULER
 10
1.641991637248739
 20
8.318324007340555
 30
0.0
  0
VERTEX
  5
654
  8
RULER
 10
1.647044801769448
 20
8.316474525841326
 30
0.0
  0
VERTEX
  5
655
  8
RULER
 10
1.651852585589746
 20
8.314158495482177
 30
0.0
  0
VERTEX
  5
656
  8
RULER
 10
1.656387342689694
 20
8.31140356228305
 30
0.0
  0
VERTEX
  5
657
  8
RULER
 10
1.660621427049356
 20
8.308237372263882
 30
0.0
  0
VERTEX
  5
658
  8
RULER
 10
1.66452719264879
 20
8.304687571444612
 30
0.0
  0
VERTEX
  5
659
  8
RULER
 10
1.668076993468061
 20
8.300781805845176
 30
0.0
  0
VERTEX
  5
65A
  8
RULER
 10
1.671243183487229
 20
8.296547721485515
 30
0.0
  0
VERTEX
  5
65B
  8
RULER
 10
1.673998116686355
 20
8.292012964385567
 30
0.0
  0
VERTEX
  5
65C
  8
RULER
 10
1.676314147045503
 20
8.28720518056527
 30
0.0
  0
VERTEX
  5
65D
  8
RULER
 10
1.678163628544732
 20
8.282152016044561
 30
0.0
  0
VERTEX
  5
65E
  8
RULER
 10
1.679518915164105
 20
8.27688111684338
 30
0.0
  0
VERTEX
  5
65F
  8
RULER
 10
1.680352360883684
 20
8.271420128981665
 30
0.0
  0
VERTEX
  5
660
  8
RULER
 10
1.68063631968353
 20
8.265796698479353
 30
0.0
  0
VERTEX
  5
661
  8
RULER
 10
1.680352360883684
 20
8.26017326797704
 30
0.0
  0
VERTEX
  5
662
  8
RULER
 10
1.679518915164105
 20
8.254712280115324
 30
0.0
  0
VERTEX
  5
663
  8
RULER
 10
1.678163628544732
 20
8.249441380914144
 30
0.0
  0
VERTEX
  5
664
  8
RULER
 10
1.676314147045503
 20
8.244388216393435
 30
0.0
  0
VERTEX
  5
665
  8
RULER
 10
1.673998116686355
 20
8.239580432573138
 30
0.0
  0
VERTEX
  5
666
  8
RULER
 10
1.671243183487229
 20
8.23504567547319
 30
0.0
  0
VERTEX
  5
667
  8
RULER
 10
1.668076993468061
 20
8.230811591113529
 30
0.0
  0
VERTEX
  5
668
  8
RULER
 10
1.66452719264879
 20
8.226905825514093
 30
0.0
  0
VERTEX
  5
669
  8
RULER
 10
1.660621427049356
 20
8.223356024694823
 30
0.0
  0
VERTEX
  5
66A
  8
RULER
 10
1.656387342689694
 20
8.220189834675654
 30
0.0
  0
VERTEX
  5
66B
  8
RULER
 10
1.651852585589746
 20
8.217434901476528
 30
0.0
  0
VERTEX
  5
66C
  8
RULER
 10
1.647044801769448
 20
8.21511887111738
 30
0.0
  0
VERTEX
  5
66D
  8
RULER
 10
1.641991637248739
 20
8.21326938961815
 30
0.0
  0
VERTEX
  5
66E
  8
RULER
 10
1.636720738047557
 20
8.211914102998776
 30
0.0
  0
VERTEX
  5
66F
  8
RULER
 10
1.631259750185841
 20
8.211080657279197
 30
0.0
  0
SEQEND
  5
CC6
  8
RULER
  0
POLYLINE
  5
D3
  8
RULER
 66
     1
 10
0.0
 20
0.0
 30
0.0
 70
     1
  0
VERTEX
  5
670
  8
RULER
 10
1.62563631968353
 20
8.210796698479353
 30
0.0
 42
-0.4142857142857143
  0
VERTEX
  5
671
  8
RULER
 10
1.69563631968353
 20
8.140796698479353
 30
0.0
  0
VERTEX
  5
672
  8
RULER
 10
1.69563631968353
 20
8.135796698479353
 30
0.0
 42
-1.0
  0
VERTEX
  5
673
  8
RULER
 10
1.55563631968353
 20
8.135796698479353
 30
0.0
  0
VERTEX
  5
674
  8
RULER
 10
1.55563631968353
 20
8.140796698479353
 30
0.0
 42
-0.4142857142857144
  0
SEQEND
  5
CC7
  8
RULER
  0
POLYLINE
  5
D4
  8
RULER
 66
     1
 10
0.0
 20
0.0
 30
0.0
  0
VERTEX
  5
675
  8
RULER
 10
1.208176289684127
 20
8.983804692479476
 30
0.0
  0
VERTEX
  5
676
  8
RULER
 10
1.290676289684127
 20
9.108804692479476
 30
0.0
 42
0.1380051253523702
  0
VERTEX
  5
677
  8
RULER
 10
1.303176289684127
 20
9.151304692479476
 30
0.0
 42
1.0
  0
VERTEX
  5
678
  8
RULER
 10
1.133176289684127
 20
9.151304692479476
 30
0.0
 42
0.7699957824736615
  0
VERTEX
  5
679
  8
RULER
 10
1.290676289684127
 20
9.108804692479476
 30
0.0
  0
SEQEND
  5
CC8
  8
RULER
  0
POLYLINE
  5
D5
  8
RULER
 66
     1
 10
0.0
 20
0.0
 30
0.0
  0
VERTEX
  5
67A
  8
RULER
 10
1.55563631968353
 20
10.31829669847935
 30
0.0
  0
VERTEX
  5
67B
  8
RULER
 10
1.62313631968353
 20
10.31829669847935
 30
0.0
  0
VERTEX
  5
67C
  8
RULER
 10
1.62313631968353
 20
10.06829669847935
 30
0.0
  0
SEQEND
  5
CC9
  8
RULER
  0
POLYLINE
  5
D6
  8
RULER
 66
     1
 10
0.0
 20
0.0
 30
0.0
 70
     1
  0
VERTEX
  5
67D
  8
RULER
 10
1.79813631968353
 20
10.06579669847935
 30
0.0
  0
VERTEX
  5
67E
  8
RULER
 10
1.80063631968353
 20
10.06579669847935
 30
0.0
 42
0.4133333333333333
  0
VERTEX
  5
67F
  8
RULER
 10
1.92563631968353
 20
10.19079669847935
 30
0.0
  0
VERTEX
  5
680
  8
RULER
 10
1.92563631968353
 20
10.19329669847935
 30
0.0
 42
0.4133333333333333
  0
VERTEX
  5
681
  8
RULER
 10
1.80063631968353
 20
10.31829669847935
 30
0.0
  0
VERTEX
  5
682
  8
RULER
 10
1.79813631968353
 20
10.31829669847935
 30
0.0
 42
0.4133333333333333
  0
VERTEX
  5
683
  8
RULER
 10
1.67313631968353
 20
10.19329669847935
 30
0.0
  0
VERTEX
  5
684
  8
RULER
 10
1.67313631968353
 20
10.19079669847935
 30
0.0
 42
0.4133333333333333
  0
SEQEND
  5
CCA
  8
RULER
  0
POLYLINE
  5
D7
  8
RULER
 66
     1
 10
0.0
 20
0.0
 30
0.0
  0
VERTEX
  5
685
  8
RULER
 10
1.133176289684127
 20
11.23380469247948
 30
0.0
  0
VERTEX
  5
686
  8
RULER
 10
1.200676289684127
 20
11.23380469247948
 30
0.0
  0
VERTEX
  5
687
  8
RULER
 10
1.200676289684127
 20
10.98380469247948
 30
0.0
  0
SEQEND
  5
CCB
  8
RULER
  0
POLYLINE
  5
D8
  8
RULER
 66
     1
 10
0.0
 20
0.0
 30
0.0
  0
VERTEX
  5
688
  8
RULER
 10
1.250676289684127
 20
11.23380469247948
 30
0.0
  0
VERTEX
  5
689
  8
RULER
 10
1.318176289684127
 20
11.23380469247948
 30
0.0
  0
VERTEX
  5
68A
  8
RULER
 10
1.318176289684127
 20
10.98380469247948
 30
0.0
  0
SEQEND
  5
CCC
  8
RULER
  0
POLYLINE
  5
D9
  8
RULER
 66
     1
 10
0.0
 20
0.0
 30
0.0
  0
VERTEX
  5
68B
  8
RULER
 10
1.55563631968353
 20
12.31829669847935
 30
0.0
  0
VERTEX
  5
68C
  8
RULER
 10
1.62313631968353
 20
12.31829669847935
 30
0.0
  0
VERTEX
  5
68D
  8
RULER
 10
1.62313631968353
 20
12.06829669847935
 30
0.0
  0
SEQEND
  5
CCD
  8
RULER
  0
POLYLINE
  5
DA
  8
RULER
 66
     1
 10
0.0
 20
0.0
 30
0.0
  0
VERTEX
  5
68E
  8
RULER
 10
1.67313631968353
 20
12.24329669847935
 30
0.0
 42
-0.4238676972146167
  0
VERTEX
  5
68F
  8
RULER
 10
1.74813631968353
 20
12.32079669847935
 30
0.0
 42
-0.4139114804918755
  0
VERTEX
  5
690
  8
RULER
 10
1.82313631968353
 20
12.24579669847935
 30
0.0
 42
-0.1946370063820205
  0
VERTEX
  5
691
  8
RULER
 10
1.80063631968353
 20
12.19329669847935
 30
0.0
  0
VERTEX
  5
692
  8
RULER
 10
1.67563631968353
 20
12.06829669847935
 30
0.0
  0
VERTEX
  5
693
  8
RULER
 10
1.83563631968353
 20
12.06829669847935
 30
0.0
  0
SEQEND
  5
CCE
  8
RULER
  0
POLYLINE
  5
DB
  8
RULER
 66
     1
 10
0.0
 20
0.0
 30
0.0
  0
VERTEX
  5
694
  8
RULER
 10
1.133176289684127
 20
13.23380469247948
 30
0.0
  0
VERTEX
  5
695
  8
RULER
 10
1.200676289684127
 20
13.23380469247948
 30
0.0
  0
VERTEX
  5
696
  8
RULER
 10
1.200676289684127
 20
12.98380469247948
 30
0.0
  0
SEQEND
  5
CCF
  8
RULER
  0
POLYLINE
  5
DC
  8
RULER
 66
     1
 10
0.0
 20
0.0
 30
0.0
  0
VERTEX
  5
697
  8
RULER
 10
1.26300962301746
 20
13.17380469247948
 30
0.0
 42
-0.4548493327042687
  0
VERTEX
  5
698
  8
RULER
 10
1.31800962301746
 20
13.23680469247948
 30
0.0
 42
-0.4114350750726344
  0
VERTEX
  5
699
  8
RULER
 10
1.37300962301746
 20
13.18130469247948
 30
0.0
  0
VERTEX
  5
69A
  8
RULER
 10
1.37300962301746
 20
13.17380469247948
 30
0.0
 42
-0.4121212121212124
  0
VERTEX
  5
69B
  8
RULER
 10
1.31800962301746
 20
13.11880469247948
 30
0.0
  0
VERTEX
  5
69C
  8
RULER
 10
1.30550962301746
 20
13.11880469247948
 30
0.0
  0
VERTEX
  5
69D
  8
RULER
 10
1.32050962301746
 20
13.11880469247948
 30
0.0
 42
-0.4142857142857143
  0
VERTEX
  5
69E
  8
RULER
 10
1.39050962301746
 20
13.04880469247948
 30
0.0
 42
-0.9462693881493045
  0
VERTEX
  5
69F
  8
RULER
 10
1.25050962301746
 20
13.04630469247948
 30
0.0
  0
SEQEND
  5
CD0
  8
RULER
  0
POLYLINE
  5
DD
  8
RULER
 66
     1
 10
0.0
 20
0.0
 30
0.0
  0
VERTEX
  5
6A0
  8
RULER
 10
1.55563631968353
 20
14.31829669847935
 30
0.0
  0
VERTEX
  5
6A1
  8
RULER
 10
1.62313631968353
 20
14.31829669847935
 30
0.0
  0
VERTEX
  5
6A2
  8
RULER
 10
1.62313631968353
 20
14.06829669847935
 30
0.0
  0
SEQEND
  5
CD1
  8
RULER
  0
POLYLINE
  5
DE
  8
RULER
 66
     1
 10
0.0
 20
0.0
 30
0.0
  0
VERTEX
  5
6A3
  8
RULER
 10
1.85063631968353
 20
14.11329669847935
 30
0.0
  0
VERTEX
  5
6A4
  8
RULER
 10
1.67313631968353
 20
14.11329669847935
 30
0.0
  0
VERTEX
  5
6A5
  8
RULER
 10
1.81313631968353
 20
14.31829669847935
 30
0.0
  0
VERTEX
  5
6A6
  8
RULER
 10
1.81313631968353
 20
14.06829669847935
 30
0.0
  0
SEQEND
  5
CD2
  8
RULER
  0
POLYLINE
  5
DF
  8
RULER
 66
     1
 10
0.0
 20
0.0
 30
0.0
  0
VERTEX
  5
6A7
  8
RULER
 10
1.133176289684127
 20
15.23380469247948
 30
0.0
  0
VERTEX
  5
6A8
  8
RULER
 10
1.200676289684127
 20
15.23380469247948
 30
0.0
  0
VERTEX
  5
6A9
  8
RULER
 10
1.200676289684127
 20
14.98380469247948
 30
0.0
  0
SEQEND
  5
CD3
  8
RULER
  0
POLYLINE
  5
E0
  8
RULER
 66
     1
 10
0.0
 20
0.0
 30
0.0
  0
VERTEX
  5
6AA
  8
RULER
 10
1.235676289684127
 20
15.06130469247948
 30
0.0
 42
0.8576084699939476
  0
VERTEX
  5
6AB
  8
RULER
 10
1.402842956350794
 20
15.04380469247948
 30
0.0
 42
0.8394311096568591
  0
VERTEX
  5
6AC
  8
RULER
 10
1.250676289684127
 20
15.11380469247948
 30
0.0
  0
VERTEX
  5
6AD
  8
RULER
 10
1.270676289684127
 20
15.23380469247948
 30
0.0
  0
VERTEX
  5
6AE
  8
RULER
 10
1.388176289684127
 20
15.23380469247948
 30
0.0
  0
SEQEND
  5
CD4
  8
RULER
  0
POLYLINE
  5
E1
  8
RULER
 66
     1
 10
0.0
 20
0.0
 30
0.0
  0
VERTEX
  5
6AF
  8
RULER
 10
1.55563631968353
 20
16.31829669847935
 30
0.0
  0
VERTEX
  5
6B0
  8
RULER
 10
1.62313631968353
 20
16.31829669847935
 30
0.0
  0
VERTEX
  5
6B1
  8
RULER
 10
1.62313631968353
 20
16.06829669847935
 30
0.0
  0
SEQEND
  5
CD5
  8
RULER
  0
POLYLINE
  5
E2
  8
RULER
 66
     1
 10
0.0
 20
0.0
 30
0.0
 70
     1
  0
VERTEX
  5
6B2
  8
RULER
 10
1.75813631968353
 20
16.06579669847935
 30
0.0
  0
VERTEX
  5
6B3
  8
RULER
 10
1.766827075914376
 20
16.0662355438973
 30
0.0
  0
VERTEX
  5
6B4
  8
RULER
 10
1.775266784427936
 20
16.06752359637301
 30
0.0
  0
VERTEX
  5
6B5
  8
RULER
 10
1.783412719557035
 20
16.06961813023932
 30
0.0
  0
VERTEX
  5
6B6
  8
RULER
 10
1.791222155634494
 20
16.07247641982903
 30
0.0
  0
VERTEX
  5
6B7
  8
RULER
 10
1.798652366993136
 20
16.07605573947499
 30
0.0
  0
VERTEX
  5
6B8
  8
RULER
 10
1.805660627965784
 20
16.08031336351
 30
0.0
  0
VERTEX
  5
6B9
  8
RULER
 10
1.81220421288526
 20
16.0852065662669
 30
0.0
  0
VERTEX
  5
6BA
  8
RULER
 10
1.818240396084387
 20
16.0906926220785
 30
0.0
  0
VERTEX
  5
6BB
  8
RULER
 10
1.823726451895987
 20
16.09672880527762
 30
0.0
  0
VERTEX
  5
6BC
  8
RULER
 10
1.828619654652883
 20
16.1032723901971
 30
0.0
  0
VERTEX
  5
6BD
  8
RULER
 10
1.832877278687897
 20
16.11028065116975
 30
0.0
  0
VERTEX
  5
6BE
  8
RULER
 10
1.836456598333851
 20
16.11771086252839
 30
0.0
  0
VERTEX
  5
6BF
  8
RULER
 10
1.83931488792357
 20
16.12552029860585
 30
0.0
  0
VERTEX
  5
6C0
  8
RULER
 10
1.841409421789874
 20
16.13366623373495
 30
0.0
  0
VERTEX
  5
6C1
  8
RULER
 10
1.842697474265586
 20
16.14210594224851
 30
0.0
  0
VERTEX
  5
6C2
  8
RULER
 10
1.84313631968353
 20
16.15079669847935
 30
0.0
  0
VERTEX
  5
6C3
  8
RULER
 10
1.842697474265586
 20
16.1594874547102
 30
0.0
  0
VERTEX
  5
6C4
  8
RULER
 10
1.841409421789874
 20
16.16792716322376
 30
0.0
  0
VERTEX
  5
6C5
  8
RULER
 10
1.83931488792357
 20
16.17607309835286
 30
0.0
  0
VERTEX
  5
6C6
  8
RULER
 10
1.836456598333851
 20
16.18388253443032
 30
0.0
  0
VERTEX
  5
6C7
  8
RULER
 10
1.832877278687897
 20
16.19131274578896
 30
0.0
  0
VERTEX
  5
6C8
  8
RULER
 10
1.828619654652883
 20
16.19832100676161
 30
0.0
  0
VERTEX
  5
6C9
  8
RULER
 10
1.823726451895987
 20
16.20486459168109
 30
0.0
  0
VERTEX
  5
6CA
  8
RULER
 10
1.818240396084387
 20
16.21090077488021
 30
0.0
  0
VERTEX
  5
6CB
  8
RULER
 10
1.81220421288526
 20
16.21638683069181
 30
0.0
  0
VERTEX
  5
6CC
  8
RULER
 10
1.805660627965784
 20
16.22128003344871
 30
0.0
  0
VERTEX
  5
6CD
  8
RULER
 10
1.798652366993136
 20
16.22553765748372
 30
0.0
  0
VERTEX
  5
6CE
  8
RULER
 10
1.791222155634494
 20
16.22911697712967
 30
0.0
  0
VERTEX
  5
6CF
  8
RULER
 10
1.783412719557035
 20
16.23197526671939
 30
0.0
  0
VERTEX
  5
6D0
  8
RULER
 10
1.775266784427936
 20
16.2340698005857
 30
0.0
  0
VERTEX
  5
6D1
  8
RULER
 10
1.766827075914376
 20
16.23535785306141
 30
0.0
  0
VERTEX
  5
6D2
  8
RULER
 10
1.75813631968353
 20
16.23579669847935
 30
0.0
  0
VERTEX
  5
6D3
  8
RULER
 10
1.749445563452685
 20
16.23535785306141
 30
0.0
  0
VERTEX
  5
6D4
  8
RULER
 10
1.741005854939124
 20
16.2340698005857
 30
0.0
  0
VERTEX
  5
6D5
  8
RULER
 10
1.732859919810025
 20
16.23197526671939
 30
0.0
  0
VERTEX
  5
6D6
  8
RULER
 10
1.725050483732566
 20
16.22911697712967
 30
0.0
  0
VERTEX
  5
6D7
  8
RULER
 10
1.717620272373924
 20
16.22553765748372
 30
0.0
  0
VERTEX
  5
6D8
  8
RULER
 10
1.710612011401276
 20
16.22128003344871
 30
0.0
  0
VERTEX
  5
6D9
  8
RULER
 10
1.7040684264818
 20
16.21638683069181
 30
0.0
  0
VERTEX
  5
6DA
  8
RULER
 10
1.698032243282674
 20
16.21090077488021
 30
0.0
  0
VERTEX
  5
6DB
  8
RULER
 10
1.692546187471074
 20
16.20486459168109
 30
0.0
  0
VERTEX
  5
6DC
  8
RULER
 10
1.687652984714178
 20
16.19832100676161
 30
0.0
  0
VERTEX
  5
6DD
  8
RULER
 10
1.683395360679164
 20
16.19131274578896
 30
0.0
  0
VERTEX
  5
6DE
  8
RULER
 10
1.679816041033209
 20
16.18388253443032
 30
0.0
  0
VERTEX
  5
6DF
  8
RULER
 10
1.676957751443491
 20
16.17607309835286
 30
0.0
  0
VERTEX
  5
6E0
  8
RULER
 10
1.674863217577187
 20
16.16792716322376
 30
0.0
  0
VERTEX
  5
6E1
  8
RULER
 10
1.673575165101474
 20
16.1594874547102
 30
0.0
  0
VERTEX
  5
6E2
  8
RULER
 10
1.67313631968353
 20
16.15079669847935
 30
0.0
  0
VERTEX
  5
6E3
  8
RULER
 10
1.673575165101474
 20
16.14210594224851
 30
0.0
  0
VERTEX
  5
6E4
  8
RULER
 10
1.674863217577187
 20
16.13366623373495
 30
0.0
  0
VERTEX
  5
6E5
  8
RULER
 10
1.676957751443491
 20
16.12552029860585
 30
0.0
  0
VERTEX
  5
6E6
  8
RULER
 10
1.679816041033209
 20
16.11771086252839
 30
0.0
  0
VERTEX
  5
6E7
  8
RULER
 10
1.683395360679164
 20
16.11028065116975
 30
0.0
  0
VERTEX
  5
6E8
  8
RULER
 10
1.687652984714178
 20
16.1032723901971
 30
0.0
  0
VERTEX
  5
6E9
  8
RULER
 10
1.692546187471074
 20
16.09672880527762
 30
0.0
  0
VERTEX
  5
6EA
  8
RULER
 10
1.698032243282674
 20
16.0906926220785
 30
0.0
  0
VERTEX
  5
6EB
  8
RULER
 10
1.7040684264818
 20
16.0852065662669
 30
0.0
  0
VERTEX
  5
6EC
  8
RULER
 10
1.710612011401276
 20
16.08031336351
 30
0.0
  0
VERTEX
  5
6ED
  8
RULER
 10
1.717620272373924
 20
16.07605573947499
 30
0.0
  0
VERTEX
  5
6EE
  8
RULER
 10
1.725050483732566
 20
16.07247641982903
 30
0.0
  0
VERTEX
  5
6EF
  8
RULER
 10
1.732859919810025
 20
16.06961813023932
 30
0.0
  0
VERTEX
  5
6F0
  8
RULER
 10
1.741005854939124
 20
16.06752359637301
 30
0.0
  0
VERTEX
  5
6F1
  8
RULER
 10
1.749445563452685
 20
16.0662355438973
 30
0.0
  0
SEQEND
  5
CD6
  8
RULER
  0
POLYLINE
  5
E3
  8
RULER
 66
     1
 10
0.0
 20
0.0
 30
0.0
  0
VERTEX
  5
6F2
  8
RULER
 10
1.75813631968353
 20
16.06579669847935
 30
0.0
 42
-0.5862971619980313
  0
VERTEX
  5
6F3
  8
RULER
 10
1.68563631968353
 20
16.19579669847936
 30
0.0
  0
VERTEX
  5
6F4
  8
RULER
 10
1.76813631968353
 20
16.32079669847936
 30
0.0
  0
SEQEND
  5
CD7
  8
RULER
  0
POLYLINE
  5
E4
  8
RULER
 66
     1
 10
0.0
 20
0.0
 30
0.0
  0
VERTEX
  5
6F5
  8
RULER
 10
1.133176289684127
 20
17.23380469247948
 30
0.0
  0
VERTEX
  5
6F6
  8
RULER
 10
1.200676289684127
 20
17.23380469247948
 30
0.0
  0
VERTEX
  5
6F7
  8
RULER
 10
1.200676289684127
 20
16.98380469247948
 30
0.0
  0
SEQEND
  5
CD8
  8
RULER
  0
POLYLINE
  5
E5
  8
RULER
 66
     1
 10
0.0
 20
0.0
 30
0.0
  0
VERTEX
  5
6F8
  8
RULER
 10
1.250676289684127
 20
17.23380469247948
 30
0.0
  0
VERTEX
  5
6F9
  8
RULER
 10
1.390676289684127
 20
17.23380469247948
 30
0.0
  0
VERTEX
  5
6FA
  8
RULER
 10
1.280676289684127
 20
16.98380469247948
 30
0.0
  0
SEQEND
  5
CD9
  8
RULER
  0
POLYLINE
  5
E6
  8
RULER
 66
     1
 10
0.0
 20
0.0
 30
0.0
  0
VERTEX
  5
6FB
  8
RULER
 10
1.55563631968353
 20
18.31829669847935
 30
0.0
  0
VERTEX
  5
6FC
  8
RULER
 10
1.62313631968353
 20
18.31829669847935
 30
0.0
  0
VERTEX
  5
6FD
  8
RULER
 10
1.62313631968353
 20
18.06829669847935
 30
0.0
  0
SEQEND
  5
CDA
  8
RULER
  0
POLYLINE
  5
E7
  8
RULER
 66
     1
 10
0.0
 20
0.0
 30
0.0
 70
     1
  0
VERTEX
  5
6FE
  8
RULER
 10
1.74313631968353
 20
18.21079669847935
 30
0.0
  0
VERTEX
  5
6FF
  8
RULER
 10
1.737512889181219
 20
18.2110806572792
 30
0.0
  0
VERTEX
  5
700
  8
RULER
 10
1.732051901319503
 20
18.21191410299878
 30
0.0
  0
VERTEX
  5
701
  8
RULER
 10
1.726781002118321
 20
18.21326938961816
 30
0.0
  0
VERTEX
  5
702
  8
RULER
 10
1.721727837597612
 20
18.21511887111738
 30
0.0
  0
VERTEX
  5
703
  8
RULER
 10
1.716920053777314
 20
18.21743490147653
 30
0.0
  0
VERTEX
  5
704
  8
RULER
 10
1.712385296677366
 20
18.22018983467565
 30
0.0
  0
VERTEX
  5
705
  8
RULER
 10
1.708151212317705
 20
18.22335602469482
 30
0.0
  0
VERTEX
  5
706
  8
RULER
 10
1.70424544671827
 20
18.22690582551409
 30
0.0
  0
VERTEX
  5
707
  8
RULER
 10
1.700695645898999
 20
18.23081159111353
 30
0.0
  0
VERTEX
  5
708
  8
RULER
 10
1.697529455879832
 20
18.23504567547319
 30
0.0
  0
VERTEX
  5
709
  8
RULER
 10
1.694774522680705
 20
18.23958043257313
 30
0.0
  0
VERTEX
  5
70A
  8
RULER
 10
1.692458492321558
 20
18.24438821639344
 30
0.0
  0
VERTEX
  5
70B
  8
RULER
 10
1.690609010822328
 20
18.24944138091415
 30
0.0
  0
VERTEX
  5
70C
  8
RULER
 10
1.689253724202955
 20
18.25471228011533
 30
0.0
  0
VERTEX
  5
70D
  8
RULER
 10
1.688420278483376
 20
18.26017326797704
 30
0.0
  0
VERTEX
  5
70E
  8
RULER
 10
1.68813631968353
 20
18.26579669847936
 30
0.0
  0
VERTEX
  5
70F
  8
RULER
 10
1.688420278483376
 20
18.27142012898167
 30
0.0
  0
VERTEX
  5
710
  8
RULER
 10
1.689253724202955
 20
18.27688111684338
 30
0.0
  0
VERTEX
  5
711
  8
RULER
 10
1.690609010822328
 20
18.28215201604457
 30
0.0
  0
VERTEX
  5
712
  8
RULER
 10
1.692458492321558
 20
18.28720518056527
 30
0.0
  0
VERTEX
  5
713
  8
RULER
 10
1.694774522680705
 20
18.29201296438557
 30
0.0
  0
VERTEX
  5
714
  8
RULER
 10
1.697529455879832
 20
18.29654772148552
 30
0.0
  0
VERTEX
  5
715
  8
RULER
 10
1.700695645898999
 20
18.30078180584518
 30
0.0
  0
VERTEX
  5
716
  8
RULER
 10
1.70424544671827
 20
18.30468757144462
 30
0.0
  0
VERTEX
  5
717
  8
RULER
 10
1.708151212317705
 20
18.30823737226389
 30
0.0
  0
VERTEX
  5
718
  8
RULER
 10
1.712385296677366
 20
18.31140356228305
 30
0.0
  0
VERTEX
  5
719
  8
RULER
 10
1.716920053777314
 20
18.31415849548218
 30
0.0
  0
VERTEX
  5
71A
  8
RULER
 10
1.721727837597612
 20
18.31647452584133
 30
0.0
  0
VERTEX
  5
71B
  8
RULER
 10
1.726781002118321
 20
18.31832400734056
 30
0.0
  0
VERTEX
  5
71C
  8
RULER
 10
1.732051901319503
 20
18.31967929395993
 30
0.0
  0
VERTEX
  5
71D
  8
RULER
 10
1.737512889181219
 20
18.32051273967951
 30
0.0
  0
VERTEX
  5
71E
  8
RULER
 10
1.74313631968353
 20
18.32079669847936
 30
0.0
  0
VERTEX
  5
71F
  8
RULER
 10
1.748759750185842
 20
18.32051273967951
 30
0.0
  0
VERTEX
  5
720
  8
RULER
 10
1.754220738047557
 20
18.31967929395993
 30
0.0
  0
VERTEX
  5
721
  8
RULER
 10
1.759491637248739
 20
18.31832400734056
 30
0.0
  0
VERTEX
  5
722
  8
RULER
 10
1.764544801769448
 20
18.31647452584133
 30
0.0
  0
VERTEX
  5
723
  8
RULER
 10
1.769352585589746
 20
18.31415849548218
 30
0.0
  0
VERTEX
  5
724
  8
RULER
 10
1.773887342689695
 20
18.31140356228305
 30
0.0
  0
VERTEX
  5
725
  8
RULER
 10
1.778121427049356
 20
18.30823737226389
 30
0.0
  0
VERTEX
  5
726
  8
RULER
 10
1.782027192648791
 20
18.30468757144462
 30
0.0
  0
VERTEX
  5
727
  8
RULER
 10
1.785576993468061
 20
18.30078180584518
 30
0.0
  0
VERTEX
  5
728
  8
RULER
 10
1.788743183487229
 20
18.29654772148552
 30
0.0
  0
VERTEX
  5
729
  8
RULER
 10
1.791498116686356
 20
18.29201296438557
 30
0.0
  0
VERTEX
  5
72A
  8
RULER
 10
1.793814147045503
 20
18.28720518056527
 30
0.0
  0
VERTEX
  5
72B
  8
RULER
 10
1.795663628544732
 20
18.28215201604457
 30
0.0
  0
VERTEX
  5
72C
  8
RULER
 10
1.797018915164105
 20
18.27688111684338
 30
0.0
  0
VERTEX
  5
72D
  8
RULER
 10
1.797852360883684
 20
18.27142012898167
 30
0.0
  0
VERTEX
  5
72E
  8
RULER
 10
1.79813631968353
 20
18.26579669847936
 30
0.0
  0
VERTEX
  5
72F
  8
RULER
 10
1.797852360883684
 20
18.26017326797704
 30
0.0
  0
VERTEX
  5
730
  8
RULER
 10
1.797018915164105
 20
18.25471228011533
 30
0.0
  0
VERTEX
  5
731
  8
RULER
 10
1.795663628544732
 20
18.24944138091415
 30
0.0
  0
VERTEX
  5
732
  8
RULER
 10
1.793814147045503
 20
18.24438821639344
 30
0.0
  0
VERTEX
  5
733
  8
RULER
 10
1.791498116686356
 20
18.23958043257313
 30
0.0
  0
VERTEX
  5
734
  8
RULER
 10
1.788743183487229
 20
18.23504567547319
 30
0.0
  0
VERTEX
  5
735
  8
RULER
 10
1.785576993468061
 20
18.23081159111353
 30
0.0
  0
VERTEX
  5
736
  8
RULER
 10
1.782027192648791
 20
18.22690582551409
 30
0.0
  0
VERTEX
  5
737
  8
RULER
 10
1.778121427049356
 20
18.22335602469482
 30
0.0
  0
VERTEX
  5
738
  8
RULER
 10
1.773887342689695
 20
18.22018983467565
 30
0.0
  0
VERTEX
  5
739
  8
RULER
 10
1.769352585589746
 20
18.21743490147653
 30
0.0
  0
VERTEX
  5
73A
  8
RULER
 10
1.764544801769448
 20
18.21511887111738
 30
0.0
  0
VERTEX
  5
73B
  8
RULER
 10
1.759491637248739
 20
18.21326938961816
 30
0.0
  0
VERTEX
  5
73C
  8
RULER
 10
1.754220738047557
 20
18.21191410299878
 30
0.0
  0
VERTEX
  5
73D
  8
RULER
 10
1.748759750185842
 20
18.2110806572792
 30
0.0
  0
SEQEND
  5
CDB
  8
RULER
  0
POLYLINE
  5
E8
  8
RULER
 66
     1
 10
0.0
 20
0.0
 30
0.0
 70
     1
  0
VERTEX
  5
73E
  8
RULER
 10
1.74313631968353
 20
18.21079669847935
 30
0.0
 42
-0.4142857142857143
  0
VERTEX
  5
73F
  8
RULER
 10
1.81313631968353
 20
18.14079669847936
 30
0.0
  0
VERTEX
  5
740
  8
RULER
 10
1.81313631968353
 20
18.13579669847935
 30
0.0
 42
-1.0
  0
VERTEX
  5
741
  8
RULER
 10
1.67313631968353
 20
18.13579669847935
 30
0.0
  0
VERTEX
  5
742
  8
RULER
 10
1.67313631968353
 20
18.14079669847936
 30
0.0
 42
-0.4142857142857144
  0
SEQEND
  5
CDC
  8
RULER
  0
POLYLINE
  5
E9
  8
RULER
 66
     1
 10
0.0
 20
0.0
 30
0.0
  0
VERTEX
  5
743
  8
RULER
 10
1.133176289684127
 20
19.23380469247948
 30
0.0
  0
VERTEX
  5
744
  8
RULER
 10
1.200676289684127
 20
19.23380469247948
 30
0.0
  0
VERTEX
  5
745
  8
RULER
 10
1.200676289684127
 20
18.98380469247948
 30
0.0
  0
SEQEND
  5
CDD
  8
RULER
  0
POLYLINE
  5
EA
  8
RULER
 66
     1
 10
0.0
 20
0.0
 30
0.0
  0
VERTEX
  5
746
  8
RULER
 10
1.325676289684127
 20
18.98380469247948
 30
0.0
  0
VERTEX
  5
747
  8
RULER
 10
1.408176289684127
 20
19.10880469247948
 30
0.0
 42
0.1380051253523702
  0
VERTEX
  5
748
  8
RULER
 10
1.420676289684127
 20
19.15130469247948
 30
0.0
 42
1.0
  0
VERTEX
  5
749
  8
RULER
 10
1.250676289684127
 20
19.15130469247948
 30
0.0
 42
0.7699957824736615
  0
VERTEX
  5
74A
  8
RULER
 10
1.408176289684127
 20
19.10880469247948
 30
0.0
  0
SEQEND
  5
CDE
  8
RULER
  0
POLYLINE
  5
EB
  8
RULER
 66
     1
 10
0.0
 20
0.0
 30
0.0
  0
VERTEX
  5
74B
  8
RULER
 10
1.55563631968353
 20
20.24329669847936
 30
0.0
 42
-0.4238676972146167
  0
VERTEX
  5
74C
  8
RULER
 10
1.63063631968353
 20
20.32079669847936
 30
0.0
 42
-0.4139114804918755
  0
VERTEX
  5
74D
  8
RULER
 10
1.70563631968353
 20
20.24579669847935
 30
0.0
 42
-0.1946370063820205
  0
VERTEX
  5
74E
  8
RULER
 10
1.68313631968353
 20
20.19329669847935
 30
0.0
  0
VERTEX
  5
74F
  8
RULER
 10
1.55813631968353
 20
20.06829669847935
 30
0.0
  0
VERTEX
  5
750
  8
RULER
 10
1.71813631968353
 20
20.06829669847935
 30
0.0
  0
SEQEND
  5
CDF
  8
RULER
  0
POLYLINE
  5
EC
  8
RULER
 66
     1
 10
0.0
 20
0.0
 30
0.0
 70
     1
  0
VERTEX
  5
751
  8
RULER
 10
1.89313631968353
 20
20.06579669847935
 30
0.0
  0
VERTEX
  5
752
  8
RULER
 10
1.89563631968353
 20
20.06579669847935
 30
0.0
 42
0.4133333333333333
  0
VERTEX
  5
753
  8
RULER
 10
2.02063631968353
 20
20.19079669847935
 30
0.0
  0
VERTEX
  5
754
  8
RULER
 10
2.02063631968353
 20
20.19329669847935
 30
0.0
 42
0.4133333333333333
  0
VERTEX
  5
755
  8
RULER
 10
1.89563631968353
 20
20.31829669847935
 30
0.0
  0
VERTEX
  5
756
  8
RULER
 10
1.89313631968353
 20
20.31829669847935
 30
0.0
 42
0.4133333333333333
  0
VERTEX
  5
757
  8
RULER
 10
1.76813631968353
 20
20.19329669847935
 30
0.0
  0
VERTEX
  5
758
  8
RULER
 10
1.76813631968353
 20
20.19079669847935
 30
0.0
 42
0.4133333333333333
  0
SEQEND
  5
CE0
  8
RULER
  0
POLYLINE
  5
ED
  8
RULER
 66
     1
 10
0.0
 20
0.0
 30
0.0
  0
VERTEX
  5
759
  8
RULER
 10
1.133176289684127
 20
21.15880469247948
 30
0.0
 42
-0.4238676972146167
  0
VERTEX
  5
75A
  8
RULER
 10
1.208176289684127
 20
21.23630469247948
 30
0.0
 42
-0.4139114804918755
  0
VERTEX
  5
75B
  8
RULER
 10
1.283176289684127
 20
21.16130469247948
 30
0.0
 42
-0.1946370063820205
  0
VERTEX
  5
75C
  8
RULER
 10
1.260676289684127
 20
21.10880469247948
 30
0.0
  0
VERTEX
  5
75D
  8
RULER
 10
1.135676289684127
 20
20.98380469247948
 30
0.0
  0
VERTEX
  5
75E
  8
RULER
 10
1.295676289684127
 20
20.98380469247948
 30
0.0
  0
SEQEND
  5
CE1
  8
RULER
  0
POLYLINE
  5
EE
  8
RULER
 66
     1
 10
0.0
 20
0.0
 30
0.0
  0
VERTEX
  5
75F
  8
RULER
 10
1.345676289684127
 20
21.23380469247948
 30
0.0
  0
VERTEX
  5
760
  8
RULER
 10
1.413176289684127
 20
21.23380469247948
 30
0.0
  0
VERTEX
  5
761
  8
RULER
 10
1.413176289684127
 20
20.98380469247948
 30
0.0
  0
SEQEND
  5
CE2
  8
RULER
  0
POLYLINE
  5
EF
  8
RULER
 66
     1
 10
0.0
 20
0.0
 30
0.0
  0
VERTEX
  5
762
  8
RULER
 10
1.55563631968353
 20
22.24329669847936
 30
0.0
 42
-0.4238676972146167
  0
VERTEX
  5
763
  8
RULER
 10
1.63063631968353
 20
22.32079669847936
 30
0.0
 42
-0.4139114804918755
  0
VERTEX
  5
764
  8
RULER
 10
1.70563631968353
 20
22.24579669847935
 30
0.0
 42
-0.1946370063820205
  0
VERTEX
  5
765
  8
RULER
 10
1.68313631968353
 20
22.19329669847935
 30
0.0
  0
VERTEX
  5
766
  8
RULER
 10
1.55813631968353
 20
22.06829669847935
 30
0.0
  0
VERTEX
  5
767
  8
RULER
 10
1.71813631968353
 20
22.06829669847935
 30
0.0
  0
SEQEND
  5
CE3
  8
RULER
  0
POLYLINE
  5
F0
  8
RULER
 66
     1
 10
0.0
 20
0.0
 30
0.0
  0
VERTEX
  5
768
  8
RULER
 10
1.76813631968353
 20
22.24329669847936
 30
0.0
 42
-0.4238676972146167
  0
VERTEX
  5
769
  8
RULER
 10
1.84313631968353
 20
22.32079669847936
 30
0.0
 42
-0.4139114804918755
  0
VERTEX
  5
76A
  8
RULER
 10
1.91813631968353
 20
22.24579669847935
 30
0.0
 42
-0.1946370063820205
  0
VERTEX
  5
76B
  8
RULER
 10
1.89563631968353
 20
22.19329669847935
 30
0.0
  0
VERTEX
  5
76C
  8
RULER
 10
1.77063631968353
 20
22.06829669847935
 30
0.0
  0
VERTEX
  5
76D
  8
RULER
 10
1.93063631968353
 20
22.06829669847935
 30
0.0
  0
SEQEND
  5
CE4
  8
RULER
  0
POLYLINE
  5
F1
  8
RULER
 66
     1
 10
0.0
 20
0.0
 30
0.0
  0
VERTEX
  5
76E
  8
RULER
 10
1.133176289684127
 20
23.15880469247948
 30
0.0
 42
-0.4238676972146167
  0
VERTEX
  5
76F
  8
RULER
 10
1.208176289684127
 20
23.23630469247948
 30
0.0
 42
-0.4139114804918755
  0
VERTEX
  5
770
  8
RULER
 10
1.283176289684127
 20
23.16130469247948
 30
0.0
 42
-0.1946370063820205
  0
VERTEX
  5
771
  8
RULER
 10
1.260676289684127
 20
23.10880469247948
 30
0.0
  0
VERTEX
  5
772
  8
RULER
 10
1.135676289684127
 20
22.98380469247948
 30
0.0
  0
VERTEX
  5
773
  8
RULER
 10
1.295676289684127
 20
22.98380469247948
 30
0.0
  0
SEQEND
  5
CE5
  8
RULER
  0
POLYLINE
  5
F2
  8
RULER
 66
     1
 10
0.0
 20
0.0
 30
0.0
  0
VERTEX
  5
774
  8
RULER
 10
1.358009623017461
 20
23.17380469247948
 30
0.0
 42
-0.4548493327042687
  0
VERTEX
  5
775
  8
RULER
 10
1.413009623017461
 20
23.23680469247948
 30
0.0
 42
-0.4114350750726344
  0
VERTEX
  5
776
  8
RULER
 10
1.468009623017461
 20
23.18130469247948
 30
0.0
  0
VERTEX
  5
777
  8
RULER
 10
1.468009623017461
 20
23.17380469247948
 30
0.0
 42
-0.4121212121212124
  0
VERTEX
  5
778
  8
RULER
 10
1.413009623017461
 20
23.11880469247948
 30
0.0
  0
VERTEX
  5
779
  8
RULER
 10
1.400509623017461
 20
23.11880469247948
 30
0.0
  0
VERTEX
  5
77A
  8
RULER
 10
1.415509623017461
 20
23.11880469247948
 30
0.0
 42
-0.4142857142857143
  0
VERTEX
  5
77B
  8
RULER
 10
1.485509623017461
 20
23.04880469247948
 30
0.0
 42
-0.9462693881493045
  0
VERTEX
  5
77C
  8
RULER
 10
1.345509623017461
 20
23.04630469247948
 30
0.0
  0
SEQEND
  5
CE6
  8
RULER
  0
POLYLINE
  5
F3
  8
RULER
 66
     1
 10
0.0
 20
0.0
 30
0.0
  0
VERTEX
  5
77D
  8
RULER
 10
1.55563631968353
 20
24.24329669847936
 30
0.0
 42
-0.4238676972146167
  0
VERTEX
  5
77E
  8
RULER
 10
1.63063631968353
 20
24.32079669847936
 30
0.0
 42
-0.4139114804918755
  0
VERTEX
  5
77F
  8
RULER
 10
1.70563631968353
 20
24.24579669847935
 30
0.0
 42
-0.1946370063820205
  0
VERTEX
  5
780
  8
RULER
 10
1.68313631968353
 20
24.19329669847935
 30
0.0
  0
VERTEX
  5
781
  8
RULER
 10
1.55813631968353
 20
24.06829669847935
 30
0.0
  0
VERTEX
  5
782
  8
RULER
 10
1.71813631968353
 20
24.06829669847935
 30
0.0
  0
SEQEND
  5
CE7
  8
RULER
  0
POLYLINE
  5
F4
  8
RULER
 66
     1
 10
0.0
 20
0.0
 30
0.0
  0
VERTEX
  5
783
  8
RULER
 10
1.94563631968353
 20
24.11329669847936
 30
0.0
  0
VERTEX
  5
784
  8
RULER
 10
1.76813631968353
 20
24.11329669847936
 30
0.0
  0
VERTEX
  5
785
  8
RULER
 10
1.90813631968353
 20
24.31829669847935
 30
0.0
  0
VERTEX
  5
786
  8
RULER
 10
1.90813631968353
 20
24.06829669847935
 30
0.0
  0
SEQEND
  5
CE8
  8
RULER
  0
POLYLINE
  5
F5
  8
RULER
 66
     1
 10
0.0
 20
0.0
 30
0.0
  0
VERTEX
  5
787
  8
RULER
 10
1.133176289684127
 20
25.15880469247948
 30
0.0
 42
-0.4238676972146167
  0
VERTEX
  5
788
  8
RULER
 10
1.208176289684127
 20
25.23630469247948
 30
0.0
 42
-0.4139114804918755
  0
VERTEX
  5
789
  8
RULER
 10
1.283176289684127
 20
25.16130469247948
 30
0.0
 42
-0.1946370063820205
  0
VERTEX
  5
78A
  8
RULER
 10
1.260676289684127
 20
25.10880469247948
 30
0.0
  0
VERTEX
  5
78B
  8
RULER
 10
1.135676289684127
 20
24.98380469247948
 30
0.0
  0
VERTEX
  5
78C
  8
RULER
 10
1.295676289684127
 20
24.98380469247948
 30
0.0
  0
SEQEND
  5
CE9
  8
RULER
  0
POLYLINE
  5
F6
  8
RULER
 66
     1
 10
0.0
 20
0.0
 30
0.0
  0
VERTEX
  5
78D
  8
RULER
 10
1.330676289684128
 20
25.06130469247948
 30
0.0
 42
0.8576084699939476
  0
VERTEX
  5
78E
  8
RULER
 10
1.497842956350794
 20
25.04380469247948
 30
0.0
 42
0.8394311096568591
  0
VERTEX
  5
78F
  8
RULER
 10
1.345676289684127
 20
25.11380469247948
 30
0.0
  0
VERTEX
  5
790
  8
RULER
 10
1.365676289684127
 20
25.23380469247948
 30
0.0
  0
VERTEX
  5
791
  8
RULER
 10
1.483176289684127
 20
25.23380469247948
 30
0.0
  0
SEQEND
  5
CEA
  8
RULER
  0
POLYLINE
  5
F7
  8
RULER
 66
     1
 10
0.0
 20
0.0
 30
0.0
  0
VERTEX
  5
792
  8
RULER
 10
1.55563631968353
 20
26.24329669847936
 30
0.0
 42
-0.4238676972146167
  0
VERTEX
  5
793
  8
RULER
 10
1.63063631968353
 20
26.32079669847936
 30
0.0
 42
-0.4139114804918755
  0
VERTEX
  5
794
  8
RULER
 10
1.70563631968353
 20
26.24579669847935
 30
0.0
 42
-0.1946370063820205
  0
VERTEX
  5
795
  8
RULER
 10
1.68313631968353
 20
26.19329669847935
 30
0.0
  0
VERTEX
  5
796
  8
RULER
 10
1.55813631968353
 20
26.06829669847935
 30
0.0
  0
VERTEX
  5
797
  8
RULER
 10
1.71813631968353
 20
26.06829669847935
 30
0.0
  0
SEQEND
  5
CEB
  8
RULER
  0
POLYLINE
  5
F8
  8
RULER
 66
     1
 10
0.0
 20
0.0
 30
0.0
 70
     1
  0
VERTEX
  5
798
  8
RULER
 10
1.85313631968353
 20
26.06579669847935
 30
0.0
  0
VERTEX
  5
799
  8
RULER
 10
1.861827075914376
 20
26.0662355438973
 30
0.0
  0
VERTEX
  5
79A
  8
RULER
 10
1.870266784427936
 20
26.06752359637301
 30
0.0
  0
VERTEX
  5
79B
  8
RULER
 10
1.878412719557035
 20
26.06961813023932
 30
0.0
  0
VERTEX
  5
79C
  8
RULER
 10
1.886222155634494
 20
26.07247641982903
 30
0.0
  0
VERTEX
  5
79D
  8
RULER
 10
1.893652366993136
 20
26.07605573947499
 30
0.0
  0
VERTEX
  5
79E
  8
RULER
 10
1.900660627965784
 20
26.08031336351
 30
0.0
  0
VERTEX
  5
79F
  8
RULER
 10
1.90720421288526
 20
26.0852065662669
 30
0.0
  0
VERTEX
  5
7A0
  8
RULER
 10
1.913240396084387
 20
26.0906926220785
 30
0.0
  0
VERTEX
  5
7A1
  8
RULER
 10
1.918726451895987
 20
26.09672880527762
 30
0.0
  0
VERTEX
  5
7A2
  8
RULER
 10
1.923619654652882
 20
26.1032723901971
 30
0.0
  0
VERTEX
  5
7A3
  8
RULER
 10
1.927877278687896
 20
26.11028065116975
 30
0.0
  0
VERTEX
  5
7A4
  8
RULER
 10
1.931456598333851
 20
26.11771086252839
 30
0.0
  0
VERTEX
  5
7A5
  8
RULER
 10
1.934314887923569
 20
26.12552029860585
 30
0.0
  0
VERTEX
  5
7A6
  8
RULER
 10
1.936409421789874
 20
26.13366623373495
 30
0.0
  0
VERTEX
  5
7A7
  8
RULER
 10
1.937697474265586
 20
26.14210594224851
 30
0.0
  0
VERTEX
  5
7A8
  8
RULER
 10
1.93813631968353
 20
26.15079669847935
 30
0.0
  0
VERTEX
  5
7A9
  8
RULER
 10
1.937697474265586
 20
26.1594874547102
 30
0.0
  0
VERTEX
  5
7AA
  8
RULER
 10
1.936409421789874
 20
26.16792716322376
 30
0.0
  0
VERTEX
  5
7AB
  8
RULER
 10
1.934314887923569
 20
26.17607309835286
 30
0.0
  0
VERTEX
  5
7AC
  8
RULER
 10
1.931456598333851
 20
26.18388253443032
 30
0.0
  0
VERTEX
  5
7AD
  8
RULER
 10
1.927877278687896
 20
26.19131274578896
 30
0.0
  0
VERTEX
  5
7AE
  8
RULER
 10
1.923619654652882
 20
26.19832100676161
 30
0.0
  0
VERTEX
  5
7AF
  8
RULER
 10
1.918726451895987
 20
26.20486459168109
 30
0.0
  0
VERTEX
  5
7B0
  8
RULER
 10
1.913240396084387
 20
26.21090077488021
 30
0.0
  0
VERTEX
  5
7B1
  8
RULER
 10
1.90720421288526
 20
26.21638683069181
 30
0.0
  0
VERTEX
  5
7B2
  8
RULER
 10
1.900660627965784
 20
26.22128003344871
 30
0.0
  0
VERTEX
  5
7B3
  8
RULER
 10
1.893652366993136
 20
26.22553765748372
 30
0.0
  0
VERTEX
  5
7B4
  8
RULER
 10
1.886222155634494
 20
26.22911697712967
 30
0.0
  0
VERTEX
  5
7B5
  8
RULER
 10
1.878412719557035
 20
26.23197526671939
 30
0.0
  0
VERTEX
  5
7B6
  8
RULER
 10
1.870266784427936
 20
26.2340698005857
 30
0.0
  0
VERTEX
  5
7B7
  8
RULER
 10
1.861827075914376
 20
26.23535785306141
 30
0.0
  0
VERTEX
  5
7B8
  8
RULER
 10
1.85313631968353
 20
26.23579669847935
 30
0.0
  0
VERTEX
  5
7B9
  8
RULER
 10
1.844445563452684
 20
26.23535785306141
 30
0.0
  0
VERTEX
  5
7BA
  8
RULER
 10
1.836005854939124
 20
26.2340698005857
 30
0.0
  0
VERTEX
  5
7BB
  8
RULER
 10
1.827859919810025
 20
26.23197526671939
 30
0.0
  0
VERTEX
  5
7BC
  8
RULER
 10
1.820050483732566
 20
26.22911697712967
 30
0.0
  0
VERTEX
  5
7BD
  8
RULER
 10
1.812620272373924
 20
26.22553765748372
 30
0.0
  0
VERTEX
  5
7BE
  8
RULER
 10
1.805612011401276
 20
26.22128003344871
 30
0.0
  0
VERTEX
  5
7BF
  8
RULER
 10
1.7990684264818
 20
26.21638683069181
 30
0.0
  0
VERTEX
  5
7C0
  8
RULER
 10
1.793032243282673
 20
26.21090077488021
 30
0.0
  0
VERTEX
  5
7C1
  8
RULER
 10
1.787546187471073
 20
26.20486459168109
 30
0.0
  0
VERTEX
  5
7C2
  8
RULER
 10
1.782652984714178
 20
26.19832100676161
 30
0.0
  0
VERTEX
  5
7C3
  8
RULER
 10
1.778395360679164
 20
26.19131274578896
 30
0.0
  0
VERTEX
  5
7C4
  8
RULER
 10
1.774816041033209
 20
26.18388253443032
 30
0.0
  0
VERTEX
  5
7C5
  8
RULER
 10
1.771957751443491
 20
26.17607309835286
 30
0.0
  0
VERTEX
  5
7C6
  8
RULER
 10
1.769863217577186
 20
26.16792716322376
 30
0.0
  0
VERTEX
  5
7C7
  8
RULER
 10
1.768575165101474
 20
26.1594874547102
 30
0.0
  0
VERTEX
  5
7C8
  8
RULER
 10
1.76813631968353
 20
26.15079669847935
 30
0.0
  0
VERTEX
  5
7C9
  8
RULER
 10
1.768575165101474
 20
26.14210594224851
 30
0.0
  0
VERTEX
  5
7CA
  8
RULER
 10
1.769863217577186
 20
26.13366623373495
 30
0.0
  0
VERTEX
  5
7CB
  8
RULER
 10
1.771957751443491
 20
26.12552029860585
 30
0.0
  0
VERTEX
  5
7CC
  8
RULER
 10
1.774816041033209
 20
26.11771086252839
 30
0.0
  0
VERTEX
  5
7CD
  8
RULER
 10
1.778395360679164
 20
26.11028065116975
 30
0.0
  0
VERTEX
  5
7CE
  8
RULER
 10
1.782652984714178
 20
26.1032723901971
 30
0.0
  0
VERTEX
  5
7CF
  8
RULER
 10
1.787546187471073
 20
26.09672880527762
 30
0.0
  0
VERTEX
  5
7D0
  8
RULER
 10
1.793032243282673
 20
26.0906926220785
 30
0.0
  0
VERTEX
  5
7D1
  8
RULER
 10
1.7990684264818
 20
26.0852065662669
 30
0.0
  0
VERTEX
  5
7D2
  8
RULER
 10
1.805612011401276
 20
26.08031336351
 30
0.0
  0
VERTEX
  5
7D3
  8
RULER
 10
1.812620272373924
 20
26.07605573947499
 30
0.0
  0
VERTEX
  5
7D4
  8
RULER
 10
1.820050483732566
 20
26.07247641982903
 30
0.0
  0
VERTEX
  5
7D5
  8
RULER
 10
1.827859919810025
 20
26.06961813023932
 30
0.0
  0
VERTEX
  5
7D6
  8
RULER
 10
1.836005854939124
 20
26.06752359637301
 30
0.0
  0
VERTEX
  5
7D7
  8
RULER
 10
1.844445563452684
 20
26.0662355438973
 30
0.0
  0
SEQEND
  5
CEC
  8
RULER
  0
POLYLINE
  5
F9
  8
RULER
 66
     1
 10
0.0
 20
0.0
 30
0.0
  0
VERTEX
  5
7D8
  8
RULER
 10
1.85313631968353
 20
26.06579669847935
 30
0.0
 42
-0.5862971619980313
  0
VERTEX
  5
7D9
  8
RULER
 10
1.78063631968353
 20
26.19579669847936
 30
0.0
  0
VERTEX
  5
7DA
  8
RULER
 10
1.86313631968353
 20
26.32079669847936
 30
0.0
  0
SEQEND
  5
CED
  8
RULER
  0
POLYLINE
  5
FA
  8
RULER
 66
     1
 10
0.0
 20
0.0
 30
0.0
  0
VERTEX
  5
7DB
  8
RULER
 10
1.133176289684127
 20
27.15880469247948
 30
0.0
 42
-0.4238676972146167
  0
VERTEX
  5
7DC
  8
RULER
 10
1.208176289684127
 20
27.23630469247948
 30
0.0
 42
-0.4139114804918755
  0
VERTEX
  5
7DD
  8
RULER
 10
1.283176289684127
 20
27.16130469247948
 30
0.0
 42
-0.1946370063820205
  0
VERTEX
  5
7DE
  8
RULER
 10
1.260676289684127
 20
27.10880469247948
 30
0.0
  0
VERTEX
  5
7DF
  8
RULER
 10
1.135676289684127
 20
26.98380469247948
 30
0.0
  0
VERTEX
  5
7E0
  8
RULER
 10
1.295676289684127
 20
26.98380469247948
 30
0.0
  0
SEQEND
  5
CEE
  8
RULER
  0
POLYLINE
  5
FB
  8
RULER
 66
     1
 10
0.0
 20
0.0
 30
0.0
  0
VERTEX
  5
7E1
  8
RULER
 10
1.345676289684127
 20
27.23380469247948
 30
0.0
  0
VERTEX
  5
7E2
  8
RULER
 10
1.485676289684127
 20
27.23380469247948
 30
0.0
  0
VERTEX
  5
7E3
  8
RULER
 10
1.375676289684127
 20
26.98380469247948
 30
0.0
  0
SEQEND
  5
CEF
  8
RULER
  0
POLYLINE
  5
FC
  8
RULER
 66
     1
 10
0.0
 20
0.0
 30
0.0
  0
VERTEX
  5
7E4
  8
RULER
 10
1.55563631968353
 20
28.24329669847936
 30
0.0
 42
-0.4238676972146167
  0
VERTEX
  5
7E5
  8
RULER
 10
1.63063631968353
 20
28.32079669847936
 30
0.0
 42
-0.4139114804918755
  0
VERTEX
  5
7E6
  8
RULER
 10
1.70563631968353
 20
28.24579669847935
 30
0.0
 42
-0.1946370063820205
  0
VERTEX
  5
7E7
  8
RULER
 10
1.68313631968353
 20
28.19329669847935
 30
0.0
  0
VERTEX
  5
7E8
  8
RULER
 10
1.55813631968353
 20
28.06829669847935
 30
0.0
  0
VERTEX
  5
7E9
  8
RULER
 10
1.71813631968353
 20
28.06829669847935
 30
0.0
  0
SEQEND
  5
CF0
  8
RULER
  0
POLYLINE
  5
FD
  8
RULER
 66
     1
 10
0.0
 20
0.0
 30
0.0
 70
     1
  0
VERTEX
  5
7EA
  8
RULER
 10
1.83813631968353
 20
28.21079669847935
 30
0.0
  0
VERTEX
  5
7EB
  8
RULER
 10
1.832512889181218
 20
28.2110806572792
 30
0.0
  0
VERTEX
  5
7EC
  8
RULER
 10
1.827051901319503
 20
28.21191410299878
 30
0.0
  0
VERTEX
  5
7ED
  8
RULER
 10
1.821781002118321
 20
28.21326938961816
 30
0.0
  0
VERTEX
  5
7EE
  8
RULER
 10
1.816727837597612
 20
28.21511887111738
 30
0.0
  0
VERTEX
  5
7EF
  8
RULER
 10
1.811920053777314
 20
28.21743490147653
 30
0.0
  0
VERTEX
  5
7F0
  8
RULER
 10
1.807385296677365
 20
28.22018983467565
 30
0.0
  0
VERTEX
  5
7F1
  8
RULER
 10
1.803151212317704
 20
28.22335602469482
 30
0.0
  0
VERTEX
  5
7F2
  8
RULER
 10
1.799245446718269
 20
28.22690582551409
 30
0.0
  0
VERTEX
  5
7F3
  8
RULER
 10
1.795695645898999
 20
28.23081159111353
 30
0.0
  0
VERTEX
  5
7F4
  8
RULER
 10
1.792529455879831
 20
28.23504567547319
 30
0.0
  0
VERTEX
  5
7F5
  8
RULER
 10
1.789774522680704
 20
28.23958043257313
 30
0.0
  0
VERTEX
  5
7F6
  8
RULER
 10
1.787458492321557
 20
28.24438821639344
 30
0.0
  0
VERTEX
  5
7F7
  8
RULER
 10
1.785609010822328
 20
28.24944138091415
 30
0.0
  0
VERTEX
  5
7F8
  8
RULER
 10
1.784253724202955
 20
28.25471228011533
 30
0.0
  0
VERTEX
  5
7F9
  8
RULER
 10
1.783420278483376
 20
28.26017326797704
 30
0.0
  0
VERTEX
  5
7FA
  8
RULER
 10
1.78313631968353
 20
28.26579669847936
 30
0.0
  0
VERTEX
  5
7FB
  8
RULER
 10
1.783420278483376
 20
28.27142012898167
 30
0.0
  0
VERTEX
  5
7FC
  8
RULER
 10
1.784253724202955
 20
28.27688111684338
 30
0.0
  0
VERTEX
  5
7FD
  8
RULER
 10
1.785609010822328
 20
28.28215201604457
 30
0.0
  0
VERTEX
  5
7FE
  8
RULER
 10
1.787458492321557
 20
28.28720518056527
 30
0.0
  0
VERTEX
  5
7FF
  8
RULER
 10
1.789774522680704
 20
28.29201296438557
 30
0.0
  0
VERTEX
  5
800
  8
RULER
 10
1.792529455879831
 20
28.29654772148552
 30
0.0
  0
VERTEX
  5
801
  8
RULER
 10
1.795695645898999
 20
28.30078180584518
 30
0.0
  0
VERTEX
  5
802
  8
RULER
 10
1.799245446718269
 20
28.30468757144462
 30
0.0
  0
VERTEX
  5
803
  8
RULER
 10
1.803151212317704
 20
28.30823737226389
 30
0.0
  0
VERTEX
  5
804
  8
RULER
 10
1.807385296677365
 20
28.31140356228305
 30
0.0
  0
VERTEX
  5
805
  8
RULER
 10
1.811920053777314
 20
28.31415849548218
 30
0.0
  0
VERTEX
  5
806
  8
RULER
 10
1.816727837597612
 20
28.31647452584133
 30
0.0
  0
VERTEX
  5
807
  8
RULER
 10
1.821781002118321
 20
28.31832400734056
 30
0.0
  0
VERTEX
  5
808
  8
RULER
 10
1.827051901319503
 20
28.31967929395993
 30
0.0
  0
VERTEX
  5
809
  8
RULER
 10
1.832512889181218
 20
28.32051273967951
 30
0.0
  0
VERTEX
  5
80A
  8
RULER
 10
1.83813631968353
 20
28.32079669847936
 30
0.0
  0
VERTEX
  5
80B
  8
RULER
 10
1.843759750185841
 20
28.32051273967951
 30
0.0
  0
VERTEX
  5
80C
  8
RULER
 10
1.849220738047557
 20
28.31967929395993
 30
0.0
  0
VERTEX
  5
80D
  8
RULER
 10
1.854491637248739
 20
28.31832400734056
 30
0.0
  0
VERTEX
  5
80E
  8
RULER
 10
1.859544801769448
 20
28.31647452584133
 30
0.0
  0
VERTEX
  5
80F
  8
RULER
 10
1.864352585589746
 20
28.31415849548218
 30
0.0
  0
VERTEX
  5
810
  8
RULER
 10
1.868887342689694
 20
28.31140356228305
 30
0.0
  0
VERTEX
  5
811
  8
RULER
 10
1.873121427049355
 20
28.30823737226389
 30
0.0
  0
VERTEX
  5
812
  8
RULER
 10
1.87702719264879
 20
28.30468757144462
 30
0.0
  0
VERTEX
  5
813
  8
RULER
 10
1.880576993468061
 20
28.30078180584518
 30
0.0
  0
VERTEX
  5
814
  8
RULER
 10
1.883743183487228
 20
28.29654772148552
 30
0.0
  0
VERTEX
  5
815
  8
RULER
 10
1.886498116686355
 20
28.29201296438557
 30
0.0
  0
VERTEX
  5
816
  8
RULER
 10
1.888814147045502
 20
28.28720518056527
 30
0.0
  0
VERTEX
  5
817
  8
RULER
 10
1.890663628544732
 20
28.28215201604457
 30
0.0
  0
VERTEX
  5
818
  8
RULER
 10
1.892018915164105
 20
28.27688111684338
 30
0.0
  0
VERTEX
  5
819
  8
RULER
 10
1.892852360883684
 20
28.27142012898167
 30
0.0
  0
VERTEX
  5
81A
  8
RULER
 10
1.89313631968353
 20
28.26579669847936
 30
0.0
  0
VERTEX
  5
81B
  8
RULER
 10
1.892852360883684
 20
28.26017326797704
 30
0.0
  0
VERTEX
  5
81C
  8
RULER
 10
1.892018915164105
 20
28.25471228011533
 30
0.0
  0
VERTEX
  5
81D
  8
RULER
 10
1.890663628544732
 20
28.24944138091415
 30
0.0
  0
VERTEX
  5
81E
  8
RULER
 10
1.888814147045502
 20
28.24438821639344
 30
0.0
  0
VERTEX
  5
81F
  8
RULER
 10
1.886498116686355
 20
28.23958043257313
 30
0.0
  0
VERTEX
  5
820
  8
RULER
 10
1.883743183487228
 20
28.23504567547319
 30
0.0
  0
VERTEX
  5
821
  8
RULER
 10
1.880576993468061
 20
28.23081159111353
 30
0.0
  0
VERTEX
  5
822
  8
RULER
 10
1.87702719264879
 20
28.22690582551409
 30
0.0
  0
VERTEX
  5
823
  8
RULER
 10
1.873121427049355
 20
28.22335602469482
 30
0.0
  0
VERTEX
  5
824
  8
RULER
 10
1.868887342689694
 20
28.22018983467565
 30
0.0
  0
VERTEX
  5
825
  8
RULER
 10
1.864352585589746
 20
28.21743490147653
 30
0.0
  0
VERTEX
  5
826
  8
RULER
 10
1.859544801769448
 20
28.21511887111738
 30
0.0
  0
VERTEX
  5
827
  8
RULER
 10
1.854491637248739
 20
28.21326938961816
 30
0.0
  0
VERTEX
  5
828
  8
RULER
 10
1.849220738047557
 20
28.21191410299878
 30
0.0
  0
VERTEX
  5
829
  8
RULER
 10
1.843759750185841
 20
28.2110806572792
 30
0.0
  0
SEQEND
  5
CF1
  8
RULER
  0
POLYLINE
  5
FE
  8
RULER
 66
     1
 10
0.0
 20
0.0
 30
0.0
 70
     1
  0
VERTEX
  5
82A
  8
RULER
 10
1.83813631968353
 20
28.21079669847935
 30
0.0
 42
-0.4142857142857143
  0
VERTEX
  5
82B
  8
RULER
 10
1.90813631968353
 20
28.14079669847936
 30
0.0
  0
VERTEX
  5
82C
  8
RULER
 10
1.90813631968353
 20
28.13579669847935
 30
0.0
 42
-1.0
  0
VERTEX
  5
82D
  8
RULER
 10
1.76813631968353
 20
28.13579669847935
 30
0.0
  0
VERTEX
  5
82E
  8
RULER
 10
1.76813631968353
 20
28.14079669847936
 30
0.0
 42
-0.4142857142857144
  0
SEQEND
  5
CF2
  8
RULER
  0
POLYLINE
  5
FF
  8
RULER
 66
     1
 10
0.0
 20
0.0
 30
0.0
  0
VERTEX
  5
82F
  8
RULER
 10
1.133176289684127
 20
29.15880469247948
 30
0.0
 42
-0.4238676972146167
  0
VERTEX
  5
830
  8
RULER
 10
1.208176289684127
 20
29.23630469247948
 30
0.0
 42
-0.4139114804918755
  0
VERTEX
  5
831
  8
RULER
 10
1.283176289684127
 20
29.16130469247948
 30
0.0
 42
-0.1946370063820205
  0
VERTEX
  5
832
  8
RULER
 10
1.260676289684127
 20
29.10880469247948
 30
0.0
  0
VERTEX
  5
833
  8
RULER
 10
1.135676289684127
 20
28.98380469247948
 30
0.0
  0
VERTEX
  5
834
  8
RULER
 10
1.295676289684127
 20
28.98380469247948
 30
0.0
  0
SEQEND
  5
CF3
  8
RULER
  0
POLYLINE
  5
100
  8
RULER
 66
     1
 10
0.0
 20
0.0
 30
0.0
  0
VERTEX
  5
835
  8
RULER
 10
1.420676289684127
 20
28.98380469247948
 30
0.0
  0
VERTEX
  5
836
  8
RULER
 10
1.503176289684127
 20
29.10880469247948
 30
0.0
 42
0.1380051253523702
  0
VERTEX
  5
837
  8
RULER
 10
1.515676289684127
 20
29.15130469247948
 30
0.0
 42
1.0
  0
VERTEX
  5
838
  8
RULER
 10
1.345676289684127
 20
29.15130469247948
 30
0.0
 42
0.7699957824736615
  0
VERTEX
  5
839
  8
RULER
 10
1.503176289684127
 20
29.10880469247948
 30
0.0
  0
SEQEND
  5
CF4
  8
RULER
  0
POLYLINE
  5
101
  8
RULER
 66
     1
 10
0.0
 20
0.0
 30
0.0
  0
VERTEX
  5
83A
  8
RULER
 10
1.56813631968353
 20
30.25829669847936
 30
0.0
 42
-0.4548493327042687
  0
VERTEX
  5
83B
  8
RULER
 10
1.62313631968353
 20
30.32129669847935
 30
0.0
 42
-0.4114350750726344
  0
VERTEX
  5
83C
  8
RULER
 10
1.67813631968353
 20
30.26579669847936
 30
0.0
  0
VERTEX
  5
83D
  8
RULER
 10
1.67813631968353
 20
30.25829669847936
 30
0.0
 42
-0.4121212121212124
  0
VERTEX
  5
83E
  8
RULER
 10
1.62313631968353
 20
30.20329669847936
 30
0.0
  0
VERTEX
  5
83F
  8
RULER
 10
1.61063631968353
 20
30.20329669847936
 30
0.0
  0
VERTEX
  5
840
  8
RULER
 10
1.62563631968353
 20
30.20329669847936
 30
0.0
 42
-0.4142857142857143
  0
VERTEX
  5
841
  8
RULER
 10
1.69563631968353
 20
30.13329669847936
 30
0.0
 42
-0.9462693881493045
  0
VERTEX
  5
842
  8
RULER
 10
1.55563631968353
 20
30.13079669847935
 30
0.0
  0
SEQEND
  5
CF5
  8
RULER
  0
POLYLINE
  5
102
  8
RULER
 66
     1
 10
0.0
 20
0.0
 30
0.0
 70
     1
  0
VERTEX
  5
843
  8
RULER
 10
1.87063631968353
 20
30.06579669847935
 30
0.0
  0
VERTEX
  5
844
  8
RULER
 10
1.87313631968353
 20
30.06579669847935
 30
0.0
 42
0.4133333333333333
  0
VERTEX
  5
845
  8
RULER
 10
1.99813631968353
 20
30.19079669847935
 30
0.0
  0
VERTEX
  5
846
  8
RULER
 10
1.99813631968353
 20
30.19329669847935
 30
0.0
 42
0.4133333333333333
  0
VERTEX
  5
847
  8
RULER
 10
1.87313631968353
 20
30.31829669847935
 30
0.0
  0
VERTEX
  5
848
  8
RULER
 10
1.87063631968353
 20
30.31829669847935
 30
0.0
 42
0.4133333333333333
  0
VERTEX
  5
849
  8
RULER
 10
1.74563631968353
 20
30.19329669847935
 30
0.0
  0
VERTEX
  5
84A
  8
RULER
 10
1.74563631968353
 20
30.19079669847935
 30
0.0
 42
0.4133333333333333
  0
SEQEND
  5
CF6
  8
RULER
  0
POLYLINE
  5
103
  8
RULER
 66
     1
 10
0.0
 20
0.0
 30
0.0
  0
VERTEX
  5
84B
  8
RULER
 10
1.56813631968353
 20
31.25829669847936
 30
0.0
 42
-0.4548493327042687
  0
VERTEX
  5
84C
  8
RULER
 10
1.62313631968353
 20
31.32129669847935
 30
0.0
 42
-0.4114350750726344
  0
VERTEX
  5
84D
  8
RULER
 10
1.67813631968353
 20
31.26579669847936
 30
0.0
  0
VERTEX
  5
84E
  8
RULER
 10
1.67813631968353
 20
31.25829669847936
 30
0.0
 42
-0.4121212121212124
  0
VERTEX
  5
84F
  8
RULER
 10
1.62313631968353
 20
31.20329669847936
 30
0.0
  0
VERTEX
  5
850
  8
RULER
 10
1.61063631968353
 20
31.20329669847936
 30
0.0
  0
VERTEX
  5
851
  8
RULER
 10
1.62563631968353
 20
31.20329669847936
 30
0.0
 42
-0.4142857142857143
  0
VERTEX
  5
852
  8
RULER
 10
1.69563631968353
 20
31.13329669847936
 30
0.0
 42
-0.9462693881493045
  0
VERTEX
  5
853
  8
RULER
 10
1.55563631968353
 20
31.13079669847935
 30
0.0
  0
SEQEND
  5
CF7
  8
RULER
  0
POLYLINE
  5
104
  8
RULER
 66
     1
 10
0.0
 20
0.0
 30
0.0
  0
VERTEX
  5
854
  8
RULER
 10
1.74563631968353
 20
31.31829669847935
 30
0.0
  0
VERTEX
  5
855
  8
RULER
 10
1.81313631968353
 20
31.31829669847935
 30
0.0
  0
VERTEX
  5
856
  8
RULER
 10
1.81313631968353
 20
31.06829669847935
 30
0.0
  0
SEQEND
  5
CF8
  8
RULER
  0
POLYLINE
  5
105
  8
RULER
 66
     1
 10
0.0
 20
0.0
 30
0.0
  0
VERTEX
  5
857
  8
RULER
 10
1.145676289684127
 20
31.86114060547961
 30
0.0
 42
-0.4548493327042687
  0
VERTEX
  5
858
  8
RULER
 10
1.200676289684127
 20
31.92414060547961
 30
0.0
 42
-0.4114350750726344
  0
VERTEX
  5
859
  8
RULER
 10
1.255676289684127
 20
31.86864060547961
 30
0.0
  0
VERTEX
  5
85A
  8
RULER
 10
1.255676289684127
 20
31.86114060547961
 30
0.0
 42
-0.4121212121212124
  0
VERTEX
  5
85B
  8
RULER
 10
1.200676289684127
 20
31.80614060547961
 30
0.0
  0
VERTEX
  5
85C
  8
RULER
 10
1.188176289684127
 20
31.80614060547961
 30
0.0
  0
VERTEX
  5
85D
  8
RULER
 10
1.203176289684127
 20
31.80614060547961
 30
0.0
 42
-0.4142857142857143
  0
VERTEX
  5
85E
  8
RULER
 10
1.273176289684127
 20
31.73614060547961
 30
0.0
 42
-0.9462693881493045
  0
VERTEX
  5
85F
  8
RULER
 10
1.133176289684127
 20
31.73364060547961
 30
0.0
  0
SEQEND
  5
CF9
  8
RULER
  0
POLYLINE
  5
106
  8
RULER
 66
     1
 10
0.0
 20
0.0
 30
0.0
  0
VERTEX
  5
860
  8
RULER
 10
1.323176289684127
 20
31.84614060547961
 30
0.0
 42
-0.4238676972146167
  0
VERTEX
  5
861
  8
RULER
 10
1.398176289684127
 20
31.92364060547961
 30
0.0
 42
-0.4139114804918755
  0
VERTEX
  5
862
  8
RULER
 10
1.473176289684127
 20
31.84864060547961
 30
0.0
 42
-0.1946370063820205
  0
VERTEX
  5
863
  8
RULER
 10
1.450676289684127
 20
31.79614060547961
 30
0.0
  0
VERTEX
  5
864
  8
RULER
 10
1.325676289684127
 20
31.67114060547961
 30
0.0
  0
VERTEX
  5
865
  8
RULER
 10
1.485676289684127
 20
31.67114060547961
 30
0.0
  0
SEQEND
  5
CFA
  8
RULER
  0
POLYLINE
  5
107
  8
RULER
 66
     1
 10
0.0
 20
0.0
 30
0.0
  0
VERTEX
  5
866
  8
RULER
 10
0.0625243522915788
 20
0.0
 30
0.0
  0
VERTEX
  5
867
  8
RULER
 10
1.062524352291581
 20
0.0
 30
0.0
  0
SEQEND
  5
CFB
  8
RULER
  0
POLYLINE
  5
108
  8
RULER
 66
     1
 10
0.0
 20
0.0
 30
0.0
  0
VERTEX
  5
868
  8
RULER
 10
0.0625243522915788
 20
1.0
 30
0.0
  0
VERTEX
  5
869
  8
RULER
 10
1.062524352291581
 20
1.0
 30
0.0
  0
SEQEND
  5
CFC
  8
RULER
  0
POLYLINE
  5
109
  8
RULER
 66
     1
 10
0.0
 20
0.0
 30
0.0
  0
VERTEX
  5
86A
  8
RULER
 10
0.0625243522915788
 20
2.0
 30
0.0
  0
VERTEX
  5
86B
  8
RULER
 10
1.062524352291581
 20
2.0
 30
0.0
  0
SEQEND
  5
CFD
  8
RULER
  0
POLYLINE
  5
10A
  8
RULER
 66
     1
 10
0.0
 20
0.0
 30
0.0
  0
VERTEX
  5
86C
  8
RULER
 10
0.0625243522915806
 20
2.999999999999998
 30
0.0
  0
VERTEX
  5
86D
  8
RULER
 10
1.062524352291581
 20
2.999999999999998
 30
0.0
  0
SEQEND
  5
CFE
  8
RULER
  0
POLYLINE
  5
10B
  8
RULER
 66
     1
 10
0.0
 20
0.0
 30
0.0
  0
VERTEX
  5
86E
  8
RULER
 10
0.0625243522915806
 20
3.999999999999998
 30
0.0
  0
VERTEX
  5
86F
  8
RULER
 10
1.062524352291581
 20
3.999999999999998
 30
0.0
  0
SEQEND
  5
CFF
  8
RULER
  0
POLYLINE
  5
10C
  8
RULER
 66
     1
 10
0.0
 20
0.0
 30
0.0
  0
VERTEX
  5
870
  8
RULER
 10
0.0625243522915806
 20
4.999999999999998
 30
0.0
  0
VERTEX
  5
871
  8
RULER
 10
1.062524352291581
 20
4.999999999999998
 30
0.0
  0
SEQEND
  5
D00
  8
RULER
  0
POLYLINE
  5
10D
  8
RULER
 66
     1
 10
0.0
 20
0.0
 30
0.0
  0
VERTEX
  5
872
  8
RULER
 10
0.0625243522915806
 20
5.999999999999998
 30
0.0
  0
VERTEX
  5
873
  8
RULER
 10
1.062524352291581
 20
5.999999999999998
 30
0.0
  0
SEQEND
  5
D01
  8
RULER
  0
POLYLINE
  5
10E
  8
RULER
 66
     1
 10
0.0
 20
0.0
 30
0.0
  0
VERTEX
  5
874
  8
RULER
 10
0.0625243522915824
 20
6.999999999999998
 30
0.0
  0
VERTEX
  5
875
  8
RULER
 10
1.062524352291584
 20
6.999999999999998
 30
0.0
  0
SEQEND
  5
D02
  8
RULER
  0
POLYLINE
  5
10F
  8
RULER
 66
     1
 10
0.0
 20
0.0
 30
0.0
  0
VERTEX
  5
876
  8
RULER
 10
0.0625243522915824
 20
7.999999999999995
 30
0.0
  0
VERTEX
  5
877
  8
RULER
 10
1.062524352291584
 20
7.999999999999995
 30
0.0
  0
SEQEND
  5
D03
  8
RULER
  0
POLYLINE
  5
110
  8
RULER
 66
     1
 10
0.0
 20
0.0
 30
0.0
  0
VERTEX
  5
878
  8
RULER
 10
0.0625243522915824
 20
8.999999999999995
 30
0.0
  0
VERTEX
  5
879
  8
RULER
 10
1.062524352291584
 20
8.999999999999995
 30
0.0
  0
SEQEND
  5
D04
  8
RULER
  0
POLYLINE
  5
111
  8
RULER
 66
     1
 10
0.0
 20
0.0
 30
0.0
  0
VERTEX
  5
87A
  8
RULER
 10
0.0625243522915824
 20
9.999999999999995
 30
0.0
  0
VERTEX
  5
87B
  8
RULER
 10
1.062524352291582
 20
9.999999999999995
 30
0.0
  0
SEQEND
  5
D05
  8
RULER
  0
POLYLINE
  5
112
  8
RULER
 66
     1
 10
0.0
 20
0.0
 30
0.0
  0
VERTEX
  5
87C
  8
RULER
 10
0.0625243522915824
 20
10.99999999999999
 30
0.0
  0
VERTEX
  5
87D
  8
RULER
 10
1.062524352291582
 20
10.99999999999999
 30
0.0
  0
SEQEND
  5
D06
  8
RULER
  0
POLYLINE
  5
113
  8
RULER
 66
     1
 10
0.0
 20
0.0
 30
0.0
  0
VERTEX
  5
87E
  8
RULER
 10
0.0625243522915788
 20
12.0
 30
0.0
  0
VERTEX
  5
87F
  8
RULER
 10
1.062524352291582
 20
12.0
 30
0.0
  0
SEQEND
  5
D07
  8
RULER
  0
POLYLINE
  5
114
  8
RULER
 66
     1
 10
0.0
 20
0.0
 30
0.0
  0
VERTEX
  5
880
  8
RULER
 10
0.0625243522915788
 20
12.99999999999999
 30
0.0
  0
VERTEX
  5
881
  8
RULER
 10
1.062524352291582
 20
12.99999999999999
 30
0.0
  0
SEQEND
  5
D08
  8
RULER
  0
POLYLINE
  5
115
  8
RULER
 66
     1
 10
0.0
 20
0.0
 30
0.0
  0
VERTEX
  5
882
  8
RULER
 10
0.0625243522915788
 20
13.99999999999999
 30
0.0
  0
VERTEX
  5
883
  8
RULER
 10
1.062524352291582
 20
13.99999999999999
 30
0.0
  0
SEQEND
  5
D09
  8
RULER
  0
POLYLINE
  5
116
  8
RULER
 66
     1
 10
0.0
 20
0.0
 30
0.0
  0
VERTEX
  5
884
  8
RULER
 10
0.0625243522915788
 20
14.99999999999999
 30
0.0
  0
VERTEX
  5
885
  8
RULER
 10
1.062524352291582
 20
14.99999999999999
 30
0.0
  0
SEQEND
  5
D0A
  8
RULER
  0
POLYLINE
  5
117
  8
RULER
 66
     1
 10
0.0
 20
0.0
 30
0.0
  0
VERTEX
  5
886
  8
RULER
 10
0.0625243522915824
 20
15.99999999999999
 30
0.0
  0
VERTEX
  5
887
  8
RULER
 10
1.062524352291582
 20
15.99999999999999
 30
0.0
  0
SEQEND
  5
D0B
  8
RULER
  0
POLYLINE
  5
118
  8
RULER
 66
     1
 10
0.0
 20
0.0
 30
0.0
  0
VERTEX
  5
888
  8
RULER
 10
0.0625243522915806
 20
16.99999999999999
 30
0.0
  0
VERTEX
  5
889
  8
RULER
 10
1.062524352291582
 20
16.99999999999999
 30
0.0
  0
SEQEND
  5
D0C
  8
RULER
  0
POLYLINE
  5
119
  8
RULER
 66
     1
 10
0.0
 20
0.0
 30
0.0
  0
VERTEX
  5
88A
  8
RULER
 10
0.0625243522915806
 20
17.99999999999999
 30
0.0
  0
VERTEX
  5
88B
  8
RULER
 10
1.062524352291582
 20
17.99999999999999
 30
0.0
  0
SEQEND
  5
D0D
  8
RULER
  0
POLYLINE
  5
11A
  8
RULER
 66
     1
 10
0.0
 20
0.0
 30
0.0
  0
VERTEX
  5
88C
  8
RULER
 10
0.0625243522915806
 20
18.99999999999999
 30
0.0
  0
VERTEX
  5
88D
  8
RULER
 10
1.062524352291582
 20
18.99999999999999
 30
0.0
  0
SEQEND
  5
D0E
  8
RULER
  0
POLYLINE
  5
11B
  8
RULER
 66
     1
 10
0.0
 20
0.0
 30
0.0
  0
VERTEX
  5
88E
  8
RULER
 10
0.0625243522915806
 20
19.99999999999999
 30
0.0
  0
VERTEX
  5
88F
  8
RULER
 10
1.062524352291582
 20
19.99999999999999
 30
0.0
  0
SEQEND
  5
D0F
  8
RULER
  0
POLYLINE
  5
11C
  8
RULER
 66
     1
 10
0.0
 20
0.0
 30
0.0
  0
VERTEX
  5
890
  8
RULER
 10
0.0625243522915842
 20
20.99999999999999
 30
0.0
  0
VERTEX
  5
891
  8
RULER
 10
1.062524352291584
 20
20.99999999999999
 30
0.0
  0
SEQEND
  5
D10
  8
RULER
  0
POLYLINE
  5
11D
  8
RULER
 66
     1
 10
0.0
 20
0.0
 30
0.0
  0
VERTEX
  5
892
  8
RULER
 10
0.0625243522915842
 20
21.99999999999999
 30
0.0
  0
VERTEX
  5
893
  8
RULER
 10
1.062524352291584
 20
21.99999999999999
 30
0.0
  0
SEQEND
  5
D11
  8
RULER
  0
POLYLINE
  5
11E
  8
RULER
 66
     1
 10
0.0
 20
0.0
 30
0.0
  0
VERTEX
  5
894
  8
RULER
 10
0.0625243522915842
 20
22.99999999999999
 30
0.0
  0
VERTEX
  5
895
  8
RULER
 10
1.062524352291584
 20
22.99999999999999
 30
0.0
  0
SEQEND
  5
D12
  8
RULER
  0
POLYLINE
  5
11F
  8
RULER
 66
     1
 10
0.0
 20
0.0
 30
0.0
  0
VERTEX
  5
896
  8
RULER
 10
0.0625243522915842
 20
24.0
 30
0.0
  0
VERTEX
  5
897
  8
RULER
 10
1.062524352291584
 20
24.0
 30
0.0
  0
SEQEND
  5
D13
  8
RULER
  0
POLYLINE
  5
120
  8
RULER
 66
     1
 10
0.0
 20
0.0
 30
0.0
  0
VERTEX
  5
898
  8
RULER
 10
0.0625243522915842
 20
24.99999999999999
 30
0.0
  0
VERTEX
  5
899
  8
RULER
 10
1.062524352291584
 20
24.99999999999999
 30
0.0
  0
SEQEND
  5
D14
  8
RULER
  0
POLYLINE
  5
121
  8
RULER
 66
     1
 10
0.0
 20
0.0
 30
0.0
  0
VERTEX
  5
89A
  8
RULER
 10
0.0625243522915824
 20
25.99999999999999
 30
0.0
  0
VERTEX
  5
89B
  8
RULER
 10
1.062524352291582
 20
25.99999999999999
 30
0.0
  0
SEQEND
  5
D15
  8
RULER
  0
POLYLINE
  5
122
  8
RULER
 66
     1
 10
0.0
 20
0.0
 30
0.0
  0
VERTEX
  5
89C
  8
RULER
 10
0.0625243522915824
 20
27.0
 30
0.0
  0
VERTEX
  5
89D
  8
RULER
 10
1.062524352291582
 20
27.0
 30
0.0
  0
SEQEND
  5
D16
  8
RULER
  0
POLYLINE
  5
123
  8
RULER
 66
     1
 10
0.0
 20
0.0
 30
0.0
  0
VERTEX
  5
89E
  8
RULER
 10
0.0625243522915806
 20
28.0
 30
0.0
  0
VERTEX
  5
89F
  8
RULER
 10
1.062524352291581
 20
28.0
 30
0.0
  0
SEQEND
  5
D17
  8
RULER
  0
POLYLINE
  5
124
  8
RULER
 66
     1
 10
0.0
 20
0.0
 30
0.0
  0
VERTEX
  5
8A0
  8
RULER
 10
0.0625243522915806
 20
28.99999999999999
 30
0.0
  0
VERTEX
  5
8A1
  8
RULER
 10
1.062524352291581
 20
28.99999999999999
 30
0.0
  0
SEQEND
  5
D18
  8
RULER
  0
POLYLINE
  5
125
  8
RULER
 66
     1
 10
0.0
 20
0.0
 30
0.0
  0
VERTEX
  5
8A2
  8
RULER
 10
0.0625243522915806
 20
29.99999999999999
 30
0.0
  0
VERTEX
  5
8A3
  8
RULER
 10
1.062524352291582
 20
29.99999999999999
 30
0.0
  0
SEQEND
  5
D19
  8
RULER
  0
POLYLINE
  5
126
  8
RULER
 66
     1
 10
0.0
 20
0.0
 30
0.0
  0
VERTEX
  5
8A4
  8
RULER
 10
0.0625243522915806
 20
30.99999999999999
 30
0.0
  0
VERTEX
  5
8A5
  8
RULER
 10
1.062524352291582
 20
30.99999999999999
 30
0.0
  0
SEQEND
  5
D1A
  8
RULER
  0
POLYLINE
  5
127
  8
RULER
 66
     1
 10
0.0
 20
0.0
 30
0.0
  0
VERTEX
  5
8A6
  8
RULER
 10
0.0625243522915788
 20
0.5
 30
0.0
  0
VERTEX
  5
8A7
  8
RULER
 10
0.5625243522915824
 20
0.4999999999999929
 30
0.0
  0
SEQEND
  5
D1B
  8
RULER
  0
POLYLINE
  5
128
  8
RULER
 66
     1
 10
0.0
 20
0.0
 30
0.0
  0
VERTEX
  5
8A8
  8
RULER
 10
0.0625243522915788
 20
1.5
 30
0.0
  0
VERTEX
  5
8A9
  8
RULER
 10
0.5625243522915824
 20
1.5
 30
0.0
  0
SEQEND
  5
D1C
  8
RULER
  0
POLYLINE
  5
129
  8
RULER
 66
     1
 10
0.0
 20
0.0
 30
0.0
  0
VERTEX
  5
8AA
  8
RULER
 10
0.0625243522915806
 20
2.5
 30
0.0
  0
VERTEX
  5
8AB
  8
RULER
 10
0.5625243522915824
 20
2.5
 30
0.0
  0
SEQEND
  5
D1D
  8
RULER
  0
POLYLINE
  5
12A
  8
RULER
 66
     1
 10
0.0
 20
0.0
 30
0.0
  0
VERTEX
  5
8AC
  8
RULER
 10
0.0625243522915806
 20
3.499999999999998
 30
0.0
  0
VERTEX
  5
8AD
  8
RULER
 10
0.5625243522915824
 20
3.499999999999998
 30
0.0
  0
SEQEND
  5
D1E
  8
RULER
  0
POLYLINE
  5
12B
  8
RULER
 66
     1
 10
0.0
 20
0.0
 30
0.0
  0
VERTEX
  5
8AE
  8
RULER
 10
0.0625243522915806
 20
4.499999999999998
 30
0.0
  0
VERTEX
  5
8AF
  8
RULER
 10
0.5625243522915824
 20
4.499999999999998
 30
0.0
  0
SEQEND
  5
D1F
  8
RULER
  0
POLYLINE
  5
12C
  8
RULER
 66
     1
 10
0.0
 20
0.0
 30
0.0
  0
VERTEX
  5
8B0
  8
RULER
 10
0.0625243522915806
 20
5.499999999999998
 30
0.0
  0
VERTEX
  5
8B1
  8
RULER
 10
0.5625243522915824
 20
5.499999999999998
 30
0.0
  0
SEQEND
  5
D20
  8
RULER
  0
POLYLINE
  5
12D
  8
RULER
 66
     1
 10
0.0
 20
0.0
 30
0.0
  0
VERTEX
  5
8B2
  8
RULER
 10
0.0625243522915824
 20
6.499999999999998
 30
0.0
  0
VERTEX
  5
8B3
  8
RULER
 10
0.5625243522915842
 20
6.499999999999998
 30
0.0
  0
SEQEND
  5
D21
  8
RULER
  0
POLYLINE
  5
12E
  8
RULER
 66
     1
 10
0.0
 20
0.0
 30
0.0
  0
VERTEX
  5
8B4
  8
RULER
 10
0.0625243522915824
 20
7.499999999999995
 30
0.0
  0
VERTEX
  5
8B5
  8
RULER
 10
0.5625243522915859
 20
7.499999999999995
 30
0.0
  0
SEQEND
  5
D22
  8
RULER
  0
POLYLINE
  5
12F
  8
RULER
 66
     1
 10
0.0
 20
0.0
 30
0.0
  0
VERTEX
  5
8B6
  8
RULER
 10
0.0625243522915824
 20
8.499999999999991
 30
0.0
  0
VERTEX
  5
8B7
  8
RULER
 10
0.5625243522915859
 20
8.499999999999991
 30
0.0
  0
SEQEND
  5
D23
  8
RULER
  0
POLYLINE
  5
130
  8
RULER
 66
     1
 10
0.0
 20
0.0
 30
0.0
  0
VERTEX
  5
8B8
  8
RULER
 10
0.0625243522915824
 20
9.499999999999995
 30
0.0
  0
VERTEX
  5
8B9
  8
RULER
 10
0.5625243522915859
 20
9.499999999999995
 30
0.0
  0
SEQEND
  5
D24
  8
RULER
  0
POLYLINE
  5
131
  8
RULER
 66
     1
 10
0.0
 20
0.0
 30
0.0
  0
VERTEX
  5
8BA
  8
RULER
 10
0.0625243522915824
 20
10.49999999999999
 30
0.0
  0
VERTEX
  5
8BB
  8
RULER
 10
0.5625243522915859
 20
10.49999999999999
 30
0.0
  0
SEQEND
  5
D25
  8
RULER
  0
POLYLINE
  5
132
  8
RULER
 66
     1
 10
0.0
 20
0.0
 30
0.0
  0
VERTEX
  5
8BC
  8
RULER
 10
0.0625243522915788
 20
11.49999999999999
 30
0.0
  0
VERTEX
  5
8BD
  8
RULER
 10
0.5625243522915824
 20
11.49999999999999
 30
0.0
  0
SEQEND
  5
D26
  8
RULER
  0
POLYLINE
  5
133
  8
RULER
 66
     1
 10
0.0
 20
0.0
 30
0.0
  0
VERTEX
  5
8BE
  8
RULER
 10
0.0625243522915788
 20
12.49999999999999
 30
0.0
  0
VERTEX
  5
8BF
  8
RULER
 10
0.5625243522915824
 20
12.49999999999999
 30
0.0
  0
SEQEND
  5
D27
  8
RULER
  0
POLYLINE
  5
134
  8
RULER
 66
     1
 10
0.0
 20
0.0
 30
0.0
  0
VERTEX
  5
8C0
  8
RULER
 10
0.0625243522915788
 20
13.49999999999999
 30
0.0
  0
VERTEX
  5
8C1
  8
RULER
 10
0.5625243522915824
 20
13.49999999999999
 30
0.0
  0
SEQEND
  5
D28
  8
RULER
  0
POLYLINE
  5
135
  8
RULER
 66
     1
 10
0.0
 20
0.0
 30
0.0
  0
VERTEX
  5
8C2
  8
RULER
 10
0.0625243522915788
 20
14.49999999999999
 30
0.0
  0
VERTEX
  5
8C3
  8
RULER
 10
0.5625243522915824
 20
14.49999999999999
 30
0.0
  0
SEQEND
  5
D29
  8
RULER
  0
POLYLINE
  5
136
  8
RULER
 66
     1
 10
0.0
 20
0.0
 30
0.0
  0
VERTEX
  5
8C4
  8
RULER
 10
0.0625243522915788
 20
15.49999999999999
 30
0.0
  0
VERTEX
  5
8C5
  8
RULER
 10
0.5625243522915824
 20
15.49999999999999
 30
0.0
  0
SEQEND
  5
D2A
  8
RULER
  0
POLYLINE
  5
137
  8
RULER
 66
     1
 10
0.0
 20
0.0
 30
0.0
  0
VERTEX
  5
8C6
  8
RULER
 10
0.0625243522915806
 20
16.49999999999999
 30
0.0
  0
VERTEX
  5
8C7
  8
RULER
 10
0.5625243522915842
 20
16.49999999999999
 30
0.0
  0
SEQEND
  5
D2B
  8
RULER
  0
POLYLINE
  5
138
  8
RULER
 66
     1
 10
0.0
 20
0.0
 30
0.0
  0
VERTEX
  5
8C8
  8
RULER
 10
0.0625243522915806
 20
17.49999999999999
 30
0.0
  0
VERTEX
  5
8C9
  8
RULER
 10
0.5625243522915842
 20
17.49999999999999
 30
0.0
  0
SEQEND
  5
D2C
  8
RULER
  0
POLYLINE
  5
139
  8
RULER
 66
     1
 10
0.0
 20
0.0
 30
0.0
  0
VERTEX
  5
8CA
  8
RULER
 10
0.0625243522915806
 20
18.49999999999999
 30
0.0
  0
VERTEX
  5
8CB
  8
RULER
 10
0.5625243522915842
 20
18.49999999999999
 30
0.0
  0
SEQEND
  5
D2D
  8
RULER
  0
POLYLINE
  5
13A
  8
RULER
 66
     1
 10
0.0
 20
0.0
 30
0.0
  0
VERTEX
  5
8CC
  8
RULER
 10
0.0625243522915806
 20
19.49999999999999
 30
0.0
  0
VERTEX
  5
8CD
  8
RULER
 10
0.5625243522915842
 20
19.49999999999999
 30
0.0
  0
SEQEND
  5
D2E
  8
RULER
  0
POLYLINE
  5
13B
  8
RULER
 66
     1
 10
0.0
 20
0.0
 30
0.0
  0
VERTEX
  5
8CE
  8
RULER
 10
0.0625243522915824
 20
20.49999999999999
 30
0.0
  0
VERTEX
  5
8CF
  8
RULER
 10
0.5625243522915842
 20
20.49999999999999
 30
0.0
  0
SEQEND
  5
D2F
  8
RULER
  0
POLYLINE
  5
13C
  8
RULER
 66
     1
 10
0.0
 20
0.0
 30
0.0
  0
VERTEX
  5
8D0
  8
RULER
 10
0.0625243522915842
 20
21.49999999999999
 30
0.0
  0
VERTEX
  5
8D1
  8
RULER
 10
0.5625243522915859
 20
21.49999999999999
 30
0.0
  0
SEQEND
  5
D30
  8
RULER
  0
POLYLINE
  5
13D
  8
RULER
 66
     1
 10
0.0
 20
0.0
 30
0.0
  0
VERTEX
  5
8D2
  8
RULER
 10
0.0625243522915842
 20
22.49999999999999
 30
0.0
  0
VERTEX
  5
8D3
  8
RULER
 10
0.5625243522915859
 20
22.49999999999999
 30
0.0
  0
SEQEND
  5
D31
  8
RULER
  0
POLYLINE
  5
13E
  8
RULER
 66
     1
 10
0.0
 20
0.0
 30
0.0
  0
VERTEX
  5
8D4
  8
RULER
 10
0.0625243522915842
 20
23.49999999999999
 30
0.0
  0
VERTEX
  5
8D5
  8
RULER
 10
0.5625243522915859
 20
23.49999999999999
 30
0.0
  0
SEQEND
  5
D32
  8
RULER
  0
POLYLINE
  5
13F
  8
RULER
 66
     1
 10
0.0
 20
0.0
 30
0.0
  0
VERTEX
  5
8D6
  8
RULER
 10
0.0625243522915842
 20
24.49999999999999
 30
0.0
  0
VERTEX
  5
8D7
  8
RULER
 10
0.5625243522915859
 20
24.49999999999999
 30
0.0
  0
SEQEND
  5
D33
  8
RULER
  0
POLYLINE
  5
140
  8
RULER
 66
     1
 10
0.0
 20
0.0
 30
0.0
  0
VERTEX
  5
8D8
  8
RULER
 10
0.0625243522915842
 20
25.5
 30
0.0
  0
VERTEX
  5
8D9
  8
RULER
 10
0.5625243522915877
 20
25.5
 30
0.0
  0
SEQEND
  5
D34
  8
RULER
  0
POLYLINE
  5
141
  8
RULER
 66
     1
 10
0.0
 20
0.0
 30
0.0
  0
VERTEX
  5
8DA
  8
RULER
 10
0.0625243522915824
 20
26.49999999999999
 30
0.0
  0
VERTEX
  5
8DB
  8
RULER
 10
0.5625243522915859
 20
26.49999999999999
 30
0.0
  0
SEQEND
  5
D35
  8
RULER
  0
POLYLINE
  5
142
  8
RULER
 66
     1
 10
0.0
 20
0.0
 30
0.0
  0
VERTEX
  5
8DC
  8
RULER
 10
0.0625243522915824
 20
27.49999999999999
 30
0.0
  0
VERTEX
  5
8DD
  8
RULER
 10
0.5625243522915859
 20
27.49999999999999
 30
0.0
  0
SEQEND
  5
D36
  8
RULER
  0
POLYLINE
  5
143
  8
RULER
 66
     1
 10
0.0
 20
0.0
 30
0.0
  0
VERTEX
  5
8DE
  8
RULER
 10
0.0625243522915806
 20
28.49999999999999
 30
0.0
  0
VERTEX
  5
8DF
  8
RULER
 10
0.5625243522915842
 20
28.49999999999999
 30
0.0
  0
SEQEND
  5
D37
  8
RULER
  0
POLYLINE
  5
144
  8
RULER
 66
     1
 10
0.0
 20
0.0
 30
0.0
  0
VERTEX
  5
8E0
  8
RULER
 10
0.0625243522915806
 20
29.49999999999999
 30
0.0
  0
VERTEX
  5
8E1
  8
RULER
 10
0.5625243522915842
 20
29.49999999999999
 30
0.0
  0
SEQEND
  5
D38
  8
RULER
  0
POLYLINE
  5
145
  8
RULER
 66
     1
 10
0.0
 20
0.0
 30
0.0
  0
VERTEX
  5
8E2
  8
RULER
 10
0.0625243522915806
 20
30.5
 30
0.0
  0
VERTEX
  5
8E3
  8
RULER
 10
0.5625243522915842
 20
30.5
 30
0.0
  0
SEQEND
  5
D39
  8
RULER
  0
POLYLINE
  5
146
  8
RULER
 66
     1
 10
0.0
 20
0.0
 30
0.0
  0
VERTEX
  5
8E4
  8
RULER
 10
0.0625243522915806
 20
31.49999999999999
 30
0.0
  0
VERTEX
  5
8E5
  8
RULER
 10
0.5625243522915842
 20
31.49999999999999
 30
0.0
  0
SEQEND
  5
D3A
  8
RULER
  0
POLYLINE
  5
147
  8
RULER
 66
     1
 10
0.0
 20
0.0
 30
0.0
  0
VERTEX
  5
8E6
  8
RULER
 10
0.0625243522915788
 20
0.25
 30
0.0
  0
VERTEX
  5
8E7
  8
RULER
 10
0.3125243522915824
 20
0.25
 30
0.0
  0
SEQEND
  5
D3B
  8
RULER
  0
POLYLINE
  5
148
  8
RULER
 66
     1
 10
0.0
 20
0.0
 30
0.0
  0
VERTEX
  5
8E8
  8
RULER
 10
0.0625243522915788
 20
0.75
 30
0.0
  0
VERTEX
  5
8E9
  8
RULER
 10
0.3125243522915824
 20
0.75
 30
0.0
  0
SEQEND
  5
D3C
  8
RULER
  0
POLYLINE
  5
149
  8
RULER
 66
     1
 10
0.0
 20
0.0
 30
0.0
  0
VERTEX
  5
8EA
  8
RULER
 10
0.0625243522915788
 20
1.25
 30
0.0
  0
VERTEX
  5
8EB
  8
RULER
 10
0.3125243522915824
 20
1.25
 30
0.0
  0
SEQEND
  5
D3D
  8
RULER
  0
POLYLINE
  5
14A
  8
RULER
 66
     1
 10
0.0
 20
0.0
 30
0.0
  0
VERTEX
  5
8EC
  8
RULER
 10
0.0625243522915788
 20
1.749999999999993
 30
0.0
  0
VERTEX
  5
8ED
  8
RULER
 10
0.3125243522915824
 20
1.749999999999993
 30
0.0
  0
SEQEND
  5
D3E
  8
RULER
  0
POLYLINE
  5
14B
  8
RULER
 66
     1
 10
0.0
 20
0.0
 30
0.0
  0
VERTEX
  5
8EE
  8
RULER
 10
0.0625243522915788
 20
2.25
 30
0.0
  0
VERTEX
  5
8EF
  8
RULER
 10
0.3125243522915824
 20
2.25
 30
0.0
  0
SEQEND
  5
D3F
  8
RULER
  0
POLYLINE
  5
14C
  8
RULER
 66
     1
 10
0.0
 20
0.0
 30
0.0
  0
VERTEX
  5
8F0
  8
RULER
 10
0.0625243522915806
 20
2.749999999999998
 30
0.0
  0
VERTEX
  5
8F1
  8
RULER
 10
0.3125243522915842
 20
2.749999999999998
 30
0.0
  0
SEQEND
  5
D40
  8
RULER
  0
POLYLINE
  5
14D
  8
RULER
 66
     1
 10
0.0
 20
0.0
 30
0.0
  0
VERTEX
  5
8F2
  8
RULER
 10
0.0625243522915806
 20
3.249999999999998
 30
0.0
  0
VERTEX
  5
8F3
  8
RULER
 10
0.3125243522915842
 20
3.249999999999998
 30
0.0
  0
SEQEND
  5
D41
  8
RULER
  0
POLYLINE
  5
14E
  8
RULER
 66
     1
 10
0.0
 20
0.0
 30
0.0
  0
VERTEX
  5
8F4
  8
RULER
 10
0.0625243522915806
 20
3.749999999999998
 30
0.0
  0
VERTEX
  5
8F5
  8
RULER
 10
0.3125243522915842
 20
3.749999999999998
 30
0.0
  0
SEQEND
  5
D42
  8
RULER
  0
POLYLINE
  5
14F
  8
RULER
 66
     1
 10
0.0
 20
0.0
 30
0.0
  0
VERTEX
  5
8F6
  8
RULER
 10
0.0625243522915806
 20
4.249999999999998
 30
0.0
  0
VERTEX
  5
8F7
  8
RULER
 10
0.3125243522915842
 20
4.249999999999998
 30
0.0
  0
SEQEND
  5
D43
  8
RULER
  0
POLYLINE
  5
150
  8
RULER
 66
     1
 10
0.0
 20
0.0
 30
0.0
  0
VERTEX
  5
8F8
  8
RULER
 10
0.0625243522915806
 20
4.749999999999998
 30
0.0
  0
VERTEX
  5
8F9
  8
RULER
 10
0.3125243522915842
 20
4.749999999999998
 30
0.0
  0
SEQEND
  5
D44
  8
RULER
  0
POLYLINE
  5
151
  8
RULER
 66
     1
 10
0.0
 20
0.0
 30
0.0
  0
VERTEX
  5
8FA
  8
RULER
 10
0.0625243522915806
 20
5.249999999999998
 30
0.0
  0
VERTEX
  5
8FB
  8
RULER
 10
0.3125243522915842
 20
5.249999999999998
 30
0.0
  0
SEQEND
  5
D45
  8
RULER
  0
POLYLINE
  5
152
  8
RULER
 66
     1
 10
0.0
 20
0.0
 30
0.0
  0
VERTEX
  5
8FC
  8
RULER
 10
0.0625243522915806
 20
5.749999999999998
 30
0.0
  0
VERTEX
  5
8FD
  8
RULER
 10
0.3125243522915842
 20
5.749999999999998
 30
0.0
  0
SEQEND
  5
D46
  8
RULER
  0
POLYLINE
  5
153
  8
RULER
 66
     1
 10
0.0
 20
0.0
 30
0.0
  0
VERTEX
  5
8FE
  8
RULER
 10
0.0625243522915824
 20
6.249999999999998
 30
0.0
  0
VERTEX
  5
8FF
  8
RULER
 10
0.3125243522915859
 20
6.249999999999998
 30
0.0
  0
SEQEND
  5
D47
  8
RULER
  0
POLYLINE
  5
154
  8
RULER
 66
     1
 10
0.0
 20
0.0
 30
0.0
  0
VERTEX
  5
900
  8
RULER
 10
0.0625243522915824
 20
6.749999999999995
 30
0.0
  0
VERTEX
  5
901
  8
RULER
 10
0.3125243522915859
 20
6.749999999999995
 30
0.0
  0
SEQEND
  5
D48
  8
RULER
  0
POLYLINE
  5
155
  8
RULER
 66
     1
 10
0.0
 20
0.0
 30
0.0
  0
VERTEX
  5
902
  8
RULER
 10
0.0625243522915824
 20
7.249999999999991
 30
0.0
  0
VERTEX
  5
903
  8
RULER
 10
0.3125243522915859
 20
7.249999999999991
 30
0.0
  0
SEQEND
  5
D49
  8
RULER
  0
POLYLINE
  5
156
  8
RULER
 66
     1
 10
0.0
 20
0.0
 30
0.0
  0
VERTEX
  5
904
  8
RULER
 10
0.0625243522915824
 20
7.749999999999995
 30
0.0
  0
VERTEX
  5
905
  8
RULER
 10
0.3125243522915859
 20
7.749999999999995
 30
0.0
  0
SEQEND
  5
D4A
  8
RULER
  0
POLYLINE
  5
157
  8
RULER
 66
     1
 10
0.0
 20
0.0
 30
0.0
  0
VERTEX
  5
906
  8
RULER
 10
0.0625243522915824
 20
8.249999999999998
 30
0.0
  0
VERTEX
  5
907
  8
RULER
 10
0.3125243522915859
 20
8.249999999999998
 30
0.0
  0
SEQEND
  5
D4B
  8
RULER
  0
POLYLINE
  5
158
  8
RULER
 66
     1
 10
0.0
 20
0.0
 30
0.0
  0
VERTEX
  5
908
  8
RULER
 10
0.0625243522915824
 20
8.749999999999995
 30
0.0
  0
VERTEX
  5
909
  8
RULER
 10
0.3125243522915859
 20
8.749999999999995
 30
0.0
  0
SEQEND
  5
D4C
  8
RULER
  0
POLYLINE
  5
159
  8
RULER
 66
     1
 10
0.0
 20
0.0
 30
0.0
  0
VERTEX
  5
90A
  8
RULER
 10
0.0625243522915824
 20
9.249999999999995
 30
0.0
  0
VERTEX
  5
90B
  8
RULER
 10
0.3125243522915859
 20
9.249999999999995
 30
0.0
  0
SEQEND
  5
D4D
  8
RULER
  0
POLYLINE
  5
15A
  8
RULER
 66
     1
 10
0.0
 20
0.0
 30
0.0
  0
VERTEX
  5
90C
  8
RULER
 10
0.0625243522915824
 20
9.749999999999991
 30
0.0
  0
VERTEX
  5
90D
  8
RULER
 10
0.3125243522915859
 20
9.749999999999991
 30
0.0
  0
SEQEND
  5
D4E
  8
RULER
  0
POLYLINE
  5
15B
  8
RULER
 66
     1
 10
0.0
 20
0.0
 30
0.0
  0
VERTEX
  5
90E
  8
RULER
 10
0.0625243522915824
 20
10.24999999999999
 30
0.0
  0
VERTEX
  5
90F
  8
RULER
 10
0.3125243522915859
 20
10.24999999999999
 30
0.0
  0
SEQEND
  5
D4F
  8
RULER
  0
POLYLINE
  5
15C
  8
RULER
 66
     1
 10
0.0
 20
0.0
 30
0.0
  0
VERTEX
  5
910
  8
RULER
 10
0.0625243522915824
 20
10.75
 30
0.0
  0
VERTEX
  5
911
  8
RULER
 10
0.3125243522915859
 20
10.75
 30
0.0
  0
SEQEND
  5
D50
  8
RULER
  0
POLYLINE
  5
15D
  8
RULER
 66
     1
 10
0.0
 20
0.0
 30
0.0
  0
VERTEX
  5
912
  8
RULER
 10
0.0625243522915824
 20
11.24999999999999
 30
0.0
  0
VERTEX
  5
913
  8
RULER
 10
0.3125243522915859
 20
11.24999999999999
 30
0.0
  0
SEQEND
  5
D51
  8
RULER
  0
POLYLINE
  5
15E
  8
RULER
 66
     1
 10
0.0
 20
0.0
 30
0.0
  0
VERTEX
  5
914
  8
RULER
 10
0.0625243522915788
 20
11.74999999999999
 30
0.0
  0
VERTEX
  5
915
  8
RULER
 10
0.3125243522915824
 20
11.74999999999999
 30
0.0
  0
SEQEND
  5
D52
  8
RULER
  0
POLYLINE
  5
15F
  8
RULER
 66
     1
 10
0.0
 20
0.0
 30
0.0
  0
VERTEX
  5
916
  8
RULER
 10
0.0625243522915788
 20
12.24999999999999
 30
0.0
  0
VERTEX
  5
917
  8
RULER
 10
0.3125243522915824
 20
12.24999999999999
 30
0.0
  0
SEQEND
  5
D53
  8
RULER
  0
POLYLINE
  5
160
  8
RULER
 66
     1
 10
0.0
 20
0.0
 30
0.0
  0
VERTEX
  5
918
  8
RULER
 10
0.0625243522915788
 20
12.74999999999999
 30
0.0
  0
VERTEX
  5
919
  8
RULER
 10
0.3125243522915824
 20
12.74999999999999
 30
0.0
  0
SEQEND
  5
D54
  8
RULER
  0
POLYLINE
  5
161
  8
RULER
 66
     1
 10
0.0
 20
0.0
 30
0.0
  0
VERTEX
  5
91A
  8
RULER
 10
0.0625243522915788
 20
13.24999999999999
 30
0.0
  0
VERTEX
  5
91B
  8
RULER
 10
0.3125243522915824
 20
13.24999999999999
 30
0.0
  0
SEQEND
  5
D55
  8
RULER
  0
POLYLINE
  5
162
  8
RULER
 66
     1
 10
0.0
 20
0.0
 30
0.0
  0
VERTEX
  5
91C
  8
RULER
 10
0.0625243522915788
 20
13.74999999999999
 30
0.0
  0
VERTEX
  5
91D
  8
RULER
 10
0.3125243522915824
 20
13.74999999999999
 30
0.0
  0
SEQEND
  5
D56
  8
RULER
  0
POLYLINE
  5
163
  8
RULER
 66
     1
 10
0.0
 20
0.0
 30
0.0
  0
VERTEX
  5
91E
  8
RULER
 10
0.0625243522915788
 20
14.24999999999999
 30
0.0
  0
VERTEX
  5
91F
  8
RULER
 10
0.3125243522915824
 20
14.24999999999999
 30
0.0
  0
SEQEND
  5
D57
  8
RULER
  0
POLYLINE
  5
164
  8
RULER
 66
     1
 10
0.0
 20
0.0
 30
0.0
  0
VERTEX
  5
920
  8
RULER
 10
0.0625243522915788
 20
14.74999999999999
 30
0.0
  0
VERTEX
  5
921
  8
RULER
 10
0.3125243522915824
 20
14.74999999999999
 30
0.0
  0
SEQEND
  5
D58
  8
RULER
  0
POLYLINE
  5
165
  8
RULER
 66
     1
 10
0.0
 20
0.0
 30
0.0
  0
VERTEX
  5
922
  8
RULER
 10
0.0625243522915788
 20
15.24999999999999
 30
0.0
  0
VERTEX
  5
923
  8
RULER
 10
0.3125243522915824
 20
15.24999999999999
 30
0.0
  0
SEQEND
  5
D59
  8
RULER
  0
POLYLINE
  5
166
  8
RULER
 66
     1
 10
0.0
 20
0.0
 30
0.0
  0
VERTEX
  5
924
  8
RULER
 10
0.0625243522915788
 20
15.74999999999999
 30
0.0
  0
VERTEX
  5
925
  8
RULER
 10
0.3125243522915824
 20
15.74999999999999
 30
0.0
  0
SEQEND
  5
D5A
  8
RULER
  0
POLYLINE
  5
167
  8
RULER
 66
     1
 10
0.0
 20
0.0
 30
0.0
  0
VERTEX
  5
926
  8
RULER
 10
0.0625243522915824
 20
16.24999999999999
 30
0.0
  0
VERTEX
  5
927
  8
RULER
 10
0.3125243522915859
 20
16.24999999999999
 30
0.0
  0
SEQEND
  5
D5B
  8
RULER
  0
POLYLINE
  5
168
  8
RULER
 66
     1
 10
0.0
 20
0.0
 30
0.0
  0
VERTEX
  5
928
  8
RULER
 10
0.0625243522915806
 20
16.74999999999999
 30
0.0
  0
VERTEX
  5
929
  8
RULER
 10
0.3125243522915842
 20
16.74999999999999
 30
0.0
  0
SEQEND
  5
D5C
  8
RULER
  0
POLYLINE
  5
169
  8
RULER
 66
     1
 10
0.0
 20
0.0
 30
0.0
  0
VERTEX
  5
92A
  8
RULER
 10
0.0625243522915806
 20
17.24999999999999
 30
0.0
  0
VERTEX
  5
92B
  8
RULER
 10
0.3125243522915842
 20
17.24999999999999
 30
0.0
  0
SEQEND
  5
D5D
  8
RULER
  0
POLYLINE
  5
16A
  8
RULER
 66
     1
 10
0.0
 20
0.0
 30
0.0
  0
VERTEX
  5
92C
  8
RULER
 10
0.0625243522915806
 20
17.74999999999999
 30
0.0
  0
VERTEX
  5
92D
  8
RULER
 10
0.3125243522915842
 20
17.74999999999999
 30
0.0
  0
SEQEND
  5
D5E
  8
RULER
  0
POLYLINE
  5
16B
  8
RULER
 66
     1
 10
0.0
 20
0.0
 30
0.0
  0
VERTEX
  5
92E
  8
RULER
 10
0.0625243522915806
 20
18.24999999999999
 30
0.0
  0
VERTEX
  5
92F
  8
RULER
 10
0.3125243522915842
 20
18.24999999999999
 30
0.0
  0
SEQEND
  5
D5F
  8
RULER
  0
POLYLINE
  5
16C
  8
RULER
 66
     1
 10
0.0
 20
0.0
 30
0.0
  0
VERTEX
  5
930
  8
RULER
 10
0.0625243522915806
 20
18.74999999999999
 30
0.0
  0
VERTEX
  5
931
  8
RULER
 10
0.3125243522915842
 20
18.74999999999999
 30
0.0
  0
SEQEND
  5
D60
  8
RULER
  0
POLYLINE
  5
16D
  8
RULER
 66
     1
 10
0.0
 20
0.0
 30
0.0
  0
VERTEX
  5
932
  8
RULER
 10
0.0625243522915806
 20
19.24999999999999
 30
0.0
  0
VERTEX
  5
933
  8
RULER
 10
0.3125243522915842
 20
19.24999999999999
 30
0.0
  0
SEQEND
  5
D61
  8
RULER
  0
POLYLINE
  5
16E
  8
RULER
 66
     1
 10
0.0
 20
0.0
 30
0.0
  0
VERTEX
  5
934
  8
RULER
 10
0.0625243522915806
 20
19.74999999999999
 30
0.0
  0
VERTEX
  5
935
  8
RULER
 10
0.3125243522915842
 20
19.74999999999999
 30
0.0
  0
SEQEND
  5
D62
  8
RULER
  0
POLYLINE
  5
16F
  8
RULER
 66
     1
 10
0.0
 20
0.0
 30
0.0
  0
VERTEX
  5
936
  8
RULER
 10
0.0625243522915806
 20
20.24999999999999
 30
0.0
  0
VERTEX
  5
937
  8
RULER
 10
0.3125243522915842
 20
20.24999999999999
 30
0.0
  0
SEQEND
  5
D63
  8
RULER
  0
POLYLINE
  5
170
  8
RULER
 66
     1
 10
0.0
 20
0.0
 30
0.0
  0
VERTEX
  5
938
  8
RULER
 10
0.0625243522915842
 20
20.74999999999999
 30
0.0
  0
VERTEX
  5
939
  8
RULER
 10
0.3125243522915877
 20
20.74999999999999
 30
0.0
  0
SEQEND
  5
D64
  8
RULER
  0
POLYLINE
  5
171
  8
RULER
 66
     1
 10
0.0
 20
0.0
 30
0.0
  0
VERTEX
  5
93A
  8
RULER
 10
0.0625243522915842
 20
21.24999999999999
 30
0.0
  0
VERTEX
  5
93B
  8
RULER
 10
0.3125243522915877
 20
21.24999999999999
 30
0.0
  0
SEQEND
  5
D65
  8
RULER
  0
POLYLINE
  5
172
  8
RULER
 66
     1
 10
0.0
 20
0.0
 30
0.0
  0
VERTEX
  5
93C
  8
RULER
 10
0.0625243522915842
 20
21.74999999999999
 30
0.0
  0
VERTEX
  5
93D
  8
RULER
 10
0.3125243522915877
 20
21.74999999999999
 30
0.0
  0
SEQEND
  5
D66
  8
RULER
  0
POLYLINE
  5
173
  8
RULER
 66
     1
 10
0.0
 20
0.0
 30
0.0
  0
VERTEX
  5
93E
  8
RULER
 10
0.0625243522915842
 20
22.24999999999999
 30
0.0
  0
VERTEX
  5
93F
  8
RULER
 10
0.3125243522915877
 20
22.24999999999999
 30
0.0
  0
SEQEND
  5
D67
  8
RULER
  0
POLYLINE
  5
174
  8
RULER
 66
     1
 10
0.0
 20
0.0
 30
0.0
  0
VERTEX
  5
940
  8
RULER
 10
0.0625243522915842
 20
22.75
 30
0.0
  0
VERTEX
  5
941
  8
RULER
 10
0.3125243522915877
 20
22.75
 30
0.0
  0
SEQEND
  5
D68
  8
RULER
  0
POLYLINE
  5
175
  8
RULER
 66
     1
 10
0.0
 20
0.0
 30
0.0
  0
VERTEX
  5
942
  8
RULER
 10
0.0625243522915842
 20
23.24999999999999
 30
0.0
  0
VERTEX
  5
943
  8
RULER
 10
0.3125243522915877
 20
23.24999999999999
 30
0.0
  0
SEQEND
  5
D69
  8
RULER
  0
POLYLINE
  5
176
  8
RULER
 66
     1
 10
0.0
 20
0.0
 30
0.0
  0
VERTEX
  5
944
  8
RULER
 10
0.0625243522915842
 20
23.74999999999999
 30
0.0
  0
VERTEX
  5
945
  8
RULER
 10
0.3125243522915877
 20
23.74999999999999
 30
0.0
  0
SEQEND
  5
D6A
  8
RULER
  0
POLYLINE
  5
177
  8
RULER
 66
     1
 10
0.0
 20
0.0
 30
0.0
  0
VERTEX
  5
946
  8
RULER
 10
0.0625243522915842
 20
24.24999999999999
 30
0.0
  0
VERTEX
  5
947
  8
RULER
 10
0.3125243522915877
 20
24.24999999999999
 30
0.0
  0
SEQEND
  5
D6B
  8
RULER
  0
POLYLINE
  5
178
  8
RULER
 66
     1
 10
0.0
 20
0.0
 30
0.0
  0
VERTEX
  5
948
  8
RULER
 10
0.0625243522915842
 20
24.74999999999999
 30
0.0
  0
VERTEX
  5
949
  8
RULER
 10
0.3125243522915877
 20
24.74999999999999
 30
0.0
  0
SEQEND
  5
D6C
  8
RULER
  0
POLYLINE
  5
179
  8
RULER
 66
     1
 10
0.0
 20
0.0
 30
0.0
  0
VERTEX
  5
94A
  8
RULER
 10
0.0625243522915842
 20
25.25
 30
0.0
  0
VERTEX
  5
94B
  8
RULER
 10
0.3125243522915877
 20
25.25
 30
0.0
  0
SEQEND
  5
D6D
  8
RULER
  0
POLYLINE
  5
17A
  8
RULER
 66
     1
 10
0.0
 20
0.0
 30
0.0
  0
VERTEX
  5
94C
  8
RULER
 10
0.0625243522915842
 20
25.75
 30
0.0
  0
VERTEX
  5
94D
  8
RULER
 10
0.3125243522915877
 20
25.75
 30
0.0
  0
SEQEND
  5
D6E
  8
RULER
  0
POLYLINE
  5
17B
  8
RULER
 66
     1
 10
0.0
 20
0.0
 30
0.0
  0
VERTEX
  5
94E
  8
RULER
 10
0.0625243522915824
 20
26.24999999999999
 30
0.0
  0
VERTEX
  5
94F
  8
RULER
 10
0.3125243522915859
 20
26.24999999999999
 30
0.0
  0
SEQEND
  5
D6F
  8
RULER
  0
POLYLINE
  5
17C
  8
RULER
 66
     1
 10
0.0
 20
0.0
 30
0.0
  0
VERTEX
  5
950
  8
RULER
 10
0.0625243522915824
 20
26.75
 30
0.0
  0
VERTEX
  5
951
  8
RULER
 10
0.3125243522915859
 20
26.75
 30
0.0
  0
SEQEND
  5
D70
  8
RULER
  0
POLYLINE
  5
17D
  8
RULER
 66
     1
 10
0.0
 20
0.0
 30
0.0
  0
VERTEX
  5
952
  8
RULER
 10
0.0625243522915824
 20
27.24999999999999
 30
0.0
  0
VERTEX
  5
953
  8
RULER
 10
0.3125243522915859
 20
27.24999999999999
 30
0.0
  0
SEQEND
  5
D71
  8
RULER
  0
POLYLINE
  5
17E
  8
RULER
 66
     1
 10
0.0
 20
0.0
 30
0.0
  0
VERTEX
  5
954
  8
RULER
 10
0.0625243522915824
 20
27.74999999999999
 30
0.0
  0
VERTEX
  5
955
  8
RULER
 10
0.3125243522915859
 20
27.74999999999999
 30
0.0
  0
SEQEND
  5
D72
  8
RULER
  0
POLYLINE
  5
17F
  8
RULER
 66
     1
 10
0.0
 20
0.0
 30
0.0
  0
VERTEX
  5
956
  8
RULER
 10
0.0625243522915806
 20
28.24999999999999
 30
0.0
  0
VERTEX
  5
957
  8
RULER
 10
0.3125243522915842
 20
28.24999999999999
 30
0.0
  0
SEQEND
  5
D73
  8
RULER
  0
POLYLINE
  5
180
  8
RULER
 66
     1
 10
0.0
 20
0.0
 30
0.0
  0
VERTEX
  5
958
  8
RULER
 10
0.0625243522915806
 20
28.74999999999999
 30
0.0
  0
VERTEX
  5
959
  8
RULER
 10
0.3125243522915842
 20
28.74999999999999
 30
0.0
  0
SEQEND
  5
D74
  8
RULER
  0
POLYLINE
  5
181
  8
RULER
 66
     1
 10
0.0
 20
0.0
 30
0.0
  0
VERTEX
  5
95A
  8
RULER
 10
0.0625243522915806
 20
29.25
 30
0.0
  0
VERTEX
  5
95B
  8
RULER
 10
0.3125243522915842
 20
29.25
 30
0.0
  0
SEQEND
  5
D75
  8
RULER
  0
POLYLINE
  5
182
  8
RULER
 66
     1
 10
0.0
 20
0.0
 30
0.0
  0
VERTEX
  5
95C
  8
RULER
 10
0.0625243522915806
 20
29.74999999999999
 30
0.0
  0
VERTEX
  5
95D
  8
RULER
 10
0.3125243522915842
 20
29.74999999999999
 30
0.0
  0
SEQEND
  5
D76
  8
RULER
  0
POLYLINE
  5
183
  8
RULER
 66
     1
 10
0.0
 20
0.0
 30
0.0
  0
VERTEX
  5
95E
  8
RULER
 10
0.0625243522915806
 20
30.24999999999999
 30
0.0
  0
VERTEX
  5
95F
  8
RULER
 10
0.3125243522915842
 20
30.24999999999999
 30
0.0
  0
SEQEND
  5
D77
  8
RULER
  0
POLYLINE
  5
184
  8
RULER
 66
     1
 10
0.0
 20
0.0
 30
0.0
  0
VERTEX
  5
960
  8
RULER
 10
0.0625243522915806
 20
30.75
 30
0.0
  0
VERTEX
  5
961
  8
RULER
 10
0.3125243522915842
 20
30.75
 30
0.0
  0
SEQEND
  5
D78
  8
RULER
  0
POLYLINE
  5
185
  8
RULER
 66
     1
 10
0.0
 20
0.0
 30
0.0
  0
VERTEX
  5
962
  8
RULER
 10
0.0625243522915806
 20
31.24999999999999
 30
0.0
  0
VERTEX
  5
963
  8
RULER
 10
0.3125243522915842
 20
31.24999999999999
 30
0.0
  0
SEQEND
  5
D79
  8
RULER
  0
POLYLINE
  5
186
  8
RULER
 66
     1
 10
0.0
 20
0.0
 30
0.0
  0
VERTEX
  5
964
  8
RULER
 10
0.0625243522915806
 20
31.75
 30
0.0
  0
VERTEX
  5
965
  8
RULER
 10
0.3125243522915842
 20
31.75
 30
0.0
  0
SEQEND
  5
D7A
  8
RULER
  0
POLYLINE
  5
187
  8
RULER
 66
     1
 10
0.0
 20
0.0
 30
0.0
  0
VERTEX
  5
966
  8
RULER
 10
0.0625243522915788
 20
0.125
 30
0.0
  0
VERTEX
  5
967
  8
RULER
 10
0.1875243522915806
 20
0.125
 30
0.0
  0
SEQEND
  5
D7B
  8
RULER
  0
POLYLINE
  5
188
  8
RULER
 66
     1
 10
0.0
 20
0.0
 30
0.0
  0
VERTEX
  5
968
  8
RULER
 10
0.0625243522915788
 20
0.375
 30
0.0
  0
VERTEX
  5
969
  8
RULER
 10
0.1875243522915806
 20
0.375
 30
0.0
  0
SEQEND
  5
D7C
  8
RULER
  0
POLYLINE
  5
189
  8
RULER
 66
     1
 10
0.0
 20
0.0
 30
0.0
  0
VERTEX
  5
96A
  8
RULER
 10
0.0625243522915788
 20
0.625
 30
0.0
  0
VERTEX
  5
96B
  8
RULER
 10
0.1875243522915806
 20
0.625
 30
0.0
  0
SEQEND
  5
D7D
  8
RULER
  0
POLYLINE
  5
18A
  8
RULER
 66
     1
 10
0.0
 20
0.0
 30
0.0
  0
VERTEX
  5
96C
  8
RULER
 10
0.0625243522915788
 20
0.875
 30
0.0
  0
VERTEX
  5
96D
  8
RULER
 10
0.1875243522915806
 20
0.875
 30
0.0
  0
SEQEND
  5
D7E
  8
RULER
  0
POLYLINE
  5
18B
  8
RULER
 66
     1
 10
0.0
 20
0.0
 30
0.0
  0
VERTEX
  5
96E
  8
RULER
 10
0.0625243522915788
 20
1.124999999999993
 30
0.0
  0
VERTEX
  5
96F
  8
RULER
 10
0.1875243522915806
 20
1.124999999999993
 30
0.0
  0
SEQEND
  5
D7F
  8
RULER
  0
POLYLINE
  5
18C
  8
RULER
 66
     1
 10
0.0
 20
0.0
 30
0.0
  0
VERTEX
  5
970
  8
RULER
 10
0.0625243522915788
 20
1.375
 30
0.0
  0
VERTEX
  5
971
  8
RULER
 10
0.1875243522915806
 20
1.375
 30
0.0
  0
SEQEND
  5
D80
  8
RULER
  0
POLYLINE
  5
18D
  8
RULER
 66
     1
 10
0.0
 20
0.0
 30
0.0
  0
VERTEX
  5
972
  8
RULER
 10
0.0625243522915788
 20
1.625
 30
0.0
  0
VERTEX
  5
973
  8
RULER
 10
0.1875243522915806
 20
1.625
 30
0.0
  0
SEQEND
  5
D81
  8
RULER
  0
POLYLINE
  5
18E
  8
RULER
 66
     1
 10
0.0
 20
0.0
 30
0.0
  0
VERTEX
  5
974
  8
RULER
 10
0.0625243522915788
 20
1.875
 30
0.0
  0
VERTEX
  5
975
  8
RULER
 10
0.1875243522915806
 20
1.875
 30
0.0
  0
SEQEND
  5
D82
  8
RULER
  0
POLYLINE
  5
18F
  8
RULER
 66
     1
 10
0.0
 20
0.0
 30
0.0
  0
VERTEX
  5
976
  8
RULER
 10
0.0625243522915788
 20
2.125
 30
0.0
  0
VERTEX
  5
977
  8
RULER
 10
0.1875243522915806
 20
2.125
 30
0.0
  0
SEQEND
  5
D83
  8
RULER
  0
POLYLINE
  5
190
  8
RULER
 66
     1
 10
0.0
 20
0.0
 30
0.0
  0
VERTEX
  5
978
  8
RULER
 10
0.0625243522915806
 20
2.375
 30
0.0
  0
VERTEX
  5
979
  8
RULER
 10
0.1875243522915824
 20
2.375
 30
0.0
  0
SEQEND
  5
D84
  8
RULER
  0
POLYLINE
  5
191
  8
RULER
 66
     1
 10
0.0
 20
0.0
 30
0.0
  0
VERTEX
  5
97A
  8
RULER
 10
0.0625243522915806
 20
2.625
 30
0.0
  0
VERTEX
  5
97B
  8
RULER
 10
0.1875243522915824
 20
2.625
 30
0.0
  0
SEQEND
  5
D85
  8
RULER
  0
POLYLINE
  5
192
  8
RULER
 66
     1
 10
0.0
 20
0.0
 30
0.0
  0
VERTEX
  5
97C
  8
RULER
 10
0.0625243522915806
 20
2.874999999999998
 30
0.0
  0
VERTEX
  5
97D
  8
RULER
 10
0.1875243522915824
 20
2.874999999999998
 30
0.0
  0
SEQEND
  5
D86
  8
RULER
  0
POLYLINE
  5
193
  8
RULER
 66
     1
 10
0.0
 20
0.0
 30
0.0
  0
VERTEX
  5
97E
  8
RULER
 10
0.0625243522915806
 20
3.124999999999998
 30
0.0
  0
VERTEX
  5
97F
  8
RULER
 10
0.1875243522915824
 20
3.124999999999998
 30
0.0
  0
SEQEND
  5
D87
  8
RULER
  0
POLYLINE
  5
194
  8
RULER
 66
     1
 10
0.0
 20
0.0
 30
0.0
  0
VERTEX
  5
980
  8
RULER
 10
0.0625243522915806
 20
3.374999999999998
 30
0.0
  0
VERTEX
  5
981
  8
RULER
 10
0.1875243522915824
 20
3.374999999999998
 30
0.0
  0
SEQEND
  5
D88
  8
RULER
  0
POLYLINE
  5
195
  8
RULER
 66
     1
 10
0.0
 20
0.0
 30
0.0
  0
VERTEX
  5
982
  8
RULER
 10
0.0625243522915806
 20
3.624999999999998
 30
0.0
  0
VERTEX
  5
983
  8
RULER
 10
0.1875243522915824
 20
3.624999999999998
 30
0.0
  0
SEQEND
  5
D89
  8
RULER
  0
POLYLINE
  5
196
  8
RULER
 66
     1
 10
0.0
 20
0.0
 30
0.0
  0
VERTEX
  5
984
  8
RULER
 10
0.0625243522915806
 20
3.874999999999998
 30
0.0
  0
VERTEX
  5
985
  8
RULER
 10
0.1875243522915824
 20
3.874999999999998
 30
0.0
  0
SEQEND
  5
D8A
  8
RULER
  0
POLYLINE
  5
197
  8
RULER
 66
     1
 10
0.0
 20
0.0
 30
0.0
  0
VERTEX
  5
986
  8
RULER
 10
0.0625243522915806
 20
4.124999999999998
 30
0.0
  0
VERTEX
  5
987
  8
RULER
 10
0.1875243522915824
 20
4.124999999999998
 30
0.0
  0
SEQEND
  5
D8B
  8
RULER
  0
POLYLINE
  5
198
  8
RULER
 66
     1
 10
0.0
 20
0.0
 30
0.0
  0
VERTEX
  5
988
  8
RULER
 10
0.0625243522915806
 20
4.374999999999998
 30
0.0
  0
VERTEX
  5
989
  8
RULER
 10
0.1875243522915824
 20
4.374999999999998
 30
0.0
  0
SEQEND
  5
D8C
  8
RULER
  0
POLYLINE
  5
199
  8
RULER
 66
     1
 10
0.0
 20
0.0
 30
0.0
  0
VERTEX
  5
98A
  8
RULER
 10
0.0625243522915806
 20
4.624999999999998
 30
0.0
  0
VERTEX
  5
98B
  8
RULER
 10
0.1875243522915824
 20
4.624999999999998
 30
0.0
  0
SEQEND
  5
D8D
  8
RULER
  0
POLYLINE
  5
19A
  8
RULER
 66
     1
 10
0.0
 20
0.0
 30
0.0
  0
VERTEX
  5
98C
  8
RULER
 10
0.0625243522915806
 20
4.874999999999998
 30
0.0
  0
VERTEX
  5
98D
  8
RULER
 10
0.1875243522915824
 20
4.874999999999998
 30
0.0
  0
SEQEND
  5
D8E
  8
RULER
  0
POLYLINE
  5
19B
  8
RULER
 66
     1
 10
0.0
 20
0.0
 30
0.0
  0
VERTEX
  5
98E
  8
RULER
 10
0.0625243522915806
 20
5.124999999999998
 30
0.0
  0
VERTEX
  5
98F
  8
RULER
 10
0.1875243522915824
 20
5.124999999999998
 30
0.0
  0
SEQEND
  5
D8F
  8
RULER
  0
POLYLINE
  5
19C
  8
RULER
 66
     1
 10
0.0
 20
0.0
 30
0.0
  0
VERTEX
  5
990
  8
RULER
 10
0.0625243522915806
 20
5.374999999999998
 30
0.0
  0
VERTEX
  5
991
  8
RULER
 10
0.1875243522915824
 20
5.374999999999998
 30
0.0
  0
SEQEND
  5
D90
  8
RULER
  0
POLYLINE
  5
19D
  8
RULER
 66
     1
 10
0.0
 20
0.0
 30
0.0
  0
VERTEX
  5
992
  8
RULER
 10
0.0625243522915806
 20
5.624999999999998
 30
0.0
  0
VERTEX
  5
993
  8
RULER
 10
0.1875243522915824
 20
5.624999999999998
 30
0.0
  0
SEQEND
  5
D91
  8
RULER
  0
POLYLINE
  5
19E
  8
RULER
 66
     1
 10
0.0
 20
0.0
 30
0.0
  0
VERTEX
  5
994
  8
RULER
 10
0.0625243522915806
 20
5.874999999999998
 30
0.0
  0
VERTEX
  5
995
  8
RULER
 10
0.1875243522915824
 20
5.874999999999998
 30
0.0
  0
SEQEND
  5
D92
  8
RULER
  0
POLYLINE
  5
19F
  8
RULER
 66
     1
 10
0.0
 20
0.0
 30
0.0
  0
VERTEX
  5
996
  8
RULER
 10
0.0625243522915806
 20
6.124999999999998
 30
0.0
  0
VERTEX
  5
997
  8
RULER
 10
0.1875243522915824
 20
6.124999999999998
 30
0.0
  0
SEQEND
  5
D93
  8
RULER
  0
POLYLINE
  5
1A0
  8
RULER
 66
     1
 10
0.0
 20
0.0
 30
0.0
  0
VERTEX
  5
998
  8
RULER
 10
0.0625243522915824
 20
6.374999999999998
 30
0.0
  0
VERTEX
  5
999
  8
RULER
 10
0.1875243522915842
 20
6.374999999999998
 30
0.0
  0
SEQEND
  5
D94
  8
RULER
  0
POLYLINE
  5
1A1
  8
RULER
 66
     1
 10
0.0
 20
0.0
 30
0.0
  0
VERTEX
  5
99A
  8
RULER
 10
0.0625243522915824
 20
6.624999999999991
 30
0.0
  0
VERTEX
  5
99B
  8
RULER
 10
0.1875243522915842
 20
6.624999999999991
 30
0.0
  0
SEQEND
  5
D95
  8
RULER
  0
POLYLINE
  5
1A2
  8
RULER
 66
     1
 10
0.0
 20
0.0
 30
0.0
  0
VERTEX
  5
99C
  8
RULER
 10
0.0625243522915824
 20
6.874999999999995
 30
0.0
  0
VERTEX
  5
99D
  8
RULER
 10
0.1875243522915842
 20
6.874999999999995
 30
0.0
  0
SEQEND
  5
D96
  8
RULER
  0
POLYLINE
  5
1A3
  8
RULER
 66
     1
 10
0.0
 20
0.0
 30
0.0
  0
VERTEX
  5
99E
  8
RULER
 10
0.0625243522915824
 20
7.124999999999995
 30
0.0
  0
VERTEX
  5
99F
  8
RULER
 10
0.1875243522915842
 20
7.124999999999995
 30
0.0
  0
SEQEND
  5
D97
  8
RULER
  0
POLYLINE
  5
1A4
  8
RULER
 66
     1
 10
0.0
 20
0.0
 30
0.0
  0
VERTEX
  5
9A0
  8
RULER
 10
0.0625243522915824
 20
7.374999999999995
 30
0.0
  0
VERTEX
  5
9A1
  8
RULER
 10
0.1875243522915842
 20
7.374999999999995
 30
0.0
  0
SEQEND
  5
D98
  8
RULER
  0
POLYLINE
  5
1A5
  8
RULER
 66
     1
 10
0.0
 20
0.0
 30
0.0
  0
VERTEX
  5
9A2
  8
RULER
 10
0.0625243522915824
 20
7.624999999999998
 30
0.0
  0
VERTEX
  5
9A3
  8
RULER
 10
0.1875243522915842
 20
7.624999999999998
 30
0.0
  0
SEQEND
  5
D99
  8
RULER
  0
POLYLINE
  5
1A6
  8
RULER
 66
     1
 10
0.0
 20
0.0
 30
0.0
  0
VERTEX
  5
9A4
  8
RULER
 10
0.0625243522915824
 20
7.874999999999991
 30
0.0
  0
VERTEX
  5
9A5
  8
RULER
 10
0.1875243522915842
 20
7.874999999999991
 30
0.0
  0
SEQEND
  5
D9A
  8
RULER
  0
POLYLINE
  5
1A7
  8
RULER
 66
     1
 10
0.0
 20
0.0
 30
0.0
  0
VERTEX
  5
9A6
  8
RULER
 10
0.0625243522915824
 20
8.124999999999995
 30
0.0
  0
VERTEX
  5
9A7
  8
RULER
 10
0.1875243522915842
 20
8.124999999999995
 30
0.0
  0
SEQEND
  5
D9B
  8
RULER
  0
POLYLINE
  5
1A8
  8
RULER
 66
     1
 10
0.0
 20
0.0
 30
0.0
  0
VERTEX
  5
9A8
  8
RULER
 10
0.0625243522915824
 20
8.374999999999995
 30
0.0
  0
VERTEX
  5
9A9
  8
RULER
 10
0.1875243522915842
 20
8.374999999999995
 30
0.0
  0
SEQEND
  5
D9C
  8
RULER
  0
POLYLINE
  5
1A9
  8
RULER
 66
     1
 10
0.0
 20
0.0
 30
0.0
  0
VERTEX
  5
9AA
  8
RULER
 10
0.0625243522915824
 20
8.624999999999995
 30
0.0
  0
VERTEX
  5
9AB
  8
RULER
 10
0.1875243522915842
 20
8.624999999999995
 30
0.0
  0
SEQEND
  5
D9D
  8
RULER
  0
POLYLINE
  5
1AA
  8
RULER
 66
     1
 10
0.0
 20
0.0
 30
0.0
  0
VERTEX
  5
9AC
  8
RULER
 10
0.0625243522915824
 20
8.874999999999995
 30
0.0
  0
VERTEX
  5
9AD
  8
RULER
 10
0.1875243522915842
 20
8.874999999999995
 30
0.0
  0
SEQEND
  5
D9E
  8
RULER
  0
POLYLINE
  5
1AB
  8
RULER
 66
     1
 10
0.0
 20
0.0
 30
0.0
  0
VERTEX
  5
9AE
  8
RULER
 10
0.0625243522915824
 20
9.124999999999991
 30
0.0
  0
VERTEX
  5
9AF
  8
RULER
 10
0.1875243522915824
 20
9.124999999999991
 30
0.0
  0
SEQEND
  5
D9F
  8
RULER
  0
POLYLINE
  5
1AC
  8
RULER
 66
     1
 10
0.0
 20
0.0
 30
0.0
  0
VERTEX
  5
9B0
  8
RULER
 10
0.0625243522915824
 20
9.374999999999995
 30
0.0
  0
VERTEX
  5
9B1
  8
RULER
 10
0.1875243522915824
 20
9.374999999999995
 30
0.0
  0
SEQEND
  5
DA0
  8
RULER
  0
POLYLINE
  5
1AD
  8
RULER
 66
     1
 10
0.0
 20
0.0
 30
0.0
  0
VERTEX
  5
9B2
  8
RULER
 10
0.0625243522915824
 20
9.624999999999995
 30
0.0
  0
VERTEX
  5
9B3
  8
RULER
 10
0.1875243522915824
 20
9.624999999999995
 30
0.0
  0
SEQEND
  5
DA1
  8
RULER
  0
POLYLINE
  5
1AE
  8
RULER
 66
     1
 10
0.0
 20
0.0
 30
0.0
  0
VERTEX
  5
9B4
  8
RULER
 10
0.0625243522915824
 20
9.874999999999995
 30
0.0
  0
VERTEX
  5
9B5
  8
RULER
 10
0.1875243522915824
 20
9.874999999999995
 30
0.0
  0
SEQEND
  5
DA2
  8
RULER
  0
POLYLINE
  5
1AF
  8
RULER
 66
     1
 10
0.0
 20
0.0
 30
0.0
  0
VERTEX
  5
9B6
  8
RULER
 10
0.0625243522915824
 20
10.125
 30
0.0
  0
VERTEX
  5
9B7
  8
RULER
 10
0.1875243522915824
 20
10.125
 30
0.0
  0
SEQEND
  5
DA3
  8
RULER
  0
POLYLINE
  5
1B0
  8
RULER
 66
     1
 10
0.0
 20
0.0
 30
0.0
  0
VERTEX
  5
9B8
  8
RULER
 10
0.0625243522915824
 20
10.37499999999999
 30
0.0
  0
VERTEX
  5
9B9
  8
RULER
 10
0.1875243522915824
 20
10.37499999999999
 30
0.0
  0
SEQEND
  5
DA4
  8
RULER
  0
POLYLINE
  5
1B1
  8
RULER
 66
     1
 10
0.0
 20
0.0
 30
0.0
  0
VERTEX
  5
9BA
  8
RULER
 10
0.0625243522915824
 20
10.62499999999999
 30
0.0
  0
VERTEX
  5
9BB
  8
RULER
 10
0.1875243522915824
 20
10.62499999999999
 30
0.0
  0
SEQEND
  5
DA5
  8
RULER
  0
POLYLINE
  5
1B2
  8
RULER
 66
     1
 10
0.0
 20
0.0
 30
0.0
  0
VERTEX
  5
9BC
  8
RULER
 10
0.0625243522915824
 20
10.87499999999999
 30
0.0
  0
VERTEX
  5
9BD
  8
RULER
 10
0.1875243522915824
 20
10.87499999999999
 30
0.0
  0
SEQEND
  5
DA6
  8
RULER
  0
POLYLINE
  5
1B3
  8
RULER
 66
     1
 10
0.0
 20
0.0
 30
0.0
  0
VERTEX
  5
9BE
  8
RULER
 10
0.0625243522915824
 20
11.12499999999999
 30
0.0
  0
VERTEX
  5
9BF
  8
RULER
 10
0.1875243522915824
 20
11.12499999999999
 30
0.0
  0
SEQEND
  5
DA7
  8
RULER
  0
POLYLINE
  5
1B4
  8
RULER
 66
     1
 10
0.0
 20
0.0
 30
0.0
  0
VERTEX
  5
9C0
  8
RULER
 10
0.0625243522915824
 20
11.375
 30
0.0
  0
VERTEX
  5
9C1
  8
RULER
 10
0.1875243522915859
 20
11.375
 30
0.0
  0
SEQEND
  5
DA8
  8
RULER
  0
POLYLINE
  5
1B5
  8
RULER
 66
     1
 10
0.0
 20
0.0
 30
0.0
  0
VERTEX
  5
9C2
  8
RULER
 10
0.0625243522915788
 20
11.62499999999999
 30
0.0
  0
VERTEX
  5
9C3
  8
RULER
 10
0.1875243522915824
 20
11.62499999999999
 30
0.0
  0
SEQEND
  5
DA9
  8
RULER
  0
POLYLINE
  5
1B6
  8
RULER
 66
     1
 10
0.0
 20
0.0
 30
0.0
  0
VERTEX
  5
9C4
  8
RULER
 10
0.0625243522915788
 20
11.87499999999999
 30
0.0
  0
VERTEX
  5
9C5
  8
RULER
 10
0.1875243522915824
 20
11.87499999999999
 30
0.0
  0
SEQEND
  5
DAA
  8
RULER
  0
POLYLINE
  5
1B7
  8
RULER
 66
     1
 10
0.0
 20
0.0
 30
0.0
  0
VERTEX
  5
9C6
  8
RULER
 10
0.0625243522915788
 20
12.12499999999999
 30
0.0
  0
VERTEX
  5
9C7
  8
RULER
 10
0.1875243522915824
 20
12.12499999999999
 30
0.0
  0
SEQEND
  5
DAB
  8
RULER
  0
POLYLINE
  5
1B8
  8
RULER
 66
     1
 10
0.0
 20
0.0
 30
0.0
  0
VERTEX
  5
9C8
  8
RULER
 10
0.0625243522915788
 20
12.37499999999999
 30
0.0
  0
VERTEX
  5
9C9
  8
RULER
 10
0.1875243522915824
 20
12.37499999999999
 30
0.0
  0
SEQEND
  5
DAC
  8
RULER
  0
POLYLINE
  5
1B9
  8
RULER
 66
     1
 10
0.0
 20
0.0
 30
0.0
  0
VERTEX
  5
9CA
  8
RULER
 10
0.0625243522915788
 20
12.62499999999999
 30
0.0
  0
VERTEX
  5
9CB
  8
RULER
 10
0.1875243522915824
 20
12.62499999999999
 30
0.0
  0
SEQEND
  5
DAD
  8
RULER
  0
POLYLINE
  5
1BA
  8
RULER
 66
     1
 10
0.0
 20
0.0
 30
0.0
  0
VERTEX
  5
9CC
  8
RULER
 10
0.0625243522915788
 20
12.87499999999999
 30
0.0
  0
VERTEX
  5
9CD
  8
RULER
 10
0.1875243522915824
 20
12.87499999999999
 30
0.0
  0
SEQEND
  5
DAE
  8
RULER
  0
POLYLINE
  5
1BB
  8
RULER
 66
     1
 10
0.0
 20
0.0
 30
0.0
  0
VERTEX
  5
9CE
  8
RULER
 10
0.0625243522915788
 20
13.12499999999999
 30
0.0
  0
VERTEX
  5
9CF
  8
RULER
 10
0.1875243522915824
 20
13.12499999999999
 30
0.0
  0
SEQEND
  5
DAF
  8
RULER
  0
POLYLINE
  5
1BC
  8
RULER
 66
     1
 10
0.0
 20
0.0
 30
0.0
  0
VERTEX
  5
9D0
  8
RULER
 10
0.0625243522915788
 20
13.37499999999999
 30
0.0
  0
VERTEX
  5
9D1
  8
RULER
 10
0.1875243522915824
 20
13.37499999999999
 30
0.0
  0
SEQEND
  5
DB0
  8
RULER
  0
POLYLINE
  5
1BD
  8
RULER
 66
     1
 10
0.0
 20
0.0
 30
0.0
  0
VERTEX
  5
9D2
  8
RULER
 10
0.0625243522915788
 20
13.62499999999999
 30
0.0
  0
VERTEX
  5
9D3
  8
RULER
 10
0.1875243522915824
 20
13.62499999999999
 30
0.0
  0
SEQEND
  5
DB1
  8
RULER
  0
POLYLINE
  5
1BE
  8
RULER
 66
     1
 10
0.0
 20
0.0
 30
0.0
  0
VERTEX
  5
9D4
  8
RULER
 10
0.0625243522915788
 20
13.87499999999999
 30
0.0
  0
VERTEX
  5
9D5
  8
RULER
 10
0.1875243522915824
 20
13.87499999999999
 30
0.0
  0
SEQEND
  5
DB2
  8
RULER
  0
POLYLINE
  5
1BF
  8
RULER
 66
     1
 10
0.0
 20
0.0
 30
0.0
  0
VERTEX
  5
9D6
  8
RULER
 10
0.0625243522915788
 20
14.12499999999999
 30
0.0
  0
VERTEX
  5
9D7
  8
RULER
 10
0.1875243522915824
 20
14.12499999999999
 30
0.0
  0
SEQEND
  5
DB3
  8
RULER
  0
POLYLINE
  5
1C0
  8
RULER
 66
     1
 10
0.0
 20
0.0
 30
0.0
  0
VERTEX
  5
9D8
  8
RULER
 10
0.0625243522915788
 20
14.37499999999999
 30
0.0
  0
VERTEX
  5
9D9
  8
RULER
 10
0.1875243522915824
 20
14.37499999999999
 30
0.0
  0
SEQEND
  5
DB4
  8
RULER
  0
POLYLINE
  5
1C1
  8
RULER
 66
     1
 10
0.0
 20
0.0
 30
0.0
  0
VERTEX
  5
9DA
  8
RULER
 10
0.0625243522915788
 20
14.62499999999999
 30
0.0
  0
VERTEX
  5
9DB
  8
RULER
 10
0.1875243522915824
 20
14.62499999999999
 30
0.0
  0
SEQEND
  5
DB5
  8
RULER
  0
POLYLINE
  5
1C2
  8
RULER
 66
     1
 10
0.0
 20
0.0
 30
0.0
  0
VERTEX
  5
9DC
  8
RULER
 10
0.0625243522915788
 20
14.87499999999999
 30
0.0
  0
VERTEX
  5
9DD
  8
RULER
 10
0.1875243522915824
 20
14.87499999999999
 30
0.0
  0
SEQEND
  5
DB6
  8
RULER
  0
POLYLINE
  5
1C3
  8
RULER
 66
     1
 10
0.0
 20
0.0
 30
0.0
  0
VERTEX
  5
9DE
  8
RULER
 10
0.0625243522915788
 20
15.12499999999999
 30
0.0
  0
VERTEX
  5
9DF
  8
RULER
 10
0.1875243522915824
 20
15.12499999999999
 30
0.0
  0
SEQEND
  5
DB7
  8
RULER
  0
POLYLINE
  5
1C4
  8
RULER
 66
     1
 10
0.0
 20
0.0
 30
0.0
  0
VERTEX
  5
9E0
  8
RULER
 10
0.0625243522915788
 20
15.37499999999999
 30
0.0
  0
VERTEX
  5
9E1
  8
RULER
 10
0.1875243522915824
 20
15.37499999999999
 30
0.0
  0
SEQEND
  5
DB8
  8
RULER
  0
POLYLINE
  5
1C5
  8
RULER
 66
     1
 10
0.0
 20
0.0
 30
0.0
  0
VERTEX
  5
9E2
  8
RULER
 10
0.0625243522915788
 20
15.62499999999999
 30
0.0
  0
VERTEX
  5
9E3
  8
RULER
 10
0.1875243522915824
 20
15.62499999999999
 30
0.0
  0
SEQEND
  5
DB9
  8
RULER
  0
POLYLINE
  5
1C6
  8
RULER
 66
     1
 10
0.0
 20
0.0
 30
0.0
  0
VERTEX
  5
9E4
  8
RULER
 10
0.0625243522915824
 20
15.87499999999999
 30
0.0
  0
VERTEX
  5
9E5
  8
RULER
 10
0.1875243522915824
 20
15.87499999999999
 30
0.0
  0
SEQEND
  5
DBA
  8
RULER
  0
POLYLINE
  5
1C7
  8
RULER
 66
     1
 10
0.0
 20
0.0
 30
0.0
  0
VERTEX
  5
9E6
  8
RULER
 10
0.0625243522915824
 20
16.12499999999999
 30
0.0
  0
VERTEX
  5
9E7
  8
RULER
 10
0.1875243522915824
 20
16.12499999999999
 30
0.0
  0
SEQEND
  5
DBB
  8
RULER
  0
POLYLINE
  5
1C8
  8
RULER
 66
     1
 10
0.0
 20
0.0
 30
0.0
  0
VERTEX
  5
9E8
  8
RULER
 10
0.0625243522915806
 20
16.37499999999999
 30
0.0
  0
VERTEX
  5
9E9
  8
RULER
 10
0.1875243522915824
 20
16.37499999999999
 30
0.0
  0
SEQEND
  5
DBC
  8
RULER
  0
POLYLINE
  5
1C9
  8
RULER
 66
     1
 10
0.0
 20
0.0
 30
0.0
  0
VERTEX
  5
9EA
  8
RULER
 10
0.0625243522915806
 20
16.62499999999999
 30
0.0
  0
VERTEX
  5
9EB
  8
RULER
 10
0.1875243522915824
 20
16.62499999999999
 30
0.0
  0
SEQEND
  5
DBD
  8
RULER
  0
POLYLINE
  5
1CA
  8
RULER
 66
     1
 10
0.0
 20
0.0
 30
0.0
  0
VERTEX
  5
9EC
  8
RULER
 10
0.0625243522915806
 20
16.87499999999999
 30
0.0
  0
VERTEX
  5
9ED
  8
RULER
 10
0.1875243522915824
 20
16.87499999999999
 30
0.0
  0
SEQEND
  5
DBE
  8
RULER
  0
POLYLINE
  5
1CB
  8
RULER
 66
     1
 10
0.0
 20
0.0
 30
0.0
  0
VERTEX
  5
9EE
  8
RULER
 10
0.0625243522915806
 20
17.12499999999999
 30
0.0
  0
VERTEX
  5
9EF
  8
RULER
 10
0.1875243522915824
 20
17.12499999999999
 30
0.0
  0
SEQEND
  5
DBF
  8
RULER
  0
POLYLINE
  5
1CC
  8
RULER
 66
     1
 10
0.0
 20
0.0
 30
0.0
  0
VERTEX
  5
9F0
  8
RULER
 10
0.0625243522915806
 20
17.37499999999999
 30
0.0
  0
VERTEX
  5
9F1
  8
RULER
 10
0.1875243522915824
 20
17.37499999999999
 30
0.0
  0
SEQEND
  5
DC0
  8
RULER
  0
POLYLINE
  5
1CD
  8
RULER
 66
     1
 10
0.0
 20
0.0
 30
0.0
  0
VERTEX
  5
9F2
  8
RULER
 10
0.0625243522915806
 20
17.62499999999999
 30
0.0
  0
VERTEX
  5
9F3
  8
RULER
 10
0.1875243522915824
 20
17.62499999999999
 30
0.0
  0
SEQEND
  5
DC1
  8
RULER
  0
POLYLINE
  5
1CE
  8
RULER
 66
     1
 10
0.0
 20
0.0
 30
0.0
  0
VERTEX
  5
9F4
  8
RULER
 10
0.0625243522915806
 20
17.87499999999999
 30
0.0
  0
VERTEX
  5
9F5
  8
RULER
 10
0.1875243522915824
 20
17.87499999999999
 30
0.0
  0
SEQEND
  5
DC2
  8
RULER
  0
POLYLINE
  5
1CF
  8
RULER
 66
     1
 10
0.0
 20
0.0
 30
0.0
  0
VERTEX
  5
9F6
  8
RULER
 10
0.0625243522915806
 20
18.12499999999999
 30
0.0
  0
VERTEX
  5
9F7
  8
RULER
 10
0.1875243522915824
 20
18.12499999999999
 30
0.0
  0
SEQEND
  5
DC3
  8
RULER
  0
POLYLINE
  5
1D0
  8
RULER
 66
     1
 10
0.0
 20
0.0
 30
0.0
  0
VERTEX
  5
9F8
  8
RULER
 10
0.0625243522915806
 20
18.37499999999999
 30
0.0
  0
VERTEX
  5
9F9
  8
RULER
 10
0.1875243522915824
 20
18.37499999999999
 30
0.0
  0
SEQEND
  5
DC4
  8
RULER
  0
POLYLINE
  5
1D1
  8
RULER
 66
     1
 10
0.0
 20
0.0
 30
0.0
  0
VERTEX
  5
9FA
  8
RULER
 10
0.0625243522915806
 20
18.62499999999999
 30
0.0
  0
VERTEX
  5
9FB
  8
RULER
 10
0.1875243522915824
 20
18.62499999999999
 30
0.0
  0
SEQEND
  5
DC5
  8
RULER
  0
POLYLINE
  5
1D2
  8
RULER
 66
     1
 10
0.0
 20
0.0
 30
0.0
  0
VERTEX
  5
9FC
  8
RULER
 10
0.0625243522915806
 20
18.87499999999999
 30
0.0
  0
VERTEX
  5
9FD
  8
RULER
 10
0.1875243522915824
 20
18.87499999999999
 30
0.0
  0
SEQEND
  5
DC6
  8
RULER
  0
POLYLINE
  5
1D3
  8
RULER
 66
     1
 10
0.0
 20
0.0
 30
0.0
  0
VERTEX
  5
9FE
  8
RULER
 10
0.0625243522915806
 20
19.12499999999999
 30
0.0
  0
VERTEX
  5
9FF
  8
RULER
 10
0.1875243522915824
 20
19.12499999999999
 30
0.0
  0
SEQEND
  5
DC7
  8
RULER
  0
POLYLINE
  5
1D4
  8
RULER
 66
     1
 10
0.0
 20
0.0
 30
0.0
  0
VERTEX
  5
A00
  8
RULER
 10
0.0625243522915806
 20
19.37499999999999
 30
0.0
  0
VERTEX
  5
A01
  8
RULER
 10
0.1875243522915824
 20
19.37499999999999
 30
0.0
  0
SEQEND
  5
DC8
  8
RULER
  0
POLYLINE
  5
1D5
  8
RULER
 66
     1
 10
0.0
 20
0.0
 30
0.0
  0
VERTEX
  5
A02
  8
RULER
 10
0.0625243522915806
 20
19.62499999999999
 30
0.0
  0
VERTEX
  5
A03
  8
RULER
 10
0.1875243522915824
 20
19.62499999999999
 30
0.0
  0
SEQEND
  5
DC9
  8
RULER
  0
POLYLINE
  5
1D6
  8
RULER
 66
     1
 10
0.0
 20
0.0
 30
0.0
  0
VERTEX
  5
A04
  8
RULER
 10
0.0625243522915806
 20
19.87499999999999
 30
0.0
  0
VERTEX
  5
A05
  8
RULER
 10
0.1875243522915824
 20
19.87499999999999
 30
0.0
  0
SEQEND
  5
DCA
  8
RULER
  0
POLYLINE
  5
1D7
  8
RULER
 66
     1
 10
0.0
 20
0.0
 30
0.0
  0
VERTEX
  5
A06
  8
RULER
 10
0.0625243522915806
 20
20.12499999999999
 30
0.0
  0
VERTEX
  5
A07
  8
RULER
 10
0.1875243522915824
 20
20.12499999999999
 30
0.0
  0
SEQEND
  5
DCB
  8
RULER
  0
POLYLINE
  5
1D8
  8
RULER
 66
     1
 10
0.0
 20
0.0
 30
0.0
  0
VERTEX
  5
A08
  8
RULER
 10
0.0625243522915806
 20
20.37499999999999
 30
0.0
  0
VERTEX
  5
A09
  8
RULER
 10
0.1875243522915824
 20
20.37499999999999
 30
0.0
  0
SEQEND
  5
DCC
  8
RULER
  0
POLYLINE
  5
1D9
  8
RULER
 66
     1
 10
0.0
 20
0.0
 30
0.0
  0
VERTEX
  5
A0A
  8
RULER
 10
0.0625243522915824
 20
20.62499999999999
 30
0.0
  0
VERTEX
  5
A0B
  8
RULER
 10
0.1875243522915824
 20
20.62499999999999
 30
0.0
  0
SEQEND
  5
DCD
  8
RULER
  0
POLYLINE
  5
1DA
  8
RULER
 66
     1
 10
0.0
 20
0.0
 30
0.0
  0
VERTEX
  5
A0C
  8
RULER
 10
0.0625243522915842
 20
20.87499999999999
 30
0.0
  0
VERTEX
  5
A0D
  8
RULER
 10
0.1875243522915842
 20
20.87499999999999
 30
0.0
  0
SEQEND
  5
DCE
  8
RULER
  0
POLYLINE
  5
1DB
  8
RULER
 66
     1
 10
0.0
 20
0.0
 30
0.0
  0
VERTEX
  5
A0E
  8
RULER
 10
0.0625243522915842
 20
21.12499999999999
 30
0.0
  0
VERTEX
  5
A0F
  8
RULER
 10
0.1875243522915842
 20
21.12499999999999
 30
0.0
  0
SEQEND
  5
DCF
  8
RULER
  0
POLYLINE
  5
1DC
  8
RULER
 66
     1
 10
0.0
 20
0.0
 30
0.0
  0
VERTEX
  5
A10
  8
RULER
 10
0.0625243522915842
 20
21.37499999999999
 30
0.0
  0
VERTEX
  5
A11
  8
RULER
 10
0.1875243522915842
 20
21.37499999999999
 30
0.0
  0
SEQEND
  5
DD0
  8
RULER
  0
POLYLINE
  5
1DD
  8
RULER
 66
     1
 10
0.0
 20
0.0
 30
0.0
  0
VERTEX
  5
A12
  8
RULER
 10
0.0625243522915842
 20
21.62499999999999
 30
0.0
  0
VERTEX
  5
A13
  8
RULER
 10
0.1875243522915842
 20
21.62499999999999
 30
0.0
  0
SEQEND
  5
DD1
  8
RULER
  0
POLYLINE
  5
1DE
  8
RULER
 66
     1
 10
0.0
 20
0.0
 30
0.0
  0
VERTEX
  5
A14
  8
RULER
 10
0.0625243522915842
 20
21.87499999999999
 30
0.0
  0
VERTEX
  5
A15
  8
RULER
 10
0.1875243522915842
 20
21.87499999999999
 30
0.0
  0
SEQEND
  5
DD2
  8
RULER
  0
POLYLINE
  5
1DF
  8
RULER
 66
     1
 10
0.0
 20
0.0
 30
0.0
  0
VERTEX
  5
A16
  8
RULER
 10
0.0625243522915842
 20
22.125
 30
0.0
  0
VERTEX
  5
A17
  8
RULER
 10
0.1875243522915842
 20
22.125
 30
0.0
  0
SEQEND
  5
DD3
  8
RULER
  0
POLYLINE
  5
1E0
  8
RULER
 66
     1
 10
0.0
 20
0.0
 30
0.0
  0
VERTEX
  5
A18
  8
RULER
 10
0.0625243522915842
 20
22.37499999999999
 30
0.0
  0
VERTEX
  5
A19
  8
RULER
 10
0.1875243522915842
 20
22.37499999999999
 30
0.0
  0
SEQEND
  5
DD4
  8
RULER
  0
POLYLINE
  5
1E1
  8
RULER
 66
     1
 10
0.0
 20
0.0
 30
0.0
  0
VERTEX
  5
A1A
  8
RULER
 10
0.0625243522915842
 20
22.62499999999999
 30
0.0
  0
VERTEX
  5
A1B
  8
RULER
 10
0.1875243522915842
 20
22.62499999999999
 30
0.0
  0
SEQEND
  5
DD5
  8
RULER
  0
POLYLINE
  5
1E2
  8
RULER
 66
     1
 10
0.0
 20
0.0
 30
0.0
  0
VERTEX
  5
A1C
  8
RULER
 10
0.0625243522915842
 20
22.87499999999999
 30
0.0
  0
VERTEX
  5
A1D
  8
RULER
 10
0.1875243522915842
 20
22.87499999999999
 30
0.0
  0
SEQEND
  5
DD6
  8
RULER
  0
POLYLINE
  5
1E3
  8
RULER
 66
     1
 10
0.0
 20
0.0
 30
0.0
  0
VERTEX
  5
A1E
  8
RULER
 10
0.0625243522915842
 20
23.12499999999999
 30
0.0
  0
VERTEX
  5
A1F
  8
RULER
 10
0.1875243522915842
 20
23.12499999999999
 30
0.0
  0
SEQEND
  5
DD7
  8
RULER
  0
POLYLINE
  5
1E4
  8
RULER
 66
     1
 10
0.0
 20
0.0
 30
0.0
  0
VERTEX
  5
A20
  8
RULER
 10
0.0625243522915842
 20
23.375
 30
0.0
  0
VERTEX
  5
A21
  8
RULER
 10
0.1875243522915842
 20
23.375
 30
0.0
  0
SEQEND
  5
DD8
  8
RULER
  0
POLYLINE
  5
1E5
  8
RULER
 66
     1
 10
0.0
 20
0.0
 30
0.0
  0
VERTEX
  5
A22
  8
RULER
 10
0.0625243522915842
 20
23.62499999999999
 30
0.0
  0
VERTEX
  5
A23
  8
RULER
 10
0.1875243522915859
 20
23.62499999999999
 30
0.0
  0
SEQEND
  5
DD9
  8
RULER
  0
POLYLINE
  5
1E6
  8
RULER
 66
     1
 10
0.0
 20
0.0
 30
0.0
  0
VERTEX
  5
A24
  8
RULER
 10
0.0625243522915842
 20
23.87499999999999
 30
0.0
  0
VERTEX
  5
A25
  8
RULER
 10
0.1875243522915859
 20
23.87499999999999
 30
0.0
  0
SEQEND
  5
DDA
  8
RULER
  0
POLYLINE
  5
1E7
  8
RULER
 66
     1
 10
0.0
 20
0.0
 30
0.0
  0
VERTEX
  5
A26
  8
RULER
 10
0.0625243522915842
 20
24.12499999999999
 30
0.0
  0
VERTEX
  5
A27
  8
RULER
 10
0.1875243522915859
 20
24.12499999999999
 30
0.0
  0
SEQEND
  5
DDB
  8
RULER
  0
POLYLINE
  5
1E8
  8
RULER
 66
     1
 10
0.0
 20
0.0
 30
0.0
  0
VERTEX
  5
A28
  8
RULER
 10
0.0625243522915842
 20
24.37499999999999
 30
0.0
  0
VERTEX
  5
A29
  8
RULER
 10
0.1875243522915859
 20
24.37499999999999
 30
0.0
  0
SEQEND
  5
DDC
  8
RULER
  0
POLYLINE
  5
1E9
  8
RULER
 66
     1
 10
0.0
 20
0.0
 30
0.0
  0
VERTEX
  5
A2A
  8
RULER
 10
0.0625243522915842
 20
24.625
 30
0.0
  0
VERTEX
  5
A2B
  8
RULER
 10
0.1875243522915859
 20
24.625
 30
0.0
  0
SEQEND
  5
DDD
  8
RULER
  0
POLYLINE
  5
1EA
  8
RULER
 66
     1
 10
0.0
 20
0.0
 30
0.0
  0
VERTEX
  5
A2C
  8
RULER
 10
0.0625243522915842
 20
24.875
 30
0.0
  0
VERTEX
  5
A2D
  8
RULER
 10
0.1875243522915859
 20
24.875
 30
0.0
  0
SEQEND
  5
DDE
  8
RULER
  0
POLYLINE
  5
1EB
  8
RULER
 66
     1
 10
0.0
 20
0.0
 30
0.0
  0
VERTEX
  5
A2E
  8
RULER
 10
0.0625243522915842
 20
25.12499999999999
 30
0.0
  0
VERTEX
  5
A2F
  8
RULER
 10
0.1875243522915859
 20
25.12499999999999
 30
0.0
  0
SEQEND
  5
DDF
  8
RULER
  0
POLYLINE
  5
1EC
  8
RULER
 66
     1
 10
0.0
 20
0.0
 30
0.0
  0
VERTEX
  5
A30
  8
RULER
 10
0.0625243522915842
 20
25.37499999999999
 30
0.0
  0
VERTEX
  5
A31
  8
RULER
 10
0.1875243522915859
 20
25.37499999999999
 30
0.0
  0
SEQEND
  5
DE0
  8
RULER
  0
POLYLINE
  5
1ED
  8
RULER
 66
     1
 10
0.0
 20
0.0
 30
0.0
  0
VERTEX
  5
A32
  8
RULER
 10
0.0625243522915842
 20
25.62499999999999
 30
0.0
  0
VERTEX
  5
A33
  8
RULER
 10
0.1875243522915859
 20
25.62499999999999
 30
0.0
  0
SEQEND
  5
DE1
  8
RULER
  0
POLYLINE
  5
1EE
  8
RULER
 66
     1
 10
0.0
 20
0.0
 30
0.0
  0
VERTEX
  5
A34
  8
RULER
 10
0.0625243522915842
 20
25.875
 30
0.0
  0
VERTEX
  5
A35
  8
RULER
 10
0.1875243522915859
 20
25.875
 30
0.0
  0
SEQEND
  5
DE2
  8
RULER
  0
POLYLINE
  5
1EF
  8
RULER
 66
     1
 10
0.0
 20
0.0
 30
0.0
  0
VERTEX
  5
A36
  8
RULER
 10
0.0625243522915824
 20
26.125
 30
0.0
  0
VERTEX
  5
A37
  8
RULER
 10
0.1875243522915842
 20
26.125
 30
0.0
  0
SEQEND
  5
DE3
  8
RULER
  0
POLYLINE
  5
1F0
  8
RULER
 66
     1
 10
0.0
 20
0.0
 30
0.0
  0
VERTEX
  5
A38
  8
RULER
 10
0.0625243522915824
 20
26.375
 30
0.0
  0
VERTEX
  5
A39
  8
RULER
 10
0.1875243522915842
 20
26.375
 30
0.0
  0
SEQEND
  5
DE4
  8
RULER
  0
POLYLINE
  5
1F1
  8
RULER
 66
     1
 10
0.0
 20
0.0
 30
0.0
  0
VERTEX
  5
A3A
  8
RULER
 10
0.0625243522915824
 20
26.62499999999999
 30
0.0
  0
VERTEX
  5
A3B
  8
RULER
 10
0.1875243522915842
 20
26.62499999999999
 30
0.0
  0
SEQEND
  5
DE5
  8
RULER
  0
POLYLINE
  5
1F2
  8
RULER
 66
     1
 10
0.0
 20
0.0
 30
0.0
  0
VERTEX
  5
A3C
  8
RULER
 10
0.0625243522915824
 20
26.87499999999999
 30
0.0
  0
VERTEX
  5
A3D
  8
RULER
 10
0.1875243522915842
 20
26.87499999999999
 30
0.0
  0
SEQEND
  5
DE6
  8
RULER
  0
POLYLINE
  5
1F3
  8
RULER
 66
     1
 10
0.0
 20
0.0
 30
0.0
  0
VERTEX
  5
A3E
  8
RULER
 10
0.0625243522915824
 20
27.12499999999999
 30
0.0
  0
VERTEX
  5
A3F
  8
RULER
 10
0.1875243522915842
 20
27.12499999999999
 30
0.0
  0
SEQEND
  5
DE7
  8
RULER
  0
POLYLINE
  5
1F4
  8
RULER
 66
     1
 10
0.0
 20
0.0
 30
0.0
  0
VERTEX
  5
A40
  8
RULER
 10
0.0625243522915824
 20
27.375
 30
0.0
  0
VERTEX
  5
A41
  8
RULER
 10
0.1875243522915842
 20
27.375
 30
0.0
  0
SEQEND
  5
DE8
  8
RULER
  0
POLYLINE
  5
1F5
  8
RULER
 66
     1
 10
0.0
 20
0.0
 30
0.0
  0
VERTEX
  5
A42
  8
RULER
 10
0.0625243522915824
 20
27.625
 30
0.0
  0
VERTEX
  5
A43
  8
RULER
 10
0.1875243522915842
 20
27.625
 30
0.0
  0
SEQEND
  5
DE9
  8
RULER
  0
POLYLINE
  5
1F6
  8
RULER
 66
     1
 10
0.0
 20
0.0
 30
0.0
  0
VERTEX
  5
A44
  8
RULER
 10
0.0625243522915824
 20
27.87499999999999
 30
0.0
  0
VERTEX
  5
A45
  8
RULER
 10
0.1875243522915842
 20
27.87499999999999
 30
0.0
  0
SEQEND
  5
DEA
  8
RULER
  0
POLYLINE
  5
1F7
  8
RULER
 66
     1
 10
0.0
 20
0.0
 30
0.0
  0
VERTEX
  5
A46
  8
RULER
 10
0.0625243522915806
 20
28.12499999999999
 30
0.0
  0
VERTEX
  5
A47
  8
RULER
 10
0.1875243522915824
 20
28.12499999999999
 30
0.0
  0
SEQEND
  5
DEB
  8
RULER
  0
POLYLINE
  5
1F8
  8
RULER
 66
     1
 10
0.0
 20
0.0
 30
0.0
  0
VERTEX
  5
A48
  8
RULER
 10
0.0625243522915806
 20
28.37499999999999
 30
0.0
  0
VERTEX
  5
A49
  8
RULER
 10
0.1875243522915824
 20
28.37499999999999
 30
0.0
  0
SEQEND
  5
DEC
  8
RULER
  0
POLYLINE
  5
1F9
  8
RULER
 66
     1
 10
0.0
 20
0.0
 30
0.0
  0
VERTEX
  5
A4A
  8
RULER
 10
0.0625243522915806
 20
28.625
 30
0.0
  0
VERTEX
  5
A4B
  8
RULER
 10
0.1875243522915824
 20
28.625
 30
0.0
  0
SEQEND
  5
DED
  8
RULER
  0
POLYLINE
  5
1FA
  8
RULER
 66
     1
 10
0.0
 20
0.0
 30
0.0
  0
VERTEX
  5
A4C
  8
RULER
 10
0.0625243522915806
 20
28.875
 30
0.0
  0
VERTEX
  5
A4D
  8
RULER
 10
0.1875243522915824
 20
28.875
 30
0.0
  0
SEQEND
  5
DEE
  8
RULER
  0
POLYLINE
  5
1FB
  8
RULER
 66
     1
 10
0.0
 20
0.0
 30
0.0
  0
VERTEX
  5
A4E
  8
RULER
 10
0.0625243522915806
 20
29.12499999999999
 30
0.0
  0
VERTEX
  5
A4F
  8
RULER
 10
0.1875243522915824
 20
29.12499999999999
 30
0.0
  0
SEQEND
  5
DEF
  8
RULER
  0
POLYLINE
  5
1FC
  8
RULER
 66
     1
 10
0.0
 20
0.0
 30
0.0
  0
VERTEX
  5
A50
  8
RULER
 10
0.0625243522915806
 20
29.37499999999999
 30
0.0
  0
VERTEX
  5
A51
  8
RULER
 10
0.1875243522915824
 20
29.37499999999999
 30
0.0
  0
SEQEND
  5
DF0
  8
RULER
  0
POLYLINE
  5
1FD
  8
RULER
 66
     1
 10
0.0
 20
0.0
 30
0.0
  0
VERTEX
  5
A52
  8
RULER
 10
0.0625243522915806
 20
29.62499999999999
 30
0.0
  0
VERTEX
  5
A53
  8
RULER
 10
0.1875243522915824
 20
29.62499999999999
 30
0.0
  0
SEQEND
  5
DF1
  8
RULER
  0
POLYLINE
  5
1FE
  8
RULER
 66
     1
 10
0.0
 20
0.0
 30
0.0
  0
VERTEX
  5
A54
  8
RULER
 10
0.0625243522915806
 20
29.875
 30
0.0
  0
VERTEX
  5
A55
  8
RULER
 10
0.1875243522915824
 20
29.875
 30
0.0
  0
SEQEND
  5
DF2
  8
RULER
  0
POLYLINE
  5
1FF
  8
RULER
 66
     1
 10
0.0
 20
0.0
 30
0.0
  0
VERTEX
  5
A56
  8
RULER
 10
0.0625243522915806
 20
30.12499999999999
 30
0.0
  0
VERTEX
  5
A57
  8
RULER
 10
0.1875243522915824
 20
30.12499999999999
 30
0.0
  0
SEQEND
  5
DF3
  8
RULER
  0
POLYLINE
  5
200
  8
RULER
 66
     1
 10
0.0
 20
0.0
 30
0.0
  0
VERTEX
  5
A58
  8
RULER
 10
0.0625243522915806
 20
30.37499999999999
 30
0.0
  0
VERTEX
  5
A59
  8
RULER
 10
0.1875243522915824
 20
30.37499999999999
 30
0.0
  0
SEQEND
  5
DF4
  8
RULER
  0
POLYLINE
  5
201
  8
RULER
 66
     1
 10
0.0
 20
0.0
 30
0.0
  0
VERTEX
  5
A5A
  8
RULER
 10
0.0625243522915806
 20
30.62499999999999
 30
0.0
  0
VERTEX
  5
A5B
  8
RULER
 10
0.1875243522915824
 20
30.62499999999999
 30
0.0
  0
SEQEND
  5
DF5
  8
RULER
  0
POLYLINE
  5
202
  8
RULER
 66
     1
 10
0.0
 20
0.0
 30
0.0
  0
VERTEX
  5
A5C
  8
RULER
 10
0.0625243522915806
 20
30.87499999999999
 30
0.0
  0
VERTEX
  5
A5D
  8
RULER
 10
0.1875243522915842
 20
30.87499999999999
 30
0.0
  0
SEQEND
  5
DF6
  8
RULER
  0
POLYLINE
  5
203
  8
RULER
 66
     1
 10
0.0
 20
0.0
 30
0.0
  0
VERTEX
  5
A5E
  8
RULER
 10
0.0625243522915806
 20
31.125
 30
0.0
  0
VERTEX
  5
A5F
  8
RULER
 10
0.1875243522915842
 20
31.125
 30
0.0
  0
SEQEND
  5
DF7
  8
RULER
  0
POLYLINE
  5
204
  8
RULER
 66
     1
 10
0.0
 20
0.0
 30
0.0
  0
VERTEX
  5
A60
  8
RULER
 10
0.0625243522915806
 20
31.375
 30
0.0
  0
VERTEX
  5
A61
  8
RULER
 10
0.1875243522915842
 20
31.375
 30
0.0
  0
SEQEND
  5
DF8
  8
RULER
  0
POLYLINE
  5
205
  8
RULER
 66
     1
 10
0.0
 20
0.0
 30
0.0
  0
VERTEX
  5
A62
  8
RULER
 10
0.0625243522915806
 20
31.62499999999999
 30
0.0
  0
VERTEX
  5
A63
  8
RULER
 10
0.1875243522915842
 20
31.62499999999999
 30
0.0
  0
SEQEND
  5
DF9
  8
RULER
  0
POLYLINE
  5
206
  8
RULER
 66
     1
 10
0.0
 20
0.0
 30
0.0
  0
VERTEX
  5
A64
  8
RULER
 10
0.0625243522915806
 20
31.87499999999999
 30
0.0
  0
VERTEX
  5
A65
  8
RULER
 10
0.1875243522915842
 20
31.87499999999999
 30
0.0
  0
SEQEND
  5
DFA
  8
RULER
  0
POLYLINE
  5
207
  8
RULER
 66
     1
 10
0.0
 20
0.0
 30
0.0
  0
VERTEX
  5
A66
  8
RULER
 10
31.06247564770841
 20
0.0
 30
0.0
  0
VERTEX
  5
A67
  8
RULER
 10
31.06247564770841
 20
1.000000000000001
 30
0.0
  0
SEQEND
  5
DFB
  8
RULER
  0
POLYLINE
  5
208
  8
RULER
 66
     1
 10
0.0
 20
0.0
 30
0.0
  0
VERTEX
  5
A68
  8
RULER
 10
30.06247564770841
 20
0.0
 30
0.0
  0
VERTEX
  5
A69
  8
RULER
 10
30.06247564770841
 20
1.000000000000001
 30
0.0
  0
SEQEND
  5
DFC
  8
RULER
  0
POLYLINE
  5
209
  8
RULER
 66
     1
 10
0.0
 20
0.0
 30
0.0
  0
VERTEX
  5
A6A
  8
RULER
 10
29.06247564770841
 20
0.0000000000000009
 30
0.0
  0
VERTEX
  5
A6B
  8
RULER
 10
29.06247564770841
 20
1.000000000000002
 30
0.0
  0
SEQEND
  5
DFD
  8
RULER
  0
POLYLINE
  5
20A
  8
RULER
 66
     1
 10
0.0
 20
0.0
 30
0.0
  0
VERTEX
  5
A6C
  8
RULER
 10
28.06247564770841
 20
0.0000000000000009
 30
0.0
  0
VERTEX
  5
A6D
  8
RULER
 10
28.06247564770841
 20
1.000000000000002
 30
0.0
  0
SEQEND
  5
DFE
  8
RULER
  0
POLYLINE
  5
20B
  8
RULER
 66
     1
 10
0.0
 20
0.0
 30
0.0
  0
VERTEX
  5
A6E
  8
RULER
 10
27.06247564770841
 20
0.0000000000000009
 30
0.0
  0
VERTEX
  5
A6F
  8
RULER
 10
27.06247564770841
 20
1.000000000000002
 30
0.0
  0
SEQEND
  5
DFF
  8
RULER
  0
POLYLINE
  5
20C
  8
RULER
 66
     1
 10
0.0
 20
0.0
 30
0.0
  0
VERTEX
  5
A70
  8
RULER
 10
26.06247564770841
 20
0.0000000000000009
 30
0.0
  0
VERTEX
  5
A71
  8
RULER
 10
26.06247564770841
 20
1.000000000000002
 30
0.0
  0
SEQEND
  5
E00
  8
RULER
  0
POLYLINE
  5
20D
  8
RULER
 66
     1
 10
0.0
 20
0.0
 30
0.0
  0
VERTEX
  5
A72
  8
RULER
 10
25.06247564770841
 20
0.0000000000000013
 30
0.0
  0
VERTEX
  5
A73
  8
RULER
 10
25.06247564770841
 20
1.000000000000003
 30
0.0
  0
SEQEND
  5
E01
  8
RULER
  0
POLYLINE
  5
20E
  8
RULER
 66
     1
 10
0.0
 20
0.0
 30
0.0
  0
VERTEX
  5
A74
  8
RULER
 10
24.06247564770842
 20
0.0000000000000013
 30
0.0
  0
VERTEX
  5
A75
  8
RULER
 10
24.06247564770842
 20
1.000000000000003
 30
0.0
  0
SEQEND
  5
E02
  8
RULER
  0
POLYLINE
  5
20F
  8
RULER
 66
     1
 10
0.0
 20
0.0
 30
0.0
  0
VERTEX
  5
A76
  8
RULER
 10
23.06247564770842
 20
0.0000000000000013
 30
0.0
  0
VERTEX
  5
A77
  8
RULER
 10
23.06247564770842
 20
1.000000000000003
 30
0.0
  0
SEQEND
  5
E03
  8
RULER
  0
POLYLINE
  5
210
  8
RULER
 66
     1
 10
0.0
 20
0.0
 30
0.0
  0
VERTEX
  5
A78
  8
RULER
 10
22.06247564770842
 20
0.0000000000000013
 30
0.0
  0
VERTEX
  5
A79
  8
RULER
 10
22.06247564770842
 20
1.000000000000003
 30
0.0
  0
SEQEND
  5
E04
  8
RULER
  0
POLYLINE
  5
211
  8
RULER
 66
     1
 10
0.0
 20
0.0
 30
0.0
  0
VERTEX
  5
A7A
  8
RULER
 10
21.06247564770842
 20
0.0000000000000013
 30
0.0
  0
VERTEX
  5
A7B
  8
RULER
 10
21.06247564770842
 20
1.000000000000003
 30
0.0
  0
SEQEND
  5
E05
  8
RULER
  0
POLYLINE
  5
212
  8
RULER
 66
     1
 10
0.0
 20
0.0
 30
0.0
  0
VERTEX
  5
A7C
  8
RULER
 10
20.06247564770841
 20
0.0000000000000018
 30
0.0
  0
VERTEX
  5
A7D
  8
RULER
 10
20.06247564770841
 20
1.000000000000003
 30
0.0
  0
SEQEND
  5
E06
  8
RULER
  0
POLYLINE
  5
213
  8
RULER
 66
     1
 10
0.0
 20
0.0
 30
0.0
  0
VERTEX
  5
A7E
  8
RULER
 10
19.06247564770842
 20
0.0000000000000018
 30
0.0
  0
VERTEX
  5
A7F
  8
RULER
 10
19.06247564770842
 20
1.000000000000003
 30
0.0
  0
SEQEND
  5
E07
  8
RULER
  0
POLYLINE
  5
214
  8
RULER
 66
     1
 10
0.0
 20
0.0
 30
0.0
  0
VERTEX
  5
A80
  8
RULER
 10
18.06247564770842
 20
0.0000000000000018
 30
0.0
  0
VERTEX
  5
A81
  8
RULER
 10
18.06247564770842
 20
1.000000000000003
 30
0.0
  0
SEQEND
  5
E08
  8
RULER
  0
POLYLINE
  5
215
  8
RULER
 66
     1
 10
0.0
 20
0.0
 30
0.0
  0
VERTEX
  5
A82
  8
RULER
 10
17.06247564770842
 20
0.0000000000000018
 30
0.0
  0
VERTEX
  5
A83
  8
RULER
 10
17.06247564770842
 20
1.000000000000003
 30
0.0
  0
SEQEND
  5
E09
  8
RULER
  0
POLYLINE
  5
216
  8
RULER
 66
     1
 10
0.0
 20
0.0
 30
0.0
  0
VERTEX
  5
A84
  8
RULER
 10
16.06247564770842
 20
0.0000000000000022
 30
0.0
  0
VERTEX
  5
A85
  8
RULER
 10
16.06247564770842
 20
1.000000000000004
 30
0.0
  0
SEQEND
  5
E0A
  8
RULER
  0
POLYLINE
  5
217
  8
RULER
 66
     1
 10
0.0
 20
0.0
 30
0.0
  0
VERTEX
  5
A86
  8
RULER
 10
15.06247564770842
 20
0.0000000000000022
 30
0.0
  0
VERTEX
  5
A87
  8
RULER
 10
15.06247564770842
 20
1.000000000000004
 30
0.0
  0
SEQEND
  5
E0B
  8
RULER
  0
POLYLINE
  5
218
  8
RULER
 66
     1
 10
0.0
 20
0.0
 30
0.0
  0
VERTEX
  5
A88
  8
RULER
 10
14.06247564770842
 20
0.0000000000000022
 30
0.0
  0
VERTEX
  5
A89
  8
RULER
 10
14.06247564770842
 20
1.000000000000004
 30
0.0
  0
SEQEND
  5
E0C
  8
RULER
  0
POLYLINE
  5
219
  8
RULER
 66
     1
 10
0.0
 20
0.0
 30
0.0
  0
VERTEX
  5
A8A
  8
RULER
 10
13.06247564770842
 20
0.0000000000000022
 30
0.0
  0
VERTEX
  5
A8B
  8
RULER
 10
13.06247564770842
 20
1.000000000000004
 30
0.0
  0
SEQEND
  5
E0D
  8
RULER
  0
POLYLINE
  5
21A
  8
RULER
 66
     1
 10
0.0
 20
0.0
 30
0.0
  0
VERTEX
  5
A8C
  8
RULER
 10
12.06247564770842
 20
0.0000000000000022
 30
0.0
  0
VERTEX
  5
A8D
  8
RULER
 10
12.06247564770842
 20
1.000000000000004
 30
0.0
  0
SEQEND
  5
E0E
  8
RULER
  0
POLYLINE
  5
21B
  8
RULER
 66
     1
 10
0.0
 20
0.0
 30
0.0
  0
VERTEX
  5
A8E
  8
RULER
 10
11.06247564770842
 20
0.0000000000000031
 30
0.0
  0
VERTEX
  5
A8F
  8
RULER
 10
11.06247564770842
 20
1.000000000000004
 30
0.0
  0
SEQEND
  5
E0F
  8
RULER
  0
POLYLINE
  5
21C
  8
RULER
 66
     1
 10
0.0
 20
0.0
 30
0.0
  0
VERTEX
  5
A90
  8
RULER
 10
10.06247564770842
 20
0.0000000000000031
 30
0.0
  0
VERTEX
  5
A91
  8
RULER
 10
10.06247564770842
 20
1.000000000000004
 30
0.0
  0
SEQEND
  5
E10
  8
RULER
  0
POLYLINE
  5
21D
  8
RULER
 66
     1
 10
0.0
 20
0.0
 30
0.0
  0
VERTEX
  5
A92
  8
RULER
 10
9.06247564770842
 20
0.0000000000000031
 30
0.0
  0
VERTEX
  5
A93
  8
RULER
 10
9.06247564770842
 20
1.000000000000004
 30
0.0
  0
SEQEND
  5
E11
  8
RULER
  0
POLYLINE
  5
21E
  8
RULER
 66
     1
 10
0.0
 20
0.0
 30
0.0
  0
VERTEX
  5
A94
  8
RULER
 10
8.062475647708418
 20
0.0000000000000031
 30
0.0
  0
VERTEX
  5
A95
  8
RULER
 10
8.062475647708418
 20
1.000000000000004
 30
0.0
  0
SEQEND
  5
E12
  8
RULER
  0
POLYLINE
  5
21F
  8
RULER
 66
     1
 10
0.0
 20
0.0
 30
0.0
  0
VERTEX
  5
A96
  8
RULER
 10
7.06247564770842
 20
0.0000000000000036
 30
0.0
  0
VERTEX
  5
A97
  8
RULER
 10
7.06247564770842
 20
1.000000000000004
 30
0.0
  0
SEQEND
  5
E13
  8
RULER
  0
POLYLINE
  5
220
  8
RULER
 66
     1
 10
0.0
 20
0.0
 30
0.0
  0
VERTEX
  5
A98
  8
RULER
 10
6.062475647708419
 20
0.0000000000000036
 30
0.0
  0
VERTEX
  5
A99
  8
RULER
 10
6.062475647708419
 20
1.000000000000004
 30
0.0
  0
SEQEND
  5
E14
  8
RULER
  0
POLYLINE
  5
221
  8
RULER
 66
     1
 10
0.0
 20
0.0
 30
0.0
  0
VERTEX
  5
A9A
  8
RULER
 10
5.062475647708419
 20
0.0000000000000036
 30
0.0
  0
VERTEX
  5
A9B
  8
RULER
 10
5.062475647708419
 20
1.000000000000004
 30
0.0
  0
SEQEND
  5
E15
  8
RULER
  0
POLYLINE
  5
222
  8
RULER
 66
     1
 10
0.0
 20
0.0
 30
0.0
  0
VERTEX
  5
A9C
  8
RULER
 10
4.062475647708418
 20
0.0000000000000036
 30
0.0
  0
VERTEX
  5
A9D
  8
RULER
 10
4.062475647708418
 20
1.000000000000004
 30
0.0
  0
SEQEND
  5
E16
  8
RULER
  0
POLYLINE
  5
223
  8
RULER
 66
     1
 10
0.0
 20
0.0
 30
0.0
  0
VERTEX
  5
A9E
  8
RULER
 10
3.062475647708421
 20
0.0000000000000036
 30
0.0
  0
VERTEX
  5
A9F
  8
RULER
 10
3.062475647708421
 20
1.000000000000004
 30
0.0
  0
SEQEND
  5
E17
  8
RULER
  0
POLYLINE
  5
224
  8
RULER
 66
     1
 10
0.0
 20
0.0
 30
0.0
  0
VERTEX
  5
AA0
  8
RULER
 10
2.06247564770842
 20
0.000000000000004
 30
0.0
  0
VERTEX
  5
AA1
  8
RULER
 10
2.06247564770842
 20
1.000000000000005
 30
0.0
  0
SEQEND
  5
E18
  8
RULER
  0
POLYLINE
  5
225
  8
RULER
 66
     1
 10
0.0
 20
0.0
 30
0.0
  0
VERTEX
  5
AA2
  8
RULER
 10
1.062475647708419
 20
0.000000000000004
 30
0.0
  0
VERTEX
  5
AA3
  8
RULER
 10
1.062475647708419
 20
1.000000000000005
 30
0.0
  0
SEQEND
  5
E19
  8
RULER
  0
POLYLINE
  5
226
  8
RULER
 66
     1
 10
0.0
 20
0.0
 30
0.0
  0
VERTEX
  5
AA4
  8
RULER
 10
0.0624756477084176
 20
0.000000000000004
 30
0.0
  0
VERTEX
  5
AA5
  8
RULER
 10
0.0624756477084176
 20
1.000000000000005
 30
0.0
  0
SEQEND
  5
E1A
  8
RULER
  0
POLYLINE
  5
227
  8
RULER
 66
     1
 10
0.0
 20
0.0
 30
0.0
  0
VERTEX
  5
AA6
  8
RULER
 10
31.56247564770841
 20
0.0
 30
0.0
  0
VERTEX
  5
AA7
  8
RULER
 10
31.56247564770842
 20
0.5000000000000031
 30
0.0
  0
SEQEND
  5
E1B
  8
RULER
  0
POLYLINE
  5
228
  8
RULER
 66
     1
 10
0.0
 20
0.0
 30
0.0
  0
VERTEX
  5
AA8
  8
RULER
 10
30.56247564770841
 20
0.0
 30
0.0
  0
VERTEX
  5
AA9
  8
RULER
 10
30.56247564770841
 20
0.5000000000000031
 30
0.0
  0
SEQEND
  5
E1C
  8
RULER
  0
POLYLINE
  5
229
  8
RULER
 66
     1
 10
0.0
 20
0.0
 30
0.0
  0
VERTEX
  5
AAA
  8
RULER
 10
29.56247564770841
 20
0.0000000000000009
 30
0.0
  0
VERTEX
  5
AAB
  8
RULER
 10
29.56247564770841
 20
0.5000000000000036
 30
0.0
  0
SEQEND
  5
E1D
  8
RULER
  0
POLYLINE
  5
22A
  8
RULER
 66
     1
 10
0.0
 20
0.0
 30
0.0
  0
VERTEX
  5
AAC
  8
RULER
 10
28.56247564770841
 20
0.0000000000000009
 30
0.0
  0
VERTEX
  5
AAD
  8
RULER
 10
28.56247564770841
 20
0.5000000000000036
 30
0.0
  0
SEQEND
  5
E1E
  8
RULER
  0
POLYLINE
  5
22B
  8
RULER
 66
     1
 10
0.0
 20
0.0
 30
0.0
  0
VERTEX
  5
AAE
  8
RULER
 10
27.56247564770841
 20
0.0000000000000009
 30
0.0
  0
VERTEX
  5
AAF
  8
RULER
 10
27.56247564770841
 20
0.5000000000000036
 30
0.0
  0
SEQEND
  5
E1F
  8
RULER
  0
POLYLINE
  5
22C
  8
RULER
 66
     1
 10
0.0
 20
0.0
 30
0.0
  0
VERTEX
  5
AB0
  8
RULER
 10
26.56247564770841
 20
0.0000000000000009
 30
0.0
  0
VERTEX
  5
AB1
  8
RULER
 10
26.56247564770841
 20
0.5000000000000036
 30
0.0
  0
SEQEND
  5
E20
  8
RULER
  0
POLYLINE
  5
22D
  8
RULER
 66
     1
 10
0.0
 20
0.0
 30
0.0
  0
VERTEX
  5
AB2
  8
RULER
 10
25.56247564770841
 20
0.0000000000000009
 30
0.0
  0
VERTEX
  5
AB3
  8
RULER
 10
25.56247564770841
 20
0.5000000000000036
 30
0.0
  0
SEQEND
  5
E21
  8
RULER
  0
POLYLINE
  5
22E
  8
RULER
 66
     1
 10
0.0
 20
0.0
 30
0.0
  0
VERTEX
  5
AB4
  8
RULER
 10
24.56247564770842
 20
0.0000000000000013
 30
0.0
  0
VERTEX
  5
AB5
  8
RULER
 10
24.56247564770842
 20
0.500000000000004
 30
0.0
  0
SEQEND
  5
E22
  8
RULER
  0
POLYLINE
  5
22F
  8
RULER
 66
     1
 10
0.0
 20
0.0
 30
0.0
  0
VERTEX
  5
AB6
  8
RULER
 10
23.56247564770842
 20
0.0000000000000013
 30
0.0
  0
VERTEX
  5
AB7
  8
RULER
 10
23.56247564770842
 20
0.500000000000004
 30
0.0
  0
SEQEND
  5
E23
  8
RULER
  0
POLYLINE
  5
230
  8
RULER
 66
     1
 10
0.0
 20
0.0
 30
0.0
  0
VERTEX
  5
AB8
  8
RULER
 10
22.56247564770842
 20
0.0000000000000013
 30
0.0
  0
VERTEX
  5
AB9
  8
RULER
 10
22.56247564770842
 20
0.500000000000004
 30
0.0
  0
SEQEND
  5
E24
  8
RULER
  0
POLYLINE
  5
231
  8
RULER
 66
     1
 10
0.0
 20
0.0
 30
0.0
  0
VERTEX
  5
ABA
  8
RULER
 10
21.56247564770842
 20
0.0000000000000013
 30
0.0
  0
VERTEX
  5
ABB
  8
RULER
 10
21.56247564770842
 20
0.500000000000004
 30
0.0
  0
SEQEND
  5
E25
  8
RULER
  0
POLYLINE
  5
232
  8
RULER
 66
     1
 10
0.0
 20
0.0
 30
0.0
  0
VERTEX
  5
ABC
  8
RULER
 10
20.56247564770842
 20
0.0000000000000018
 30
0.0
  0
VERTEX
  5
ABD
  8
RULER
 10
20.56247564770842
 20
0.5000000000000044
 30
0.0
  0
SEQEND
  5
E26
  8
RULER
  0
POLYLINE
  5
233
  8
RULER
 66
     1
 10
0.0
 20
0.0
 30
0.0
  0
VERTEX
  5
ABE
  8
RULER
 10
19.56247564770842
 20
0.0000000000000018
 30
0.0
  0
VERTEX
  5
ABF
  8
RULER
 10
19.56247564770842
 20
0.5000000000000044
 30
0.0
  0
SEQEND
  5
E27
  8
RULER
  0
POLYLINE
  5
234
  8
RULER
 66
     1
 10
0.0
 20
0.0
 30
0.0
  0
VERTEX
  5
AC0
  8
RULER
 10
18.56247564770842
 20
0.0000000000000018
 30
0.0
  0
VERTEX
  5
AC1
  8
RULER
 10
18.56247564770842
 20
0.5000000000000044
 30
0.0
  0
SEQEND
  5
E28
  8
RULER
  0
POLYLINE
  5
235
  8
RULER
 66
     1
 10
0.0
 20
0.0
 30
0.0
  0
VERTEX
  5
AC2
  8
RULER
 10
17.56247564770842
 20
0.0000000000000018
 30
0.0
  0
VERTEX
  5
AC3
  8
RULER
 10
17.56247564770842
 20
0.5000000000000044
 30
0.0
  0
SEQEND
  5
E29
  8
RULER
  0
POLYLINE
  5
236
  8
RULER
 66
     1
 10
0.0
 20
0.0
 30
0.0
  0
VERTEX
  5
AC4
  8
RULER
 10
16.56247564770842
 20
0.0000000000000018
 30
0.0
  0
VERTEX
  5
AC5
  8
RULER
 10
16.56247564770842
 20
0.5000000000000044
 30
0.0
  0
SEQEND
  5
E2A
  8
RULER
  0
POLYLINE
  5
237
  8
RULER
 66
     1
 10
0.0
 20
0.0
 30
0.0
  0
VERTEX
  5
AC6
  8
RULER
 10
15.56247564770842
 20
0.0000000000000022
 30
0.0
  0
VERTEX
  5
AC7
  8
RULER
 10
15.56247564770842
 20
0.5000000000000053
 30
0.0
  0
SEQEND
  5
E2B
  8
RULER
  0
POLYLINE
  5
238
  8
RULER
 66
     1
 10
0.0
 20
0.0
 30
0.0
  0
VERTEX
  5
AC8
  8
RULER
 10
14.56247564770842
 20
0.0000000000000022
 30
0.0
  0
VERTEX
  5
AC9
  8
RULER
 10
14.56247564770842
 20
0.5000000000000053
 30
0.0
  0
SEQEND
  5
E2C
  8
RULER
  0
POLYLINE
  5
239
  8
RULER
 66
     1
 10
0.0
 20
0.0
 30
0.0
  0
VERTEX
  5
ACA
  8
RULER
 10
13.56247564770842
 20
0.0000000000000022
 30
0.0
  0
VERTEX
  5
ACB
  8
RULER
 10
13.56247564770842
 20
0.5000000000000053
 30
0.0
  0
SEQEND
  5
E2D
  8
RULER
  0
POLYLINE
  5
23A
  8
RULER
 66
     1
 10
0.0
 20
0.0
 30
0.0
  0
VERTEX
  5
ACC
  8
RULER
 10
12.56247564770842
 20
0.0000000000000022
 30
0.0
  0
VERTEX
  5
ACD
  8
RULER
 10
12.56247564770842
 20
0.5000000000000053
 30
0.0
  0
SEQEND
  5
E2E
  8
RULER
  0
POLYLINE
  5
23B
  8
RULER
 66
     1
 10
0.0
 20
0.0
 30
0.0
  0
VERTEX
  5
ACE
  8
RULER
 10
11.56247564770842
 20
0.0000000000000031
 30
0.0
  0
VERTEX
  5
ACF
  8
RULER
 10
11.56247564770842
 20
0.5000000000000058
 30
0.0
  0
SEQEND
  5
E2F
  8
RULER
  0
POLYLINE
  5
23C
  8
RULER
 66
     1
 10
0.0
 20
0.0
 30
0.0
  0
VERTEX
  5
AD0
  8
RULER
 10
10.56247564770842
 20
0.0000000000000031
 30
0.0
  0
VERTEX
  5
AD1
  8
RULER
 10
10.56247564770842
 20
0.5000000000000058
 30
0.0
  0
SEQEND
  5
E30
  8
RULER
  0
POLYLINE
  5
23D
  8
RULER
 66
     1
 10
0.0
 20
0.0
 30
0.0
  0
VERTEX
  5
AD2
  8
RULER
 10
9.562475647708421
 20
0.0000000000000031
 30
0.0
  0
VERTEX
  5
AD3
  8
RULER
 10
9.562475647708421
 20
0.5000000000000058
 30
0.0
  0
SEQEND
  5
E31
  8
RULER
  0
POLYLINE
  5
23E
  8
RULER
 66
     1
 10
0.0
 20
0.0
 30
0.0
  0
VERTEX
  5
AD4
  8
RULER
 10
8.562475647708421
 20
0.0000000000000031
 30
0.0
  0
VERTEX
  5
AD5
  8
RULER
 10
8.562475647708421
 20
0.5000000000000058
 30
0.0
  0
SEQEND
  5
E32
  8
RULER
  0
POLYLINE
  5
23F
  8
RULER
 66
     1
 10
0.0
 20
0.0
 30
0.0
  0
VERTEX
  5
AD6
  8
RULER
 10
7.562475647708419
 20
0.0000000000000031
 30
0.0
  0
VERTEX
  5
AD7
  8
RULER
 10
7.562475647708419
 20
0.5000000000000058
 30
0.0
  0
SEQEND
  5
E33
  8
RULER
  0
POLYLINE
  5
240
  8
RULER
 66
     1
 10
0.0
 20
0.0
 30
0.0
  0
VERTEX
  5
AD8
  8
RULER
 10
6.562475647708418
 20
0.0000000000000036
 30
0.0
  0
VERTEX
  5
AD9
  8
RULER
 10
6.562475647708418
 20
0.5000000000000062
 30
0.0
  0
SEQEND
  5
E34
  8
RULER
  0
POLYLINE
  5
241
  8
RULER
 66
     1
 10
0.0
 20
0.0
 30
0.0
  0
VERTEX
  5
ADA
  8
RULER
 10
5.562475647708421
 20
0.0000000000000036
 30
0.0
  0
VERTEX
  5
ADB
  8
RULER
 10
5.562475647708421
 20
0.5000000000000062
 30
0.0
  0
SEQEND
  5
E35
  8
RULER
  0
POLYLINE
  5
242
  8
RULER
 66
     1
 10
0.0
 20
0.0
 30
0.0
  0
VERTEX
  5
ADC
  8
RULER
 10
4.56247564770842
 20
0.0000000000000036
 30
0.0
  0
VERTEX
  5
ADD
  8
RULER
 10
4.56247564770842
 20
0.5000000000000062
 30
0.0
  0
SEQEND
  5
E36
  8
RULER
  0
POLYLINE
  5
243
  8
RULER
 66
     1
 10
0.0
 20
0.0
 30
0.0
  0
VERTEX
  5
ADE
  8
RULER
 10
3.562475647708419
 20
0.0000000000000036
 30
0.0
  0
VERTEX
  5
ADF
  8
RULER
 10
3.562475647708419
 20
0.5000000000000062
 30
0.0
  0
SEQEND
  5
E37
  8
RULER
  0
POLYLINE
  5
244
  8
RULER
 66
     1
 10
0.0
 20
0.0
 30
0.0
  0
VERTEX
  5
AE0
  8
RULER
 10
2.562475647708419
 20
0.000000000000004
 30
0.0
  0
VERTEX
  5
AE1
  8
RULER
 10
2.562475647708419
 20
0.5000000000000067
 30
0.0
  0
SEQEND
  5
E38
  8
RULER
  0
POLYLINE
  5
245
  8
RULER
 66
     1
 10
0.0
 20
0.0
 30
0.0
  0
VERTEX
  5
AE2
  8
RULER
 10
1.562475647708418
 20
0.000000000000004
 30
0.0
  0
VERTEX
  5
AE3
  8
RULER
 10
1.562475647708418
 20
0.5000000000000067
 30
0.0
  0
SEQEND
  5
E39
  8
RULER
  0
POLYLINE
  5
246
  8
RULER
 66
     1
 10
0.0
 20
0.0
 30
0.0
  0
VERTEX
  5
AE4
  8
RULER
 10
0.5624756477084212
 20
0.000000000000004
 30
0.0
  0
VERTEX
  5
AE5
  8
RULER
 10
0.5624756477084212
 20
0.5000000000000067
 30
0.0
  0
SEQEND
  5
E3A
  8
RULER
  0
POLYLINE
  5
247
  8
RULER
 66
     1
 10
0.0
 20
0.0
 30
0.0
  0
VERTEX
  5
AE6
  8
RULER
 10
31.81247564770841
 20
0.0
 30
0.0
  0
VERTEX
  5
AE7
  8
RULER
 10
31.81247564770841
 20
0.2500000000000036
 30
0.0
  0
SEQEND
  5
E3B
  8
RULER
  0
POLYLINE
  5
248
  8
RULER
 66
     1
 10
0.0
 20
0.0
 30
0.0
  0
VERTEX
  5
AE8
  8
RULER
 10
31.31247564770841
 20
0.0
 30
0.0
  0
VERTEX
  5
AE9
  8
RULER
 10
31.31247564770841
 20
0.2500000000000036
 30
0.0
  0
SEQEND
  5
E3C
  8
RULER
  0
POLYLINE
  5
249
  8
RULER
 66
     1
 10
0.0
 20
0.0
 30
0.0
  0
VERTEX
  5
AEA
  8
RULER
 10
30.81247564770841
 20
0.0
 30
0.0
  0
VERTEX
  5
AEB
  8
RULER
 10
30.81247564770841
 20
0.2500000000000036
 30
0.0
  0
SEQEND
  5
E3D
  8
RULER
  0
POLYLINE
  5
24A
  8
RULER
 66
     1
 10
0.0
 20
0.0
 30
0.0
  0
VERTEX
  5
AEC
  8
RULER
 10
30.31247564770842
 20
0.0
 30
0.0
  0
VERTEX
  5
AED
  8
RULER
 10
30.31247564770842
 20
0.2500000000000036
 30
0.0
  0
SEQEND
  5
E3E
  8
RULER
  0
POLYLINE
  5
24B
  8
RULER
 66
     1
 10
0.0
 20
0.0
 30
0.0
  0
VERTEX
  5
AEE
  8
RULER
 10
29.81247564770841
 20
0.0
 30
0.0
  0
VERTEX
  5
AEF
  8
RULER
 10
29.81247564770841
 20
0.2500000000000036
 30
0.0
  0
SEQEND
  5
E3F
  8
RULER
  0
POLYLINE
  5
24C
  8
RULER
 66
     1
 10
0.0
 20
0.0
 30
0.0
  0
VERTEX
  5
AF0
  8
RULER
 10
29.31247564770841
 20
0.0000000000000009
 30
0.0
  0
VERTEX
  5
AF1
  8
RULER
 10
29.31247564770841
 20
0.2500000000000044
 30
0.0
  0
SEQEND
  5
E40
  8
RULER
  0
POLYLINE
  5
24D
  8
RULER
 66
     1
 10
0.0
 20
0.0
 30
0.0
  0
VERTEX
  5
AF2
  8
RULER
 10
28.81247564770841
 20
0.0000000000000009
 30
0.0
  0
VERTEX
  5
AF3
  8
RULER
 10
28.81247564770841
 20
0.2500000000000044
 30
0.0
  0
SEQEND
  5
E41
  8
RULER
  0
POLYLINE
  5
24E
  8
RULER
 66
     1
 10
0.0
 20
0.0
 30
0.0
  0
VERTEX
  5
AF4
  8
RULER
 10
28.31247564770841
 20
0.0000000000000009
 30
0.0
  0
VERTEX
  5
AF5
  8
RULER
 10
28.31247564770841
 20
0.2500000000000044
 30
0.0
  0
SEQEND
  5
E42
  8
RULER
  0
POLYLINE
  5
24F
  8
RULER
 66
     1
 10
0.0
 20
0.0
 30
0.0
  0
VERTEX
  5
AF6
  8
RULER
 10
27.81247564770841
 20
0.0000000000000009
 30
0.0
  0
VERTEX
  5
AF7
  8
RULER
 10
27.81247564770841
 20
0.2500000000000044
 30
0.0
  0
SEQEND
  5
E43
  8
RULER
  0
POLYLINE
  5
250
  8
RULER
 66
     1
 10
0.0
 20
0.0
 30
0.0
  0
VERTEX
  5
AF8
  8
RULER
 10
27.31247564770841
 20
0.0000000000000009
 30
0.0
  0
VERTEX
  5
AF9
  8
RULER
 10
27.31247564770841
 20
0.2500000000000044
 30
0.0
  0
SEQEND
  5
E44
  8
RULER
  0
POLYLINE
  5
251
  8
RULER
 66
     1
 10
0.0
 20
0.0
 30
0.0
  0
VERTEX
  5
AFA
  8
RULER
 10
26.81247564770841
 20
0.0000000000000009
 30
0.0
  0
VERTEX
  5
AFB
  8
RULER
 10
26.81247564770841
 20
0.2500000000000044
 30
0.0
  0
SEQEND
  5
E45
  8
RULER
  0
POLYLINE
  5
252
  8
RULER
 66
     1
 10
0.0
 20
0.0
 30
0.0
  0
VERTEX
  5
AFC
  8
RULER
 10
26.31247564770841
 20
0.0000000000000009
 30
0.0
  0
VERTEX
  5
AFD
  8
RULER
 10
26.31247564770841
 20
0.2500000000000044
 30
0.0
  0
SEQEND
  5
E46
  8
RULER
  0
POLYLINE
  5
253
  8
RULER
 66
     1
 10
0.0
 20
0.0
 30
0.0
  0
VERTEX
  5
AFE
  8
RULER
 10
25.81247564770841
 20
0.0000000000000009
 30
0.0
  0
VERTEX
  5
AFF
  8
RULER
 10
25.81247564770841
 20
0.2500000000000044
 30
0.0
  0
SEQEND
  5
E47
  8
RULER
  0
POLYLINE
  5
254
  8
RULER
 66
     1
 10
0.0
 20
0.0
 30
0.0
  0
VERTEX
  5
B00
  8
RULER
 10
25.31247564770842
 20
0.0000000000000009
 30
0.0
  0
VERTEX
  5
B01
  8
RULER
 10
25.31247564770842
 20
0.2500000000000044
 30
0.0
  0
SEQEND
  5
E48
  8
RULER
  0
POLYLINE
  5
255
  8
RULER
 66
     1
 10
0.0
 20
0.0
 30
0.0
  0
VERTEX
  5
B02
  8
RULER
 10
24.81247564770842
 20
0.0000000000000013
 30
0.0
  0
VERTEX
  5
B03
  8
RULER
 10
24.81247564770842
 20
0.2500000000000049
 30
0.0
  0
SEQEND
  5
E49
  8
RULER
  0
POLYLINE
  5
256
  8
RULER
 66
     1
 10
0.0
 20
0.0
 30
0.0
  0
VERTEX
  5
B04
  8
RULER
 10
24.31247564770842
 20
0.0000000000000013
 30
0.0
  0
VERTEX
  5
B05
  8
RULER
 10
24.31247564770842
 20
0.2500000000000049
 30
0.0
  0
SEQEND
  5
E4A
  8
RULER
  0
POLYLINE
  5
257
  8
RULER
 66
     1
 10
0.0
 20
0.0
 30
0.0
  0
VERTEX
  5
B06
  8
RULER
 10
23.81247564770841
 20
0.0000000000000013
 30
0.0
  0
VERTEX
  5
B07
  8
RULER
 10
23.81247564770841
 20
0.2500000000000049
 30
0.0
  0
SEQEND
  5
E4B
  8
RULER
  0
POLYLINE
  5
258
  8
RULER
 66
     1
 10
0.0
 20
0.0
 30
0.0
  0
VERTEX
  5
B08
  8
RULER
 10
23.31247564770842
 20
0.0000000000000013
 30
0.0
  0
VERTEX
  5
B09
  8
RULER
 10
23.31247564770842
 20
0.2500000000000049
 30
0.0
  0
SEQEND
  5
E4C
  8
RULER
  0
POLYLINE
  5
259
  8
RULER
 66
     1
 10
0.0
 20
0.0
 30
0.0
  0
VERTEX
  5
B0A
  8
RULER
 10
22.81247564770842
 20
0.0000000000000013
 30
0.0
  0
VERTEX
  5
B0B
  8
RULER
 10
22.81247564770842
 20
0.2500000000000049
 30
0.0
  0
SEQEND
  5
E4D
  8
RULER
  0
POLYLINE
  5
25A
  8
RULER
 66
     1
 10
0.0
 20
0.0
 30
0.0
  0
VERTEX
  5
B0C
  8
RULER
 10
22.31247564770842
 20
0.0000000000000013
 30
0.0
  0
VERTEX
  5
B0D
  8
RULER
 10
22.31247564770842
 20
0.2500000000000049
 30
0.0
  0
SEQEND
  5
E4E
  8
RULER
  0
POLYLINE
  5
25B
  8
RULER
 66
     1
 10
0.0
 20
0.0
 30
0.0
  0
VERTEX
  5
B0E
  8
RULER
 10
21.81247564770842
 20
0.0000000000000013
 30
0.0
  0
VERTEX
  5
B0F
  8
RULER
 10
21.81247564770842
 20
0.2500000000000049
 30
0.0
  0
SEQEND
  5
E4F
  8
RULER
  0
POLYLINE
  5
25C
  8
RULER
 66
     1
 10
0.0
 20
0.0
 30
0.0
  0
VERTEX
  5
B10
  8
RULER
 10
21.31247564770841
 20
0.0000000000000013
 30
0.0
  0
VERTEX
  5
B11
  8
RULER
 10
21.31247564770841
 20
0.2500000000000049
 30
0.0
  0
SEQEND
  5
E50
  8
RULER
  0
POLYLINE
  5
25D
  8
RULER
 66
     1
 10
0.0
 20
0.0
 30
0.0
  0
VERTEX
  5
B12
  8
RULER
 10
20.81247564770842
 20
0.0000000000000013
 30
0.0
  0
VERTEX
  5
B13
  8
RULER
 10
20.81247564770842
 20
0.2500000000000049
 30
0.0
  0
SEQEND
  5
E51
  8
RULER
  0
POLYLINE
  5
25E
  8
RULER
 66
     1
 10
0.0
 20
0.0
 30
0.0
  0
VERTEX
  5
B14
  8
RULER
 10
20.31247564770842
 20
0.0000000000000018
 30
0.0
  0
VERTEX
  5
B15
  8
RULER
 10
20.31247564770842
 20
0.2500000000000053
 30
0.0
  0
SEQEND
  5
E52
  8
RULER
  0
POLYLINE
  5
25F
  8
RULER
 66
     1
 10
0.0
 20
0.0
 30
0.0
  0
VERTEX
  5
B16
  8
RULER
 10
19.81247564770842
 20
0.0000000000000018
 30
0.0
  0
VERTEX
  5
B17
  8
RULER
 10
19.81247564770842
 20
0.2500000000000053
 30
0.0
  0
SEQEND
  5
E53
  8
RULER
  0
POLYLINE
  5
260
  8
RULER
 66
     1
 10
0.0
 20
0.0
 30
0.0
  0
VERTEX
  5
B18
  8
RULER
 10
19.31247564770842
 20
0.0000000000000018
 30
0.0
  0
VERTEX
  5
B19
  8
RULER
 10
19.31247564770842
 20
0.2500000000000053
 30
0.0
  0
SEQEND
  5
E54
  8
RULER
  0
POLYLINE
  5
261
  8
RULER
 66
     1
 10
0.0
 20
0.0
 30
0.0
  0
VERTEX
  5
B1A
  8
RULER
 10
18.81247564770842
 20
0.0000000000000018
 30
0.0
  0
VERTEX
  5
B1B
  8
RULER
 10
18.81247564770842
 20
0.2500000000000053
 30
0.0
  0
SEQEND
  5
E55
  8
RULER
  0
POLYLINE
  5
262
  8
RULER
 66
     1
 10
0.0
 20
0.0
 30
0.0
  0
VERTEX
  5
B1C
  8
RULER
 10
18.31247564770842
 20
0.0000000000000018
 30
0.0
  0
VERTEX
  5
B1D
  8
RULER
 10
18.31247564770842
 20
0.2500000000000053
 30
0.0
  0
SEQEND
  5
E56
  8
RULER
  0
POLYLINE
  5
263
  8
RULER
 66
     1
 10
0.0
 20
0.0
 30
0.0
  0
VERTEX
  5
B1E
  8
RULER
 10
17.81247564770842
 20
0.0000000000000018
 30
0.0
  0
VERTEX
  5
B1F
  8
RULER
 10
17.81247564770842
 20
0.2500000000000053
 30
0.0
  0
SEQEND
  5
E57
  8
RULER
  0
POLYLINE
  5
264
  8
RULER
 66
     1
 10
0.0
 20
0.0
 30
0.0
  0
VERTEX
  5
B20
  8
RULER
 10
17.31247564770842
 20
0.0000000000000018
 30
0.0
  0
VERTEX
  5
B21
  8
RULER
 10
17.31247564770842
 20
0.2500000000000053
 30
0.0
  0
SEQEND
  5
E58
  8
RULER
  0
POLYLINE
  5
265
  8
RULER
 66
     1
 10
0.0
 20
0.0
 30
0.0
  0
VERTEX
  5
B22
  8
RULER
 10
16.81247564770842
 20
0.0000000000000018
 30
0.0
  0
VERTEX
  5
B23
  8
RULER
 10
16.81247564770842
 20
0.2500000000000053
 30
0.0
  0
SEQEND
  5
E59
  8
RULER
  0
POLYLINE
  5
266
  8
RULER
 66
     1
 10
0.0
 20
0.0
 30
0.0
  0
VERTEX
  5
B24
  8
RULER
 10
16.31247564770842
 20
0.0000000000000018
 30
0.0
  0
VERTEX
  5
B25
  8
RULER
 10
16.31247564770842
 20
0.2500000000000053
 30
0.0
  0
SEQEND
  5
E5A
  8
RULER
  0
POLYLINE
  5
267
  8
RULER
 66
     1
 10
0.0
 20
0.0
 30
0.0
  0
VERTEX
  5
B26
  8
RULER
 10
15.81247564770842
 20
0.0000000000000022
 30
0.0
  0
VERTEX
  5
B27
  8
RULER
 10
15.81247564770842
 20
0.2500000000000058
 30
0.0
  0
SEQEND
  5
E5B
  8
RULER
  0
POLYLINE
  5
268
  8
RULER
 66
     1
 10
0.0
 20
0.0
 30
0.0
  0
VERTEX
  5
B28
  8
RULER
 10
15.31247564770842
 20
0.0000000000000022
 30
0.0
  0
VERTEX
  5
B29
  8
RULER
 10
15.31247564770842
 20
0.2500000000000058
 30
0.0
  0
SEQEND
  5
E5C
  8
RULER
  0
POLYLINE
  5
269
  8
RULER
 66
     1
 10
0.0
 20
0.0
 30
0.0
  0
VERTEX
  5
B2A
  8
RULER
 10
14.81247564770842
 20
0.0000000000000022
 30
0.0
  0
VERTEX
  5
B2B
  8
RULER
 10
14.81247564770842
 20
0.2500000000000058
 30
0.0
  0
SEQEND
  5
E5D
  8
RULER
  0
POLYLINE
  5
26A
  8
RULER
 66
     1
 10
0.0
 20
0.0
 30
0.0
  0
VERTEX
  5
B2C
  8
RULER
 10
14.31247564770842
 20
0.0000000000000022
 30
0.0
  0
VERTEX
  5
B2D
  8
RULER
 10
14.31247564770842
 20
0.2500000000000058
 30
0.0
  0
SEQEND
  5
E5E
  8
RULER
  0
POLYLINE
  5
26B
  8
RULER
 66
     1
 10
0.0
 20
0.0
 30
0.0
  0
VERTEX
  5
B2E
  8
RULER
 10
13.81247564770842
 20
0.0000000000000022
 30
0.0
  0
VERTEX
  5
B2F
  8
RULER
 10
13.81247564770842
 20
0.2500000000000058
 30
0.0
  0
SEQEND
  5
E5F
  8
RULER
  0
POLYLINE
  5
26C
  8
RULER
 66
     1
 10
0.0
 20
0.0
 30
0.0
  0
VERTEX
  5
B30
  8
RULER
 10
13.31247564770842
 20
0.0000000000000022
 30
0.0
  0
VERTEX
  5
B31
  8
RULER
 10
13.31247564770842
 20
0.2500000000000058
 30
0.0
  0
SEQEND
  5
E60
  8
RULER
  0
POLYLINE
  5
26D
  8
RULER
 66
     1
 10
0.0
 20
0.0
 30
0.0
  0
VERTEX
  5
B32
  8
RULER
 10
12.81247564770842
 20
0.0000000000000022
 30
0.0
  0
VERTEX
  5
B33
  8
RULER
 10
12.81247564770842
 20
0.2500000000000058
 30
0.0
  0
SEQEND
  5
E61
  8
RULER
  0
POLYLINE
  5
26E
  8
RULER
 66
     1
 10
0.0
 20
0.0
 30
0.0
  0
VERTEX
  5
B34
  8
RULER
 10
12.31247564770842
 20
0.0000000000000022
 30
0.0
  0
VERTEX
  5
B35
  8
RULER
 10
12.31247564770842
 20
0.2500000000000058
 30
0.0
  0
SEQEND
  5
E62
  8
RULER
  0
POLYLINE
  5
26F
  8
RULER
 66
     1
 10
0.0
 20
0.0
 30
0.0
  0
VERTEX
  5
B36
  8
RULER
 10
11.81247564770842
 20
0.0000000000000022
 30
0.0
  0
VERTEX
  5
B37
  8
RULER
 10
11.81247564770842
 20
0.2500000000000058
 30
0.0
  0
SEQEND
  5
E63
  8
RULER
  0
POLYLINE
  5
270
  8
RULER
 66
     1
 10
0.0
 20
0.0
 30
0.0
  0
VERTEX
  5
B38
  8
RULER
 10
11.31247564770842
 20
0.0000000000000031
 30
0.0
  0
VERTEX
  5
B39
  8
RULER
 10
11.31247564770842
 20
0.2500000000000067
 30
0.0
  0
SEQEND
  5
E64
  8
RULER
  0
POLYLINE
  5
271
  8
RULER
 66
     1
 10
0.0
 20
0.0
 30
0.0
  0
VERTEX
  5
B3A
  8
RULER
 10
10.81247564770842
 20
0.0000000000000031
 30
0.0
  0
VERTEX
  5
B3B
  8
RULER
 10
10.81247564770842
 20
0.2500000000000067
 30
0.0
  0
SEQEND
  5
E65
  8
RULER
  0
POLYLINE
  5
272
  8
RULER
 66
     1
 10
0.0
 20
0.0
 30
0.0
  0
VERTEX
  5
B3C
  8
RULER
 10
10.31247564770842
 20
0.0000000000000031
 30
0.0
  0
VERTEX
  5
B3D
  8
RULER
 10
10.31247564770842
 20
0.2500000000000067
 30
0.0
  0
SEQEND
  5
E66
  8
RULER
  0
POLYLINE
  5
273
  8
RULER
 66
     1
 10
0.0
 20
0.0
 30
0.0
  0
VERTEX
  5
B3E
  8
RULER
 10
9.812475647708421
 20
0.0000000000000031
 30
0.0
  0
VERTEX
  5
B3F
  8
RULER
 10
9.812475647708421
 20
0.2500000000000067
 30
0.0
  0
SEQEND
  5
E67
  8
RULER
  0
POLYLINE
  5
274
  8
RULER
 66
     1
 10
0.0
 20
0.0
 30
0.0
  0
VERTEX
  5
B40
  8
RULER
 10
9.312475647708418
 20
0.0000000000000031
 30
0.0
  0
VERTEX
  5
B41
  8
RULER
 10
9.312475647708418
 20
0.2500000000000067
 30
0.0
  0
SEQEND
  5
E68
  8
RULER
  0
POLYLINE
  5
275
  8
RULER
 66
     1
 10
0.0
 20
0.0
 30
0.0
  0
VERTEX
  5
B42
  8
RULER
 10
8.81247564770842
 20
0.0000000000000031
 30
0.0
  0
VERTEX
  5
B43
  8
RULER
 10
8.81247564770842
 20
0.2500000000000067
 30
0.0
  0
SEQEND
  5
E69
  8
RULER
  0
POLYLINE
  5
276
  8
RULER
 66
     1
 10
0.0
 20
0.0
 30
0.0
  0
VERTEX
  5
B44
  8
RULER
 10
8.312475647708421
 20
0.0000000000000031
 30
0.0
  0
VERTEX
  5
B45
  8
RULER
 10
8.312475647708421
 20
0.2500000000000067
 30
0.0
  0
SEQEND
  5
E6A
  8
RULER
  0
POLYLINE
  5
277
  8
RULER
 66
     1
 10
0.0
 20
0.0
 30
0.0
  0
VERTEX
  5
B46
  8
RULER
 10
7.812475647708419
 20
0.0000000000000031
 30
0.0
  0
VERTEX
  5
B47
  8
RULER
 10
7.812475647708419
 20
0.2500000000000067
 30
0.0
  0
SEQEND
  5
E6B
  8
RULER
  0
POLYLINE
  5
278
  8
RULER
 66
     1
 10
0.0
 20
0.0
 30
0.0
  0
VERTEX
  5
B48
  8
RULER
 10
7.312475647708419
 20
0.0000000000000031
 30
0.0
  0
VERTEX
  5
B49
  8
RULER
 10
7.312475647708419
 20
0.2500000000000067
 30
0.0
  0
SEQEND
  5
E6C
  8
RULER
  0
POLYLINE
  5
279
  8
RULER
 66
     1
 10
0.0
 20
0.0
 30
0.0
  0
VERTEX
  5
B4A
  8
RULER
 10
6.812475647708417
 20
0.0000000000000036
 30
0.0
  0
VERTEX
  5
B4B
  8
RULER
 10
6.812475647708417
 20
0.2500000000000071
 30
0.0
  0
SEQEND
  5
E6D
  8
RULER
  0
POLYLINE
  5
27A
  8
RULER
 66
     1
 10
0.0
 20
0.0
 30
0.0
  0
VERTEX
  5
B4C
  8
RULER
 10
6.312475647708419
 20
0.0000000000000036
 30
0.0
  0
VERTEX
  5
B4D
  8
RULER
 10
6.312475647708419
 20
0.2500000000000071
 30
0.0
  0
SEQEND
  5
E6E
  8
RULER
  0
POLYLINE
  5
27B
  8
RULER
 66
     1
 10
0.0
 20
0.0
 30
0.0
  0
VERTEX
  5
B4E
  8
RULER
 10
5.81247564770842
 20
0.0000000000000036
 30
0.0
  0
VERTEX
  5
B4F
  8
RULER
 10
5.81247564770842
 20
0.2500000000000071
 30
0.0
  0
SEQEND
  5
E6F
  8
RULER
  0
POLYLINE
  5
27C
  8
RULER
 66
     1
 10
0.0
 20
0.0
 30
0.0
  0
VERTEX
  5
B50
  8
RULER
 10
5.312475647708418
 20
0.0000000000000036
 30
0.0
  0
VERTEX
  5
B51
  8
RULER
 10
5.312475647708418
 20
0.2500000000000071
 30
0.0
  0
SEQEND
  5
E70
  8
RULER
  0
POLYLINE
  5
27D
  8
RULER
 66
     1
 10
0.0
 20
0.0
 30
0.0
  0
VERTEX
  5
B52
  8
RULER
 10
4.812475647708419
 20
0.0000000000000036
 30
0.0
  0
VERTEX
  5
B53
  8
RULER
 10
4.812475647708419
 20
0.2500000000000071
 30
0.0
  0
SEQEND
  5
E71
  8
RULER
  0
POLYLINE
  5
27E
  8
RULER
 66
     1
 10
0.0
 20
0.0
 30
0.0
  0
VERTEX
  5
B54
  8
RULER
 10
4.312475647708421
 20
0.0000000000000036
 30
0.0
  0
VERTEX
  5
B55
  8
RULER
 10
4.312475647708421
 20
0.2500000000000071
 30
0.0
  0
SEQEND
  5
E72
  8
RULER
  0
POLYLINE
  5
27F
  8
RULER
 66
     1
 10
0.0
 20
0.0
 30
0.0
  0
VERTEX
  5
B56
  8
RULER
 10
3.812475647708419
 20
0.0000000000000036
 30
0.0
  0
VERTEX
  5
B57
  8
RULER
 10
3.812475647708419
 20
0.2500000000000071
 30
0.0
  0
SEQEND
  5
E73
  8
RULER
  0
POLYLINE
  5
280
  8
RULER
 66
     1
 10
0.0
 20
0.0
 30
0.0
  0
VERTEX
  5
B58
  8
RULER
 10
3.31247564770842
 20
0.0000000000000036
 30
0.0
  0
VERTEX
  5
B59
  8
RULER
 10
3.31247564770842
 20
0.2500000000000071
 30
0.0
  0
SEQEND
  5
E74
  8
RULER
  0
POLYLINE
  5
281
  8
RULER
 66
     1
 10
0.0
 20
0.0
 30
0.0
  0
VERTEX
  5
B5A
  8
RULER
 10
2.812475647708418
 20
0.0000000000000036
 30
0.0
  0
VERTEX
  5
B5B
  8
RULER
 10
2.812475647708418
 20
0.2500000000000071
 30
0.0
  0
SEQEND
  5
E75
  8
RULER
  0
POLYLINE
  5
282
  8
RULER
 66
     1
 10
0.0
 20
0.0
 30
0.0
  0
VERTEX
  5
B5C
  8
RULER
 10
2.312475647708419
 20
0.000000000000004
 30
0.0
  0
VERTEX
  5
B5D
  8
RULER
 10
2.312475647708419
 20
0.2500000000000075
 30
0.0
  0
SEQEND
  5
E76
  8
RULER
  0
POLYLINE
  5
283
  8
RULER
 66
     1
 10
0.0
 20
0.0
 30
0.0
  0
VERTEX
  5
B5E
  8
RULER
 10
1.812475647708421
 20
0.000000000000004
 30
0.0
  0
VERTEX
  5
B5F
  8
RULER
 10
1.812475647708421
 20
0.2500000000000075
 30
0.0
  0
SEQEND
  5
E77
  8
RULER
  0
POLYLINE
  5
284
  8
RULER
 66
     1
 10
0.0
 20
0.0
 30
0.0
  0
VERTEX
  5
B60
  8
RULER
 10
1.312475647708418
 20
0.000000000000004
 30
0.0
  0
VERTEX
  5
B61
  8
RULER
 10
1.312475647708418
 20
0.2500000000000075
 30
0.0
  0
SEQEND
  5
E78
  8
RULER
  0
POLYLINE
  5
285
  8
RULER
 66
     1
 10
0.0
 20
0.0
 30
0.0
  0
VERTEX
  5
B62
  8
RULER
 10
0.8124756477084194
 20
0.000000000000004
 30
0.0
  0
VERTEX
  5
B63
  8
RULER
 10
0.8124756477084194
 20
0.2500000000000075
 30
0.0
  0
SEQEND
  5
E79
  8
RULER
  0
POLYLINE
  5
286
  8
RULER
 66
     1
 10
0.0
 20
0.0
 30
0.0
  0
VERTEX
  5
B64
  8
RULER
 10
0.3124756477084176
 20
0.000000000000004
 30
0.0
  0
VERTEX
  5
B65
  8
RULER
 10
0.3124756477084176
 20
0.2500000000000075
 30
0.0
  0
SEQEND
  5
E7A
  8
RULER
  0
POLYLINE
  5
287
  8
RULER
 66
     1
 10
0.0
 20
0.0
 30
0.0
  0
VERTEX
  5
B66
  8
RULER
 10
31.93747564770841
 20
0.0
 30
0.0
  0
VERTEX
  5
B67
  8
RULER
 10
31.93747564770841
 20
0.1250000000000018
 30
0.0
  0
SEQEND
  5
E7B
  8
RULER
  0
POLYLINE
  5
288
  8
RULER
 66
     1
 10
0.0
 20
0.0
 30
0.0
  0
VERTEX
  5
B68
  8
RULER
 10
31.68747564770841
 20
0.0
 30
0.0
  0
VERTEX
  5
B69
  8
RULER
 10
31.68747564770841
 20
0.1250000000000018
 30
0.0
  0
SEQEND
  5
E7C
  8
RULER
  0
POLYLINE
  5
289
  8
RULER
 66
     1
 10
0.0
 20
0.0
 30
0.0
  0
VERTEX
  5
B6A
  8
RULER
 10
31.43747564770841
 20
0.0
 30
0.0
  0
VERTEX
  5
B6B
  8
RULER
 10
31.43747564770841
 20
0.1250000000000018
 30
0.0
  0
SEQEND
  5
E7D
  8
RULER
  0
POLYLINE
  5
28A
  8
RULER
 66
     1
 10
0.0
 20
0.0
 30
0.0
  0
VERTEX
  5
B6C
  8
RULER
 10
31.18747564770841
 20
0.0
 30
0.0
  0
VERTEX
  5
B6D
  8
RULER
 10
31.18747564770841
 20
0.1250000000000018
 30
0.0
  0
SEQEND
  5
E7E
  8
RULER
  0
POLYLINE
  5
28B
  8
RULER
 66
     1
 10
0.0
 20
0.0
 30
0.0
  0
VERTEX
  5
B6E
  8
RULER
 10
30.93747564770842
 20
0.0
 30
0.0
  0
VERTEX
  5
B6F
  8
RULER
 10
30.93747564770842
 20
0.1250000000000018
 30
0.0
  0
SEQEND
  5
E7F
  8
RULER
  0
POLYLINE
  5
28C
  8
RULER
 66
     1
 10
0.0
 20
0.0
 30
0.0
  0
VERTEX
  5
B70
  8
RULER
 10
30.68747564770841
 20
0.0
 30
0.0
  0
VERTEX
  5
B71
  8
RULER
 10
30.68747564770841
 20
0.1250000000000018
 30
0.0
  0
SEQEND
  5
E80
  8
RULER
  0
POLYLINE
  5
28D
  8
RULER
 66
     1
 10
0.0
 20
0.0
 30
0.0
  0
VERTEX
  5
B72
  8
RULER
 10
30.43747564770841
 20
0.0
 30
0.0
  0
VERTEX
  5
B73
  8
RULER
 10
30.43747564770841
 20
0.1250000000000018
 30
0.0
  0
SEQEND
  5
E81
  8
RULER
  0
POLYLINE
  5
28E
  8
RULER
 66
     1
 10
0.0
 20
0.0
 30
0.0
  0
VERTEX
  5
B74
  8
RULER
 10
30.18747564770841
 20
0.0
 30
0.0
  0
VERTEX
  5
B75
  8
RULER
 10
30.18747564770841
 20
0.1250000000000018
 30
0.0
  0
SEQEND
  5
E82
  8
RULER
  0
POLYLINE
  5
28F
  8
RULER
 66
     1
 10
0.0
 20
0.0
 30
0.0
  0
VERTEX
  5
B76
  8
RULER
 10
29.93747564770841
 20
0.0
 30
0.0
  0
VERTEX
  5
B77
  8
RULER
 10
29.93747564770841
 20
0.1250000000000018
 30
0.0
  0
SEQEND
  5
E83
  8
RULER
  0
POLYLINE
  5
290
  8
RULER
 66
     1
 10
0.0
 20
0.0
 30
0.0
  0
VERTEX
  5
B78
  8
RULER
 10
29.68747564770841
 20
0.0000000000000009
 30
0.0
  0
VERTEX
  5
B79
  8
RULER
 10
29.68747564770841
 20
0.1250000000000027
 30
0.0
  0
SEQEND
  5
E84
  8
RULER
  0
POLYLINE
  5
291
  8
RULER
 66
     1
 10
0.0
 20
0.0
 30
0.0
  0
VERTEX
  5
B7A
  8
RULER
 10
29.43747564770841
 20
0.0000000000000009
 30
0.0
  0
VERTEX
  5
B7B
  8
RULER
 10
29.43747564770841
 20
0.1250000000000027
 30
0.0
  0
SEQEND
  5
E85
  8
RULER
  0
POLYLINE
  5
292
  8
RULER
 66
     1
 10
0.0
 20
0.0
 30
0.0
  0
VERTEX
  5
B7C
  8
RULER
 10
29.18747564770841
 20
0.0000000000000009
 30
0.0
  0
VERTEX
  5
B7D
  8
RULER
 10
29.18747564770841
 20
0.1250000000000027
 30
0.0
  0
SEQEND
  5
E86
  8
RULER
  0
POLYLINE
  5
293
  8
RULER
 66
     1
 10
0.0
 20
0.0
 30
0.0
  0
VERTEX
  5
B7E
  8
RULER
 10
28.93747564770841
 20
0.0000000000000009
 30
0.0
  0
VERTEX
  5
B7F
  8
RULER
 10
28.93747564770841
 20
0.1250000000000027
 30
0.0
  0
SEQEND
  5
E87
  8
RULER
  0
POLYLINE
  5
294
  8
RULER
 66
     1
 10
0.0
 20
0.0
 30
0.0
  0
VERTEX
  5
B80
  8
RULER
 10
28.68747564770841
 20
0.0000000000000009
 30
0.0
  0
VERTEX
  5
B81
  8
RULER
 10
28.68747564770841
 20
0.1250000000000027
 30
0.0
  0
SEQEND
  5
E88
  8
RULER
  0
POLYLINE
  5
295
  8
RULER
 66
     1
 10
0.0
 20
0.0
 30
0.0
  0
VERTEX
  5
B82
  8
RULER
 10
28.43747564770841
 20
0.0000000000000009
 30
0.0
  0
VERTEX
  5
B83
  8
RULER
 10
28.43747564770841
 20
0.1250000000000027
 30
0.0
  0
SEQEND
  5
E89
  8
RULER
  0
POLYLINE
  5
296
  8
RULER
 66
     1
 10
0.0
 20
0.0
 30
0.0
  0
VERTEX
  5
B84
  8
RULER
 10
28.18747564770841
 20
0.0000000000000009
 30
0.0
  0
VERTEX
  5
B85
  8
RULER
 10
28.18747564770841
 20
0.1250000000000027
 30
0.0
  0
SEQEND
  5
E8A
  8
RULER
  0
POLYLINE
  5
297
  8
RULER
 66
     1
 10
0.0
 20
0.0
 30
0.0
  0
VERTEX
  5
B86
  8
RULER
 10
27.93747564770841
 20
0.0000000000000009
 30
0.0
  0
VERTEX
  5
B87
  8
RULER
 10
27.93747564770841
 20
0.1250000000000027
 30
0.0
  0
SEQEND
  5
E8B
  8
RULER
  0
POLYLINE
  5
298
  8
RULER
 66
     1
 10
0.0
 20
0.0
 30
0.0
  0
VERTEX
  5
B88
  8
RULER
 10
27.68747564770841
 20
0.0000000000000009
 30
0.0
  0
VERTEX
  5
B89
  8
RULER
 10
27.68747564770841
 20
0.1250000000000027
 30
0.0
  0
SEQEND
  5
E8C
  8
RULER
  0
POLYLINE
  5
299
  8
RULER
 66
     1
 10
0.0
 20
0.0
 30
0.0
  0
VERTEX
  5
B8A
  8
RULER
 10
27.43747564770841
 20
0.0000000000000009
 30
0.0
  0
VERTEX
  5
B8B
  8
RULER
 10
27.43747564770841
 20
0.1250000000000027
 30
0.0
  0
SEQEND
  5
E8D
  8
RULER
  0
POLYLINE
  5
29A
  8
RULER
 66
     1
 10
0.0
 20
0.0
 30
0.0
  0
VERTEX
  5
B8C
  8
RULER
 10
27.18747564770841
 20
0.0000000000000009
 30
0.0
  0
VERTEX
  5
B8D
  8
RULER
 10
27.18747564770841
 20
0.1250000000000027
 30
0.0
  0
SEQEND
  5
E8E
  8
RULER
  0
POLYLINE
  5
29B
  8
RULER
 66
     1
 10
0.0
 20
0.0
 30
0.0
  0
VERTEX
  5
B8E
  8
RULER
 10
26.93747564770841
 20
0.0000000000000009
 30
0.0
  0
VERTEX
  5
B8F
  8
RULER
 10
26.93747564770841
 20
0.1250000000000027
 30
0.0
  0
SEQEND
  5
E8F
  8
RULER
  0
POLYLINE
  5
29C
  8
RULER
 66
     1
 10
0.0
 20
0.0
 30
0.0
  0
VERTEX
  5
B90
  8
RULER
 10
26.68747564770841
 20
0.0000000000000009
 30
0.0
  0
VERTEX
  5
B91
  8
RULER
 10
26.68747564770841
 20
0.1250000000000027
 30
0.0
  0
SEQEND
  5
E90
  8
RULER
  0
POLYLINE
  5
29D
  8
RULER
 66
     1
 10
0.0
 20
0.0
 30
0.0
  0
VERTEX
  5
B92
  8
RULER
 10
26.43747564770841
 20
0.0000000000000009
 30
0.0
  0
VERTEX
  5
B93
  8
RULER
 10
26.43747564770841
 20
0.1250000000000027
 30
0.0
  0
SEQEND
  5
E91
  8
RULER
  0
POLYLINE
  5
29E
  8
RULER
 66
     1
 10
0.0
 20
0.0
 30
0.0
  0
VERTEX
  5
B94
  8
RULER
 10
26.18747564770841
 20
0.0000000000000009
 30
0.0
  0
VERTEX
  5
B95
  8
RULER
 10
26.18747564770841
 20
0.1250000000000027
 30
0.0
  0
SEQEND
  5
E92
  8
RULER
  0
POLYLINE
  5
29F
  8
RULER
 66
     1
 10
0.0
 20
0.0
 30
0.0
  0
VERTEX
  5
B96
  8
RULER
 10
25.93747564770841
 20
0.0000000000000009
 30
0.0
  0
VERTEX
  5
B97
  8
RULER
 10
25.93747564770841
 20
0.1250000000000027
 30
0.0
  0
SEQEND
  5
E93
  8
RULER
  0
POLYLINE
  5
2A0
  8
RULER
 66
     1
 10
0.0
 20
0.0
 30
0.0
  0
VERTEX
  5
B98
  8
RULER
 10
25.68747564770841
 20
0.0000000000000009
 30
0.0
  0
VERTEX
  5
B99
  8
RULER
 10
25.68747564770841
 20
0.1250000000000027
 30
0.0
  0
SEQEND
  5
E94
  8
RULER
  0
POLYLINE
  5
2A1
  8
RULER
 66
     1
 10
0.0
 20
0.0
 30
0.0
  0
VERTEX
  5
B9A
  8
RULER
 10
25.43747564770842
 20
0.0000000000000009
 30
0.0
  0
VERTEX
  5
B9B
  8
RULER
 10
25.43747564770842
 20
0.1250000000000027
 30
0.0
  0
SEQEND
  5
E95
  8
RULER
  0
POLYLINE
  5
2A2
  8
RULER
 66
     1
 10
0.0
 20
0.0
 30
0.0
  0
VERTEX
  5
B9C
  8
RULER
 10
25.18747564770842
 20
0.0000000000000013
 30
0.0
  0
VERTEX
  5
B9D
  8
RULER
 10
25.18747564770842
 20
0.1250000000000031
 30
0.0
  0
SEQEND
  5
E96
  8
RULER
  0
POLYLINE
  5
2A3
  8
RULER
 66
     1
 10
0.0
 20
0.0
 30
0.0
  0
VERTEX
  5
B9E
  8
RULER
 10
24.93747564770842
 20
0.0000000000000013
 30
0.0
  0
VERTEX
  5
B9F
  8
RULER
 10
24.93747564770842
 20
0.1250000000000031
 30
0.0
  0
SEQEND
  5
E97
  8
RULER
  0
POLYLINE
  5
2A4
  8
RULER
 66
     1
 10
0.0
 20
0.0
 30
0.0
  0
VERTEX
  5
BA0
  8
RULER
 10
24.68747564770842
 20
0.0000000000000013
 30
0.0
  0
VERTEX
  5
BA1
  8
RULER
 10
24.68747564770842
 20
0.1250000000000031
 30
0.0
  0
SEQEND
  5
E98
  8
RULER
  0
POLYLINE
  5
2A5
  8
RULER
 66
     1
 10
0.0
 20
0.0
 30
0.0
  0
VERTEX
  5
BA2
  8
RULER
 10
24.43747564770841
 20
0.0000000000000013
 30
0.0
  0
VERTEX
  5
BA3
  8
RULER
 10
24.43747564770841
 20
0.1250000000000031
 30
0.0
  0
SEQEND
  5
E99
  8
RULER
  0
POLYLINE
  5
2A6
  8
RULER
 66
     1
 10
0.0
 20
0.0
 30
0.0
  0
VERTEX
  5
BA4
  8
RULER
 10
24.18747564770842
 20
0.0000000000000013
 30
0.0
  0
VERTEX
  5
BA5
  8
RULER
 10
24.18747564770842
 20
0.1250000000000031
 30
0.0
  0
SEQEND
  5
E9A
  8
RULER
  0
POLYLINE
  5
2A7
  8
RULER
 66
     1
 10
0.0
 20
0.0
 30
0.0
  0
VERTEX
  5
BA6
  8
RULER
 10
23.93747564770842
 20
0.0000000000000013
 30
0.0
  0
VERTEX
  5
BA7
  8
RULER
 10
23.93747564770842
 20
0.1250000000000031
 30
0.0
  0
SEQEND
  5
E9B
  8
RULER
  0
POLYLINE
  5
2A8
  8
RULER
 66
     1
 10
0.0
 20
0.0
 30
0.0
  0
VERTEX
  5
BA8
  8
RULER
 10
23.68747564770842
 20
0.0000000000000013
 30
0.0
  0
VERTEX
  5
BA9
  8
RULER
 10
23.68747564770842
 20
0.1250000000000031
 30
0.0
  0
SEQEND
  5
E9C
  8
RULER
  0
POLYLINE
  5
2A9
  8
RULER
 66
     1
 10
0.0
 20
0.0
 30
0.0
  0
VERTEX
  5
BAA
  8
RULER
 10
23.43747564770842
 20
0.0000000000000013
 30
0.0
  0
VERTEX
  5
BAB
  8
RULER
 10
23.43747564770842
 20
0.1250000000000031
 30
0.0
  0
SEQEND
  5
E9D
  8
RULER
  0
POLYLINE
  5
2AA
  8
RULER
 66
     1
 10
0.0
 20
0.0
 30
0.0
  0
VERTEX
  5
BAC
  8
RULER
 10
23.18747564770842
 20
0.0000000000000013
 30
0.0
  0
VERTEX
  5
BAD
  8
RULER
 10
23.18747564770842
 20
0.1250000000000031
 30
0.0
  0
SEQEND
  5
E9E
  8
RULER
  0
POLYLINE
  5
2AB
  8
RULER
 66
     1
 10
0.0
 20
0.0
 30
0.0
  0
VERTEX
  5
BAE
  8
RULER
 10
22.93747564770842
 20
0.0000000000000013
 30
0.0
  0
VERTEX
  5
BAF
  8
RULER
 10
22.93747564770842
 20
0.1250000000000031
 30
0.0
  0
SEQEND
  5
E9F
  8
RULER
  0
POLYLINE
  5
2AC
  8
RULER
 66
     1
 10
0.0
 20
0.0
 30
0.0
  0
VERTEX
  5
BB0
  8
RULER
 10
22.68747564770842
 20
0.0000000000000013
 30
0.0
  0
VERTEX
  5
BB1
  8
RULER
 10
22.68747564770842
 20
0.1250000000000031
 30
0.0
  0
SEQEND
  5
EA0
  8
RULER
  0
POLYLINE
  5
2AD
  8
RULER
 66
     1
 10
0.0
 20
0.0
 30
0.0
  0
VERTEX
  5
BB2
  8
RULER
 10
22.43747564770842
 20
0.0000000000000013
 30
0.0
  0
VERTEX
  5
BB3
  8
RULER
 10
22.43747564770842
 20
0.1250000000000031
 30
0.0
  0
SEQEND
  5
EA1
  8
RULER
  0
POLYLINE
  5
2AE
  8
RULER
 66
     1
 10
0.0
 20
0.0
 30
0.0
  0
VERTEX
  5
BB4
  8
RULER
 10
22.18747564770842
 20
0.0000000000000013
 30
0.0
  0
VERTEX
  5
BB5
  8
RULER
 10
22.18747564770842
 20
0.1250000000000031
 30
0.0
  0
SEQEND
  5
EA2
  8
RULER
  0
POLYLINE
  5
2AF
  8
RULER
 66
     1
 10
0.0
 20
0.0
 30
0.0
  0
VERTEX
  5
BB6
  8
RULER
 10
21.93747564770841
 20
0.0000000000000013
 30
0.0
  0
VERTEX
  5
BB7
  8
RULER
 10
21.93747564770841
 20
0.1250000000000031
 30
0.0
  0
SEQEND
  5
EA3
  8
RULER
  0
POLYLINE
  5
2B0
  8
RULER
 66
     1
 10
0.0
 20
0.0
 30
0.0
  0
VERTEX
  5
BB8
  8
RULER
 10
21.68747564770842
 20
0.0000000000000013
 30
0.0
  0
VERTEX
  5
BB9
  8
RULER
 10
21.68747564770842
 20
0.1250000000000031
 30
0.0
  0
SEQEND
  5
EA4
  8
RULER
  0
POLYLINE
  5
2B1
  8
RULER
 66
     1
 10
0.0
 20
0.0
 30
0.0
  0
VERTEX
  5
BBA
  8
RULER
 10
21.43747564770842
 20
0.0000000000000013
 30
0.0
  0
VERTEX
  5
BBB
  8
RULER
 10
21.43747564770842
 20
0.1250000000000031
 30
0.0
  0
SEQEND
  5
EA5
  8
RULER
  0
POLYLINE
  5
2B2
  8
RULER
 66
     1
 10
0.0
 20
0.0
 30
0.0
  0
VERTEX
  5
BBC
  8
RULER
 10
21.18747564770842
 20
0.0000000000000013
 30
0.0
  0
VERTEX
  5
BBD
  8
RULER
 10
21.18747564770842
 20
0.1250000000000031
 30
0.0
  0
SEQEND
  5
EA6
  8
RULER
  0
POLYLINE
  5
2B3
  8
RULER
 66
     1
 10
0.0
 20
0.0
 30
0.0
  0
VERTEX
  5
BBE
  8
RULER
 10
20.93747564770842
 20
0.0000000000000013
 30
0.0
  0
VERTEX
  5
BBF
  8
RULER
 10
20.93747564770842
 20
0.1250000000000031
 30
0.0
  0
SEQEND
  5
EA7
  8
RULER
  0
POLYLINE
  5
2B4
  8
RULER
 66
     1
 10
0.0
 20
0.0
 30
0.0
  0
VERTEX
  5
BC0
  8
RULER
 10
20.68747564770841
 20
0.0000000000000018
 30
0.0
  0
VERTEX
  5
BC1
  8
RULER
 10
20.68747564770841
 20
0.1250000000000036
 30
0.0
  0
SEQEND
  5
EA8
  8
RULER
  0
POLYLINE
  5
2B5
  8
RULER
 66
     1
 10
0.0
 20
0.0
 30
0.0
  0
VERTEX
  5
BC2
  8
RULER
 10
20.43747564770842
 20
0.0000000000000018
 30
0.0
  0
VERTEX
  5
BC3
  8
RULER
 10
20.43747564770842
 20
0.1250000000000036
 30
0.0
  0
SEQEND
  5
EA9
  8
RULER
  0
POLYLINE
  5
2B6
  8
RULER
 66
     1
 10
0.0
 20
0.0
 30
0.0
  0
VERTEX
  5
BC4
  8
RULER
 10
20.18747564770842
 20
0.0000000000000018
 30
0.0
  0
VERTEX
  5
BC5
  8
RULER
 10
20.18747564770842
 20
0.1250000000000036
 30
0.0
  0
SEQEND
  5
EAA
  8
RULER
  0
POLYLINE
  5
2B7
  8
RULER
 66
     1
 10
0.0
 20
0.0
 30
0.0
  0
VERTEX
  5
BC6
  8
RULER
 10
19.93747564770842
 20
0.0000000000000018
 30
0.0
  0
VERTEX
  5
BC7
  8
RULER
 10
19.93747564770842
 20
0.1250000000000036
 30
0.0
  0
SEQEND
  5
EAB
  8
RULER
  0
POLYLINE
  5
2B8
  8
RULER
 66
     1
 10
0.0
 20
0.0
 30
0.0
  0
VERTEX
  5
BC8
  8
RULER
 10
19.68747564770842
 20
0.0000000000000018
 30
0.0
  0
VERTEX
  5
BC9
  8
RULER
 10
19.68747564770842
 20
0.1250000000000036
 30
0.0
  0
SEQEND
  5
EAC
  8
RULER
  0
POLYLINE
  5
2B9
  8
RULER
 66
     1
 10
0.0
 20
0.0
 30
0.0
  0
VERTEX
  5
BCA
  8
RULER
 10
19.43747564770842
 20
0.0000000000000018
 30
0.0
  0
VERTEX
  5
BCB
  8
RULER
 10
19.43747564770842
 20
0.1250000000000036
 30
0.0
  0
SEQEND
  5
EAD
  8
RULER
  0
POLYLINE
  5
2BA
  8
RULER
 66
     1
 10
0.0
 20
0.0
 30
0.0
  0
VERTEX
  5
BCC
  8
RULER
 10
19.18747564770842
 20
0.0000000000000018
 30
0.0
  0
VERTEX
  5
BCD
  8
RULER
 10
19.18747564770842
 20
0.1250000000000036
 30
0.0
  0
SEQEND
  5
EAE
  8
RULER
  0
POLYLINE
  5
2BB
  8
RULER
 66
     1
 10
0.0
 20
0.0
 30
0.0
  0
VERTEX
  5
BCE
  8
RULER
 10
18.93747564770842
 20
0.0000000000000018
 30
0.0
  0
VERTEX
  5
BCF
  8
RULER
 10
18.93747564770842
 20
0.1250000000000036
 30
0.0
  0
SEQEND
  5
EAF
  8
RULER
  0
POLYLINE
  5
2BC
  8
RULER
 66
     1
 10
0.0
 20
0.0
 30
0.0
  0
VERTEX
  5
BD0
  8
RULER
 10
18.68747564770842
 20
0.0000000000000018
 30
0.0
  0
VERTEX
  5
BD1
  8
RULER
 10
18.68747564770842
 20
0.1250000000000036
 30
0.0
  0
SEQEND
  5
EB0
  8
RULER
  0
POLYLINE
  5
2BD
  8
RULER
 66
     1
 10
0.0
 20
0.0
 30
0.0
  0
VERTEX
  5
BD2
  8
RULER
 10
18.43747564770842
 20
0.0000000000000018
 30
0.0
  0
VERTEX
  5
BD3
  8
RULER
 10
18.43747564770842
 20
0.1250000000000036
 30
0.0
  0
SEQEND
  5
EB1
  8
RULER
  0
POLYLINE
  5
2BE
  8
RULER
 66
     1
 10
0.0
 20
0.0
 30
0.0
  0
VERTEX
  5
BD4
  8
RULER
 10
18.18747564770842
 20
0.0000000000000018
 30
0.0
  0
VERTEX
  5
BD5
  8
RULER
 10
18.18747564770842
 20
0.1250000000000036
 30
0.0
  0
SEQEND
  5
EB2
  8
RULER
  0
POLYLINE
  5
2BF
  8
RULER
 66
     1
 10
0.0
 20
0.0
 30
0.0
  0
VERTEX
  5
BD6
  8
RULER
 10
17.93747564770842
 20
0.0000000000000018
 30
0.0
  0
VERTEX
  5
BD7
  8
RULER
 10
17.93747564770842
 20
0.1250000000000036
 30
0.0
  0
SEQEND
  5
EB3
  8
RULER
  0
POLYLINE
  5
2C0
  8
RULER
 66
     1
 10
0.0
 20
0.0
 30
0.0
  0
VERTEX
  5
BD8
  8
RULER
 10
17.68747564770842
 20
0.0000000000000018
 30
0.0
  0
VERTEX
  5
BD9
  8
RULER
 10
17.68747564770842
 20
0.1250000000000036
 30
0.0
  0
SEQEND
  5
EB4
  8
RULER
  0
POLYLINE
  5
2C1
  8
RULER
 66
     1
 10
0.0
 20
0.0
 30
0.0
  0
VERTEX
  5
BDA
  8
RULER
 10
17.43747564770842
 20
0.0000000000000018
 30
0.0
  0
VERTEX
  5
BDB
  8
RULER
 10
17.43747564770842
 20
0.1250000000000036
 30
0.0
  0
SEQEND
  5
EB5
  8
RULER
  0
POLYLINE
  5
2C2
  8
RULER
 66
     1
 10
0.0
 20
0.0
 30
0.0
  0
VERTEX
  5
BDC
  8
RULER
 10
17.18747564770842
 20
0.0000000000000018
 30
0.0
  0
VERTEX
  5
BDD
  8
RULER
 10
17.18747564770842
 20
0.1250000000000036
 30
0.0
  0
SEQEND
  5
EB6
  8
RULER
  0
POLYLINE
  5
2C3
  8
RULER
 66
     1
 10
0.0
 20
0.0
 30
0.0
  0
VERTEX
  5
BDE
  8
RULER
 10
16.93747564770842
 20
0.0000000000000018
 30
0.0
  0
VERTEX
  5
BDF
  8
RULER
 10
16.93747564770842
 20
0.1250000000000036
 30
0.0
  0
SEQEND
  5
EB7
  8
RULER
  0
POLYLINE
  5
2C4
  8
RULER
 66
     1
 10
0.0
 20
0.0
 30
0.0
  0
VERTEX
  5
BE0
  8
RULER
 10
16.68747564770842
 20
0.0000000000000018
 30
0.0
  0
VERTEX
  5
BE1
  8
RULER
 10
16.68747564770842
 20
0.1250000000000036
 30
0.0
  0
SEQEND
  5
EB8
  8
RULER
  0
POLYLINE
  5
2C5
  8
RULER
 66
     1
 10
0.0
 20
0.0
 30
0.0
  0
VERTEX
  5
BE2
  8
RULER
 10
16.43747564770842
 20
0.0000000000000018
 30
0.0
  0
VERTEX
  5
BE3
  8
RULER
 10
16.43747564770842
 20
0.1250000000000036
 30
0.0
  0
SEQEND
  5
EB9
  8
RULER
  0
POLYLINE
  5
2C6
  8
RULER
 66
     1
 10
0.0
 20
0.0
 30
0.0
  0
VERTEX
  5
BE4
  8
RULER
 10
16.18747564770842
 20
0.0000000000000022
 30
0.0
  0
VERTEX
  5
BE5
  8
RULER
 10
16.18747564770842
 20
0.125000000000004
 30
0.0
  0
SEQEND
  5
EBA
  8
RULER
  0
POLYLINE
  5
2C7
  8
RULER
 66
     1
 10
0.0
 20
0.0
 30
0.0
  0
VERTEX
  5
BE6
  8
RULER
 10
15.93747564770842
 20
0.0000000000000022
 30
0.0
  0
VERTEX
  5
BE7
  8
RULER
 10
15.93747564770842
 20
0.125000000000004
 30
0.0
  0
SEQEND
  5
EBB
  8
RULER
  0
POLYLINE
  5
2C8
  8
RULER
 66
     1
 10
0.0
 20
0.0
 30
0.0
  0
VERTEX
  5
BE8
  8
RULER
 10
15.68747564770842
 20
0.0000000000000022
 30
0.0
  0
VERTEX
  5
BE9
  8
RULER
 10
15.68747564770842
 20
0.125000000000004
 30
0.0
  0
SEQEND
  5
EBC
  8
RULER
  0
POLYLINE
  5
2C9
  8
RULER
 66
     1
 10
0.0
 20
0.0
 30
0.0
  0
VERTEX
  5
BEA
  8
RULER
 10
15.43747564770842
 20
0.0000000000000022
 30
0.0
  0
VERTEX
  5
BEB
  8
RULER
 10
15.43747564770842
 20
0.125000000000004
 30
0.0
  0
SEQEND
  5
EBD
  8
RULER
  0
POLYLINE
  5
2CA
  8
RULER
 66
     1
 10
0.0
 20
0.0
 30
0.0
  0
VERTEX
  5
BEC
  8
RULER
 10
15.18747564770842
 20
0.0000000000000022
 30
0.0
  0
VERTEX
  5
BED
  8
RULER
 10
15.18747564770842
 20
0.125000000000004
 30
0.0
  0
SEQEND
  5
EBE
  8
RULER
  0
POLYLINE
  5
2CB
  8
RULER
 66
     1
 10
0.0
 20
0.0
 30
0.0
  0
VERTEX
  5
BEE
  8
RULER
 10
14.93747564770842
 20
0.0000000000000022
 30
0.0
  0
VERTEX
  5
BEF
  8
RULER
 10
14.93747564770842
 20
0.125000000000004
 30
0.0
  0
SEQEND
  5
EBF
  8
RULER
  0
POLYLINE
  5
2CC
  8
RULER
 66
     1
 10
0.0
 20
0.0
 30
0.0
  0
VERTEX
  5
BF0
  8
RULER
 10
14.68747564770842
 20
0.0000000000000022
 30
0.0
  0
VERTEX
  5
BF1
  8
RULER
 10
14.68747564770842
 20
0.125000000000004
 30
0.0
  0
SEQEND
  5
EC0
  8
RULER
  0
POLYLINE
  5
2CD
  8
RULER
 66
     1
 10
0.0
 20
0.0
 30
0.0
  0
VERTEX
  5
BF2
  8
RULER
 10
14.43747564770842
 20
0.0000000000000022
 30
0.0
  0
VERTEX
  5
BF3
  8
RULER
 10
14.43747564770842
 20
0.125000000000004
 30
0.0
  0
SEQEND
  5
EC1
  8
RULER
  0
POLYLINE
  5
2CE
  8
RULER
 66
     1
 10
0.0
 20
0.0
 30
0.0
  0
VERTEX
  5
BF4
  8
RULER
 10
14.18747564770842
 20
0.0000000000000022
 30
0.0
  0
VERTEX
  5
BF5
  8
RULER
 10
14.18747564770842
 20
0.125000000000004
 30
0.0
  0
SEQEND
  5
EC2
  8
RULER
  0
POLYLINE
  5
2CF
  8
RULER
 66
     1
 10
0.0
 20
0.0
 30
0.0
  0
VERTEX
  5
BF6
  8
RULER
 10
13.93747564770842
 20
0.0000000000000022
 30
0.0
  0
VERTEX
  5
BF7
  8
RULER
 10
13.93747564770842
 20
0.125000000000004
 30
0.0
  0
SEQEND
  5
EC3
  8
RULER
  0
POLYLINE
  5
2D0
  8
RULER
 66
     1
 10
0.0
 20
0.0
 30
0.0
  0
VERTEX
  5
BF8
  8
RULER
 10
13.68747564770842
 20
0.0000000000000022
 30
0.0
  0
VERTEX
  5
BF9
  8
RULER
 10
13.68747564770842
 20
0.125000000000004
 30
0.0
  0
SEQEND
  5
EC4
  8
RULER
  0
POLYLINE
  5
2D1
  8
RULER
 66
     1
 10
0.0
 20
0.0
 30
0.0
  0
VERTEX
  5
BFA
  8
RULER
 10
13.43747564770842
 20
0.0000000000000022
 30
0.0
  0
VERTEX
  5
BFB
  8
RULER
 10
13.43747564770842
 20
0.125000000000004
 30
0.0
  0
SEQEND
  5
EC5
  8
RULER
  0
POLYLINE
  5
2D2
  8
RULER
 66
     1
 10
0.0
 20
0.0
 30
0.0
  0
VERTEX
  5
BFC
  8
RULER
 10
13.18747564770842
 20
0.0000000000000022
 30
0.0
  0
VERTEX
  5
BFD
  8
RULER
 10
13.18747564770842
 20
0.125000000000004
 30
0.0
  0
SEQEND
  5
EC6
  8
RULER
  0
POLYLINE
  5
2D3
  8
RULER
 66
     1
 10
0.0
 20
0.0
 30
0.0
  0
VERTEX
  5
BFE
  8
RULER
 10
12.93747564770842
 20
0.0000000000000022
 30
0.0
  0
VERTEX
  5
BFF
  8
RULER
 10
12.93747564770842
 20
0.125000000000004
 30
0.0
  0
SEQEND
  5
EC7
  8
RULER
  0
POLYLINE
  5
2D4
  8
RULER
 66
     1
 10
0.0
 20
0.0
 30
0.0
  0
VERTEX
  5
C00
  8
RULER
 10
12.68747564770842
 20
0.0000000000000022
 30
0.0
  0
VERTEX
  5
C01
  8
RULER
 10
12.68747564770842
 20
0.125000000000004
 30
0.0
  0
SEQEND
  5
EC8
  8
RULER
  0
POLYLINE
  5
2D5
  8
RULER
 66
     1
 10
0.0
 20
0.0
 30
0.0
  0
VERTEX
  5
C02
  8
RULER
 10
12.43747564770842
 20
0.0000000000000022
 30
0.0
  0
VERTEX
  5
C03
  8
RULER
 10
12.43747564770842
 20
0.125000000000004
 30
0.0
  0
SEQEND
  5
EC9
  8
RULER
  0
POLYLINE
  5
2D6
  8
RULER
 66
     1
 10
0.0
 20
0.0
 30
0.0
  0
VERTEX
  5
C04
  8
RULER
 10
12.18747564770842
 20
0.0000000000000022
 30
0.0
  0
VERTEX
  5
C05
  8
RULER
 10
12.18747564770842
 20
0.125000000000004
 30
0.0
  0
SEQEND
  5
ECA
  8
RULER
  0
POLYLINE
  5
2D7
  8
RULER
 66
     1
 10
0.0
 20
0.0
 30
0.0
  0
VERTEX
  5
C06
  8
RULER
 10
11.93747564770842
 20
0.0000000000000022
 30
0.0
  0
VERTEX
  5
C07
  8
RULER
 10
11.93747564770842
 20
0.125000000000004
 30
0.0
  0
SEQEND
  5
ECB
  8
RULER
  0
POLYLINE
  5
2D8
  8
RULER
 66
     1
 10
0.0
 20
0.0
 30
0.0
  0
VERTEX
  5
C08
  8
RULER
 10
11.68747564770842
 20
0.0000000000000022
 30
0.0
  0
VERTEX
  5
C09
  8
RULER
 10
11.68747564770842
 20
0.125000000000004
 30
0.0
  0
SEQEND
  5
ECC
  8
RULER
  0
POLYLINE
  5
2D9
  8
RULER
 66
     1
 10
0.0
 20
0.0
 30
0.0
  0
VERTEX
  5
C0A
  8
RULER
 10
11.43747564770842
 20
0.0000000000000031
 30
0.0
  0
VERTEX
  5
C0B
  8
RULER
 10
11.43747564770842
 20
0.1250000000000049
 30
0.0
  0
SEQEND
  5
ECD
  8
RULER
  0
POLYLINE
  5
2DA
  8
RULER
 66
     1
 10
0.0
 20
0.0
 30
0.0
  0
VERTEX
  5
C0C
  8
RULER
 10
11.18747564770842
 20
0.0000000000000031
 30
0.0
  0
VERTEX
  5
C0D
  8
RULER
 10
11.18747564770842
 20
0.1250000000000049
 30
0.0
  0
SEQEND
  5
ECE
  8
RULER
  0
POLYLINE
  5
2DB
  8
RULER
 66
     1
 10
0.0
 20
0.0
 30
0.0
  0
VERTEX
  5
C0E
  8
RULER
 10
10.93747564770842
 20
0.0000000000000031
 30
0.0
  0
VERTEX
  5
C0F
  8
RULER
 10
10.93747564770842
 20
0.1250000000000049
 30
0.0
  0
SEQEND
  5
ECF
  8
RULER
  0
POLYLINE
  5
2DC
  8
RULER
 66
     1
 10
0.0
 20
0.0
 30
0.0
  0
VERTEX
  5
C10
  8
RULER
 10
10.68747564770842
 20
0.0000000000000031
 30
0.0
  0
VERTEX
  5
C11
  8
RULER
 10
10.68747564770842
 20
0.1250000000000049
 30
0.0
  0
SEQEND
  5
ED0
  8
RULER
  0
POLYLINE
  5
2DD
  8
RULER
 66
     1
 10
0.0
 20
0.0
 30
0.0
  0
VERTEX
  5
C12
  8
RULER
 10
10.43747564770842
 20
0.0000000000000031
 30
0.0
  0
VERTEX
  5
C13
  8
RULER
 10
10.43747564770842
 20
0.1250000000000049
 30
0.0
  0
SEQEND
  5
ED1
  8
RULER
  0
POLYLINE
  5
2DE
  8
RULER
 66
     1
 10
0.0
 20
0.0
 30
0.0
  0
VERTEX
  5
C14
  8
RULER
 10
10.18747564770842
 20
0.0000000000000031
 30
0.0
  0
VERTEX
  5
C15
  8
RULER
 10
10.18747564770842
 20
0.1250000000000049
 30
0.0
  0
SEQEND
  5
ED2
  8
RULER
  0
POLYLINE
  5
2DF
  8
RULER
 66
     1
 10
0.0
 20
0.0
 30
0.0
  0
VERTEX
  5
C16
  8
RULER
 10
9.937475647708418
 20
0.0000000000000031
 30
0.0
  0
VERTEX
  5
C17
  8
RULER
 10
9.937475647708418
 20
0.1250000000000049
 30
0.0
  0
SEQEND
  5
ED3
  8
RULER
  0
POLYLINE
  5
2E0
  8
RULER
 66
     1
 10
0.0
 20
0.0
 30
0.0
  0
VERTEX
  5
C18
  8
RULER
 10
9.68747564770842
 20
0.0000000000000031
 30
0.0
  0
VERTEX
  5
C19
  8
RULER
 10
9.68747564770842
 20
0.1250000000000049
 30
0.0
  0
SEQEND
  5
ED4
  8
RULER
  0
POLYLINE
  5
2E1
  8
RULER
 66
     1
 10
0.0
 20
0.0
 30
0.0
  0
VERTEX
  5
C1A
  8
RULER
 10
9.43747564770842
 20
0.0000000000000031
 30
0.0
  0
VERTEX
  5
C1B
  8
RULER
 10
9.43747564770842
 20
0.1250000000000049
 30
0.0
  0
SEQEND
  5
ED5
  8
RULER
  0
POLYLINE
  5
2E2
  8
RULER
 66
     1
 10
0.0
 20
0.0
 30
0.0
  0
VERTEX
  5
C1C
  8
RULER
 10
9.187475647708421
 20
0.0000000000000031
 30
0.0
  0
VERTEX
  5
C1D
  8
RULER
 10
9.187475647708421
 20
0.1250000000000049
 30
0.0
  0
SEQEND
  5
ED6
  8
RULER
  0
POLYLINE
  5
2E3
  8
RULER
 66
     1
 10
0.0
 20
0.0
 30
0.0
  0
VERTEX
  5
C1E
  8
RULER
 10
8.937475647708421
 20
0.0000000000000031
 30
0.0
  0
VERTEX
  5
C1F
  8
RULER
 10
8.937475647708421
 20
0.1250000000000049
 30
0.0
  0
SEQEND
  5
ED7
  8
RULER
  0
POLYLINE
  5
2E4
  8
RULER
 66
     1
 10
0.0
 20
0.0
 30
0.0
  0
VERTEX
  5
C20
  8
RULER
 10
8.687475647708418
 20
0.0000000000000031
 30
0.0
  0
VERTEX
  5
C21
  8
RULER
 10
8.687475647708418
 20
0.1250000000000049
 30
0.0
  0
SEQEND
  5
ED8
  8
RULER
  0
POLYLINE
  5
2E5
  8
RULER
 66
     1
 10
0.0
 20
0.0
 30
0.0
  0
VERTEX
  5
C22
  8
RULER
 10
8.43747564770842
 20
0.0000000000000031
 30
0.0
  0
VERTEX
  5
C23
  8
RULER
 10
8.43747564770842
 20
0.1250000000000049
 30
0.0
  0
SEQEND
  5
ED9
  8
RULER
  0
POLYLINE
  5
2E6
  8
RULER
 66
     1
 10
0.0
 20
0.0
 30
0.0
  0
VERTEX
  5
C24
  8
RULER
 10
8.18747564770842
 20
0.0000000000000031
 30
0.0
  0
VERTEX
  5
C25
  8
RULER
 10
8.18747564770842
 20
0.1250000000000049
 30
0.0
  0
SEQEND
  5
EDA
  8
RULER
  0
POLYLINE
  5
2E7
  8
RULER
 66
     1
 10
0.0
 20
0.0
 30
0.0
  0
VERTEX
  5
C26
  8
RULER
 10
7.93747564770842
 20
0.0000000000000031
 30
0.0
  0
VERTEX
  5
C27
  8
RULER
 10
7.93747564770842
 20
0.1250000000000049
 30
0.0
  0
SEQEND
  5
EDB
  8
RULER
  0
POLYLINE
  5
2E8
  8
RULER
 66
     1
 10
0.0
 20
0.0
 30
0.0
  0
VERTEX
  5
C28
  8
RULER
 10
7.687475647708421
 20
0.0000000000000031
 30
0.0
  0
VERTEX
  5
C29
  8
RULER
 10
7.687475647708421
 20
0.1250000000000049
 30
0.0
  0
SEQEND
  5
EDC
  8
RULER
  0
POLYLINE
  5
2E9
  8
RULER
 66
     1
 10
0.0
 20
0.0
 30
0.0
  0
VERTEX
  5
C2A
  8
RULER
 10
7.437475647708417
 20
0.0000000000000031
 30
0.0
  0
VERTEX
  5
C2B
  8
RULER
 10
7.437475647708417
 20
0.1250000000000049
 30
0.0
  0
SEQEND
  5
EDD
  8
RULER
  0
POLYLINE
  5
2EA
  8
RULER
 66
     1
 10
0.0
 20
0.0
 30
0.0
  0
VERTEX
  5
C2C
  8
RULER
 10
7.187475647708418
 20
0.0000000000000031
 30
0.0
  0
VERTEX
  5
C2D
  8
RULER
 10
7.187475647708418
 20
0.1250000000000049
 30
0.0
  0
SEQEND
  5
EDE
  8
RULER
  0
POLYLINE
  5
2EB
  8
RULER
 66
     1
 10
0.0
 20
0.0
 30
0.0
  0
VERTEX
  5
C2E
  8
RULER
 10
6.937475647708419
 20
0.0000000000000036
 30
0.0
  0
VERTEX
  5
C2F
  8
RULER
 10
6.937475647708419
 20
0.1250000000000053
 30
0.0
  0
SEQEND
  5
EDF
  8
RULER
  0
POLYLINE
  5
2EC
  8
RULER
 66
     1
 10
0.0
 20
0.0
 30
0.0
  0
VERTEX
  5
C30
  8
RULER
 10
6.687475647708419
 20
0.0000000000000036
 30
0.0
  0
VERTEX
  5
C31
  8
RULER
 10
6.687475647708419
 20
0.1250000000000053
 30
0.0
  0
SEQEND
  5
EE0
  8
RULER
  0
POLYLINE
  5
2ED
  8
RULER
 66
     1
 10
0.0
 20
0.0
 30
0.0
  0
VERTEX
  5
C32
  8
RULER
 10
6.43747564770842
 20
0.0000000000000036
 30
0.0
  0
VERTEX
  5
C33
  8
RULER
 10
6.43747564770842
 20
0.1250000000000053
 30
0.0
  0
SEQEND
  5
EE1
  8
RULER
  0
POLYLINE
  5
2EE
  8
RULER
 66
     1
 10
0.0
 20
0.0
 30
0.0
  0
VERTEX
  5
C34
  8
RULER
 10
6.187475647708417
 20
0.0000000000000036
 30
0.0
  0
VERTEX
  5
C35
  8
RULER
 10
6.187475647708417
 20
0.1250000000000053
 30
0.0
  0
SEQEND
  5
EE2
  8
RULER
  0
POLYLINE
  5
2EF
  8
RULER
 66
     1
 10
0.0
 20
0.0
 30
0.0
  0
VERTEX
  5
C36
  8
RULER
 10
5.937475647708418
 20
0.0000000000000036
 30
0.0
  0
VERTEX
  5
C37
  8
RULER
 10
5.937475647708418
 20
0.1250000000000053
 30
0.0
  0
SEQEND
  5
EE3
  8
RULER
  0
POLYLINE
  5
2F0
  8
RULER
 66
     1
 10
0.0
 20
0.0
 30
0.0
  0
VERTEX
  5
C38
  8
RULER
 10
5.687475647708419
 20
0.0000000000000036
 30
0.0
  0
VERTEX
  5
C39
  8
RULER
 10
5.687475647708419
 20
0.1250000000000053
 30
0.0
  0
SEQEND
  5
EE4
  8
RULER
  0
POLYLINE
  5
2F1
  8
RULER
 66
     1
 10
0.0
 20
0.0
 30
0.0
  0
VERTEX
  5
C3A
  8
RULER
 10
5.437475647708419
 20
0.0000000000000036
 30
0.0
  0
VERTEX
  5
C3B
  8
RULER
 10
5.437475647708419
 20
0.1250000000000053
 30
0.0
  0
SEQEND
  5
EE5
  8
RULER
  0
POLYLINE
  5
2F2
  8
RULER
 66
     1
 10
0.0
 20
0.0
 30
0.0
  0
VERTEX
  5
C3C
  8
RULER
 10
5.18747564770842
 20
0.0000000000000036
 30
0.0
  0
VERTEX
  5
C3D
  8
RULER
 10
5.18747564770842
 20
0.1250000000000053
 30
0.0
  0
SEQEND
  5
EE6
  8
RULER
  0
POLYLINE
  5
2F3
  8
RULER
 66
     1
 10
0.0
 20
0.0
 30
0.0
  0
VERTEX
  5
C3E
  8
RULER
 10
4.937475647708421
 20
0.0000000000000036
 30
0.0
  0
VERTEX
  5
C3F
  8
RULER
 10
4.937475647708421
 20
0.1250000000000053
 30
0.0
  0
SEQEND
  5
EE7
  8
RULER
  0
POLYLINE
  5
2F4
  8
RULER
 66
     1
 10
0.0
 20
0.0
 30
0.0
  0
VERTEX
  5
C40
  8
RULER
 10
4.687475647708418
 20
0.0000000000000036
 30
0.0
  0
VERTEX
  5
C41
  8
RULER
 10
4.687475647708418
 20
0.1250000000000053
 30
0.0
  0
SEQEND
  5
EE8
  8
RULER
  0
POLYLINE
  5
2F5
  8
RULER
 66
     1
 10
0.0
 20
0.0
 30
0.0
  0
VERTEX
  5
C42
  8
RULER
 10
4.437475647708419
 20
0.0000000000000036
 30
0.0
  0
VERTEX
  5
C43
  8
RULER
 10
4.437475647708419
 20
0.1250000000000053
 30
0.0
  0
SEQEND
  5
EE9
  8
RULER
  0
POLYLINE
  5
2F6
  8
RULER
 66
     1
 10
0.0
 20
0.0
 30
0.0
  0
VERTEX
  5
C44
  8
RULER
 10
4.187475647708419
 20
0.0000000000000036
 30
0.0
  0
VERTEX
  5
C45
  8
RULER
 10
4.187475647708419
 20
0.1250000000000053
 30
0.0
  0
SEQEND
  5
EEA
  8
RULER
  0
POLYLINE
  5
2F7
  8
RULER
 66
     1
 10
0.0
 20
0.0
 30
0.0
  0
VERTEX
  5
C46
  8
RULER
 10
3.937475647708421
 20
0.0000000000000036
 30
0.0
  0
VERTEX
  5
C47
  8
RULER
 10
3.937475647708421
 20
0.1250000000000053
 30
0.0
  0
SEQEND
  5
EEB
  8
RULER
  0
POLYLINE
  5
2F8
  8
RULER
 66
     1
 10
0.0
 20
0.0
 30
0.0
  0
VERTEX
  5
C48
  8
RULER
 10
3.687475647708421
 20
0.0000000000000036
 30
0.0
  0
VERTEX
  5
C49
  8
RULER
 10
3.687475647708421
 20
0.1250000000000053
 30
0.0
  0
SEQEND
  5
EEC
  8
RULER
  0
POLYLINE
  5
2F9
  8
RULER
 66
     1
 10
0.0
 20
0.0
 30
0.0
  0
VERTEX
  5
C4A
  8
RULER
 10
3.437475647708418
 20
0.0000000000000036
 30
0.0
  0
VERTEX
  5
C4B
  8
RULER
 10
3.437475647708418
 20
0.1250000000000053
 30
0.0
  0
SEQEND
  5
EED
  8
RULER
  0
POLYLINE
  5
2FA
  8
RULER
 66
     1
 10
0.0
 20
0.0
 30
0.0
  0
VERTEX
  5
C4C
  8
RULER
 10
3.187475647708419
 20
0.0000000000000036
 30
0.0
  0
VERTEX
  5
C4D
  8
RULER
 10
3.187475647708419
 20
0.1250000000000053
 30
0.0
  0
SEQEND
  5
EEE
  8
RULER
  0
POLYLINE
  5
2FB
  8
RULER
 66
     1
 10
0.0
 20
0.0
 30
0.0
  0
VERTEX
  5
C4E
  8
RULER
 10
2.937475647708419
 20
0.0000000000000036
 30
0.0
  0
VERTEX
  5
C4F
  8
RULER
 10
2.937475647708419
 20
0.1250000000000053
 30
0.0
  0
SEQEND
  5
EEF
  8
RULER
  0
POLYLINE
  5
2FC
  8
RULER
 66
     1
 10
0.0
 20
0.0
 30
0.0
  0
VERTEX
  5
C50
  8
RULER
 10
2.68747564770842
 20
0.0000000000000036
 30
0.0
  0
VERTEX
  5
C51
  8
RULER
 10
2.68747564770842
 20
0.1250000000000053
 30
0.0
  0
SEQEND
  5
EF0
  8
RULER
  0
POLYLINE
  5
2FD
  8
RULER
 66
     1
 10
0.0
 20
0.0
 30
0.0
  0
VERTEX
  5
C52
  8
RULER
 10
2.437475647708421
 20
0.000000000000004
 30
0.0
  0
VERTEX
  5
C53
  8
RULER
 10
2.437475647708421
 20
0.1250000000000058
 30
0.0
  0
SEQEND
  5
EF1
  8
RULER
  0
POLYLINE
  5
2FE
  8
RULER
 66
     1
 10
0.0
 20
0.0
 30
0.0
  0
VERTEX
  5
C54
  8
RULER
 10
2.187475647708418
 20
0.000000000000004
 30
0.0
  0
VERTEX
  5
C55
  8
RULER
 10
2.187475647708418
 20
0.1250000000000058
 30
0.0
  0
SEQEND
  5
EF2
  8
RULER
  0
POLYLINE
  5
2FF
  8
RULER
 66
     1
 10
0.0
 20
0.0
 30
0.0
  0
VERTEX
  5
C56
  8
RULER
 10
1.937475647708419
 20
0.000000000000004
 30
0.0
  0
VERTEX
  5
C57
  8
RULER
 10
1.937475647708419
 20
0.1250000000000058
 30
0.0
  0
SEQEND
  5
EF3
  8
RULER
  0
POLYLINE
  5
300
  8
RULER
 66
     1
 10
0.0
 20
0.0
 30
0.0
  0
VERTEX
  5
C58
  8
RULER
 10
1.687475647708419
 20
0.000000000000004
 30
0.0
  0
VERTEX
  5
C59
  8
RULER
 10
1.687475647708419
 20
0.1250000000000058
 30
0.0
  0
SEQEND
  5
EF4
  8
RULER
  0
POLYLINE
  5
301
  8
RULER
 66
     1
 10
0.0
 20
0.0
 30
0.0
  0
VERTEX
  5
C5A
  8
RULER
 10
1.437475647708419
 20
0.000000000000004
 30
0.0
  0
VERTEX
  5
C5B
  8
RULER
 10
1.437475647708419
 20
0.1250000000000058
 30
0.0
  0
SEQEND
  5
EF5
  8
RULER
  0
POLYLINE
  5
302
  8
RULER
 66
     1
 10
0.0
 20
0.0
 30
0.0
  0
VERTEX
  5
C5C
  8
RULER
 10
1.187475647708421
 20
0.000000000000004
 30
0.0
  0
VERTEX
  5
C5D
  8
RULER
 10
1.187475647708421
 20
0.1250000000000058
 30
0.0
  0
SEQEND
  5
EF6
  8
RULER
  0
POLYLINE
  5
303
  8
RULER
 66
     1
 10
0.0
 20
0.0
 30
0.0
  0
VERTEX
  5
C5E
  8
RULER
 10
0.9374756477084176
 20
0.000000000000004
 30
0.0
  0
VERTEX
  5
C5F
  8
RULER
 10
0.9374756477084176
 20
0.1250000000000058
 30
0.0
  0
SEQEND
  5
EF7
  8
RULER
  0
POLYLINE
  5
304
  8
RULER
 66
     1
 10
0.0
 20
0.0
 30
0.0
  0
VERTEX
  5
C60
  8
RULER
 10
0.6874756477084176
 20
0.000000000000004
 30
0.0
  0
VERTEX
  5
C61
  8
RULER
 10
0.6874756477084176
 20
0.1250000000000058
 30
0.0
  0
SEQEND
  5
EF8
  8
RULER
  0
POLYLINE
  5
305
  8
RULER
 66
     1
 10
0.0
 20
0.0
 30
0.0
  0
VERTEX
  5
C62
  8
RULER
 10
0.4374756477084194
 20
0.000000000000004
 30
0.0
  0
VERTEX
  5
C63
  8
RULER
 10
0.4374756477084194
 20
0.1250000000000058
 30
0.0
  0
SEQEND
  5
EF9
  8
RULER
  0
POLYLINE
  5
306
  8
RULER
 66
     1
 10
0.0
 20
0.0
 30
0.0
  0
VERTEX
  5
C64
  8
RULER
 10
0.1874756477084194
 20
0.000000000000004
 30
0.0
  0
VERTEX
  5
C65
  8
RULER
 10
0.1874756477084194
 20
0.1250000000000058
 30
0.0
  0
SEQEND
  5
EFA
  8
RULER
  0
ENDSEC
  0
EOF
