  0
SECTION
  2
HEADER
  9
$ACADVER
  1
AC1009
  9
$EXTMIN
 10
-0.14126760
 20
-0.00098038
 30
0.0
  9
$EXTMAX
 10
31.99994636
 20
31.99901962
 30
0.0
  0
ENDSEC
  0
SECTION
  2
TABLES
  0
TABLE
  2
LAYER
 70
1
 0
LAYER
 2
Default_Layer
 70
0
 62
18
 6
CONTINUOUS
 0
ENDTAB
 0
ENDSEC
  0
SECTION
  2
ENTITIES
  0
POLYLINE
  8
Default_Layer
 62
256
 66
   1
 39
0.000000
 70
    0
  0
VERTEX
  8
0
 10
-0.00005364
 20
11.99901962
  0
VERTEX
  8
0
 10
1.99994636
 20
11.99901962
  0
VERTEX
  8
0
 10
3.99994636
 20
11.99901962
  0
VERTEX
  8
0
 10
5.99994636
 20
11.99901962
  0
VERTEX
  8
0
 10
7.99994636
 20
11.99901962
  0
VERTEX
  8
0
 10
9.99994636
 20
11.99901962
  0
VERTEX
  8
0
 10
11.99994636
 20
11.99901962
  0
VERTEX
  8
0
 10
13.99994636
 20
11.99901962
  0
VERTEX
  8
0
 10
15.99994636
 20
11.99901962
  0
VERTEX
  8
0
 10
17.99994636
 20
11.99901962
  0
VERTEX
  8
0
 10
19.99994636
 20
11.99901962
  0
VERTEX
  8
0
 10
21.99994636
 20
11.99901962
  0
VERTEX
  8
0
 10
23.99994636
 20
11.99901962
  0
VERTEX
  8
0
 10
25.99994636
 20
11.99901962
  0
VERTEX
  8
0
 10
27.99994636
 20
11.99901962
  0
VERTEX
  8
0
 10
29.99994636
 20
11.99901962
  0
VERTEX
  8
0
 10
31.99994636
 20
11.99901962
  0
SEQEND
  0
POLYLINE
  8
Default_Layer
 62
256
 66
   1
 39
0.000000
 70
    0
  0
VERTEX
  8
0
 10
-0.00005364
 20
9.99901962
  0
VERTEX
  8
0
 10
1.99994636
 20
9.99901962
  0
VERTEX
  8
0
 10
3.99994636
 20
9.99901962
  0
VERTEX
  8
0
 10
5.99994636
 20
9.99901962
  0
VERTEX
  8
0
 10
7.99994636
 20
9.99901962
  0
VERTEX
  8
0
 10
9.99994636
 20
9.99901962
  0
VERTEX
  8
0
 10
11.99994636
 20
9.99901962
  0
VERTEX
  8
0
 10
13.99994636
 20
9.99901962
  0
VERTEX
  8
0
 10
15.99994636
 20
9.99901962
  0
VERTEX
  8
0
 10
17.99994636
 20
9.99901962
  0
VERTEX
  8
0
 10
19.99994636
 20
9.99901962
  0
VERTEX
  8
0
 10
21.99994636
 20
9.99901962
  0
VERTEX
  8
0
 10
23.99994636
 20
9.99901962
  0
VERTEX
  8
0
 10
25.99994636
 20
9.99901962
  0
VERTEX
  8
0
 10
27.99994636
 20
9.99901962
  0
VERTEX
  8
0
 10
29.99994636
 20
9.99901962
  0
VERTEX
  8
0
 10
31.99994636
 20
9.99901962
  0
SEQEND
  0
POLYLINE
  8
Default_Layer
 62
256
 66
   1
 39
0.000000
 70
    0
  0
VERTEX
  8
0
 10
-0.00005364
 20
3.99901962
  0
VERTEX
  8
0
 10
1.99994636
 20
3.99901962
  0
VERTEX
  8
0
 10
3.99994636
 20
3.99901962
  0
VERTEX
  8
0
 10
5.99994636
 20
3.99901962
  0
VERTEX
  8
0
 10
7.99994636
 20
3.99901962
  0
VERTEX
  8
0
 10
9.99994636
 20
3.99901962
  0
VERTEX
  8
0
 10
11.99994636
 20
3.99901962
  0
VERTEX
  8
0
 10
13.99994636
 20
3.99901962
  0
VERTEX
  8
0
 10
15.99994636
 20
3.99901962
  0
VERTEX
  8
0
 10
17.99994636
 20
3.99901962
  0
VERTEX
  8
0
 10
19.99994636
 20
3.99901962
  0
VERTEX
  8
0
 10
21.99994636
 20
3.99901962
  0
VERTEX
  8
0
 10
23.99994636
 20
3.99901962
  0
VERTEX
  8
0
 10
25.99994636
 20
3.99901962
  0
VERTEX
  8
0
 10
27.99994636
 20
3.99901962
  0
VERTEX
  8
0
 10
29.99994636
 20
3.99901962
  0
VERTEX
  8
0
 10
31.99994636
 20
3.99901962
  0
SEQEND
  0
POLYLINE
  8
Default_Layer
 62
256
 66
   1
 39
0.000000
 70
    0
  0
VERTEX
  8
0
 10
-0.00005364
 20
1.99901962
  0
VERTEX
  8
0
 10
1.99994636
 20
1.99901962
  0
VERTEX
  8
0
 10
3.99994636
 20
1.99901962
  0
VERTEX
  8
0
 10
5.99994636
 20
1.99901962
  0
VERTEX
  8
0
 10
7.99994636
 20
1.99901962
  0
VERTEX
  8
0
 10
9.99994636
 20
1.99901962
  0
VERTEX
  8
0
 10
11.99994636
 20
1.99901962
  0
VERTEX
  8
0
 10
13.99994636
 20
1.99901962
  0
VERTEX
  8
0
 10
15.99994636
 20
1.99901962
  0
VERTEX
  8
0
 10
17.99994636
 20
1.99901962
  0
VERTEX
  8
0
 10
19.99994636
 20
1.99901962
  0
VERTEX
  8
0
 10
21.99994636
 20
1.99901962
  0
VERTEX
  8
0
 10
23.99994636
 20
1.99901962
  0
VERTEX
  8
0
 10
25.99994636
 20
1.99901962
  0
VERTEX
  8
0
 10
27.99994636
 20
1.99901962
  0
VERTEX
  8
0
 10
29.99994636
 20
1.99901962
  0
VERTEX
  8
0
 10
31.99994636
 20
1.99901962
  0
SEQEND
  0
POLYLINE
  8
Default_Layer
 62
256
 66
   1
 39
0.000000
 70
    0
  0
VERTEX
  8
0
 10
-0.00005364
 20
1.99901962
  0
VERTEX
  8
0
 10
1.99994636
 20
1.99901962
  0
VERTEX
  8
0
 10
3.99994636
 20
1.99901962
  0
VERTEX
  8
0
 10
5.99994636
 20
1.99901962
  0
VERTEX
  8
0
 10
7.99994636
 20
1.99901962
  0
VERTEX
  8
0
 10
9.99994636
 20
1.99901962
  0
VERTEX
  8
0
 10
11.99994636
 20
1.99901962
  0
VERTEX
  8
0
 10
13.99994636
 20
1.99901962
  0
VERTEX
  8
0
 10
15.99994636
 20
1.99901962
  0
VERTEX
  8
0
 10
17.99994636
 20
1.99901962
  0
VERTEX
  8
0
 10
19.99994636
 20
1.99901962
  0
VERTEX
  8
0
 10
21.99994636
 20
1.99901962
  0
VERTEX
  8
0
 10
23.99994636
 20
1.99901962
  0
VERTEX
  8
0
 10
25.99994636
 20
1.99901962
  0
VERTEX
  8
0
 10
27.99994636
 20
1.99901962
  0
VERTEX
  8
0
 10
29.99994636
 20
1.99901962
  0
VERTEX
  8
0
 10
31.99994636
 20
1.99901962
  0
SEQEND
  0
POLYLINE
  8
Default_Layer
 62
256
 66
   1
 39
0.000000
 70
    0
  0
VERTEX
  8
0
 10
-0.00005364
 20
-0.00098038
  0
VERTEX
  8
0
 10
1.99994636
 20
-0.00098038
  0
VERTEX
  8
0
 10
3.99994636
 20
-0.00098038
  0
VERTEX
  8
0
 10
5.99994636
 20
-0.00098038
  0
VERTEX
  8
0
 10
7.99994636
 20
-0.00098038
  0
VERTEX
  8
0
 10
9.99994636
 20
-0.00098038
  0
VERTEX
  8
0
 10
11.99994636
 20
-0.00098038
  0
VERTEX
  8
0
 10
13.99994636
 20
-0.00098038
  0
VERTEX
  8
0
 10
15.99994636
 20
-0.00098038
  0
VERTEX
  8
0
 10
17.99994636
 20
-0.00098038
  0
VERTEX
  8
0
 10
19.99994636
 20
-0.00098038
  0
VERTEX
  8
0
 10
21.99994636
 20
-0.00098038
  0
VERTEX
  8
0
 10
23.99994636
 20
-0.00098038
  0
VERTEX
  8
0
 10
25.99994636
 20
-0.00098038
  0
VERTEX
  8
0
 10
27.99994636
 20
-0.00098038
  0
VERTEX
  8
0
 10
29.99994636
 20
-0.00098038
  0
VERTEX
  8
0
 10
31.99994636
 20
-0.00098038
  0
SEQEND
  0
POLYLINE
  8
Default_Layer
 62
256
 66
   1
 39
0.000000
 70
    0
  0
VERTEX
  8
0
 10
-0.00005364
 20
7.99901962
  0
VERTEX
  8
0
 10
1.99994636
 20
7.99901962
  0
VERTEX
  8
0
 10
3.99994636
 20
7.99901962
  0
VERTEX
  8
0
 10
5.99994636
 20
7.99901962
  0
VERTEX
  8
0
 10
7.99994636
 20
7.99901962
  0
VERTEX
  8
0
 10
9.99994636
 20
7.99901962
  0
VERTEX
  8
0
 10
11.99994636
 20
7.99901962
  0
VERTEX
  8
0
 10
13.99994636
 20
7.99901962
  0
VERTEX
  8
0
 10
15.99994636
 20
7.99901962
  0
VERTEX
  8
0
 10
17.99994636
 20
7.99901962
  0
VERTEX
  8
0
 10
19.99994636
 20
7.99901962
  0
VERTEX
  8
0
 10
21.99994636
 20
7.99901962
  0
VERTEX
  8
0
 10
23.99994636
 20
7.99901962
  0
VERTEX
  8
0
 10
25.99994636
 20
7.99901962
  0
VERTEX
  8
0
 10
27.99994636
 20
7.99901962
  0
VERTEX
  8
0
 10
29.99994636
 20
7.99901962
  0
VERTEX
  8
0
 10
31.99994636
 20
7.99901962
  0
SEQEND
  0
POLYLINE
  8
Default_Layer
 62
256
 66
   1
 39
0.000000
 70
    0
  0
VERTEX
  8
0
 10
-0.00005364
 20
5.99901962
  0
VERTEX
  8
0
 10
1.99994636
 20
5.99901962
  0
VERTEX
  8
0
 10
3.99994636
 20
5.99901962
  0
VERTEX
  8
0
 10
5.99994636
 20
5.99901962
  0
VERTEX
  8
0
 10
7.99994636
 20
5.99901962
  0
VERTEX
  8
0
 10
9.99994636
 20
5.99901962
  0
VERTEX
  8
0
 10
11.99994636
 20
5.99901962
  0
VERTEX
  8
0
 10
13.99994636
 20
5.99901962
  0
VERTEX
  8
0
 10
15.99994636
 20
5.99901962
  0
VERTEX
  8
0
 10
17.99994636
 20
5.99901962
  0
VERTEX
  8
0
 10
19.99994636
 20
5.99901962
  0
VERTEX
  8
0
 10
21.99994636
 20
5.99901962
  0
VERTEX
  8
0
 10
23.99994636
 20
5.99901962
  0
VERTEX
  8
0
 10
25.99994636
 20
5.99901962
  0
VERTEX
  8
0
 10
27.99994636
 20
5.99901962
  0
VERTEX
  8
0
 10
29.99994636
 20
5.99901962
  0
VERTEX
  8
0
 10
31.99994636
 20
5.99901962
  0
SEQEND
  0
POLYLINE
  8
Default_Layer
 62
256
 66
   1
 39
0.000000
 70
    0
  0
VERTEX
  8
0
 10
-0.00005364
 20
31.99901962
  0
VERTEX
  8
0
 10
1.99994636
 20
31.99901962
  0
VERTEX
  8
0
 10
3.99994636
 20
31.99901962
  0
VERTEX
  8
0
 10
5.99994636
 20
31.99901962
  0
VERTEX
  8
0
 10
7.99994636
 20
31.99901962
  0
VERTEX
  8
0
 10
9.99994636
 20
31.99901962
  0
VERTEX
  8
0
 10
11.99994636
 20
31.99901962
  0
VERTEX
  8
0
 10
13.99994636
 20
31.99901962
  0
VERTEX
  8
0
 10
15.99994636
 20
31.99901962
  0
VERTEX
  8
0
 10
17.99994636
 20
31.99901962
  0
VERTEX
  8
0
 10
19.99994636
 20
31.99901962
  0
VERTEX
  8
0
 10
21.99994636
 20
31.99901962
  0
VERTEX
  8
0
 10
23.99994636
 20
31.99901962
  0
VERTEX
  8
0
 10
25.99994636
 20
31.99901962
  0
VERTEX
  8
0
 10
27.99994636
 20
31.99901962
  0
VERTEX
  8
0
 10
29.99994636
 20
31.99901962
  0
VERTEX
  8
0
 10
31.99994636
 20
31.99901962
  0
SEQEND
  0
POLYLINE
  8
Default_Layer
 62
256
 66
   1
 39
0.000000
 70
    0
  0
VERTEX
  8
0
 10
-0.00005364
 20
31.99901962
  0
VERTEX
  8
0
 10
-0.00005364
 20
29.99901962
  0
VERTEX
  8
0
 10
-0.00005364
 20
27.99901962
  0
VERTEX
  8
0
 10
-0.00005364
 20
25.99901962
  0
VERTEX
  8
0
 10
-0.00005364
 20
23.99901962
  0
VERTEX
  8
0
 10
-0.00005364
 20
21.99901962
  0
VERTEX
  8
0
 10
-0.00005364
 20
19.99901962
  0
VERTEX
  8
0
 10
-0.00005364
 20
17.99901962
  0
VERTEX
  8
0
 10
-0.00005364
 20
15.99901962
  0
VERTEX
  8
0
 10
-0.00005364
 20
13.99901962
  0
VERTEX
  8
0
 10
-0.00005364
 20
11.99901962
  0
VERTEX
  8
0
 10
-0.00005364
 20
9.99901962
  0
VERTEX
  8
0
 10
-0.00005364
 20
7.99901962
  0
VERTEX
  8
0
 10
-0.00005364
 20
5.99901962
  0
VERTEX
  8
0
 10
-0.00005364
 20
3.99901962
  0
VERTEX
  8
0
 10
-0.00005364
 20
1.99901962
  0
VERTEX
  8
0
 10
-0.00005364
 20
-0.00098038
  0
SEQEND
  0
POLYLINE
  8
Default_Layer
 62
256
 66
   1
 39
0.000000
 70
    0
  0
VERTEX
  8
0
 10
-0.00005364
 20
31.99901962
  0
VERTEX
  8
0
 10
-0.00005364
 20
29.99901962
  0
VERTEX
  8
0
 10
-0.00005364
 20
27.99901962
  0
VERTEX
  8
0
 10
-0.00005364
 20
25.99901962
  0
VERTEX
  8
0
 10
-0.00005364
 20
23.99901962
  0
VERTEX
  8
0
 10
-0.00005364
 20
21.99901962
  0
VERTEX
  8
0
 10
-0.00005364
 20
19.99901962
  0
VERTEX
  8
0
 10
-0.00005364
 20
17.99901962
  0
VERTEX
  8
0
 10
-0.00005364
 20
15.99901962
  0
VERTEX
  8
0
 10
-0.00005364
 20
13.99901962
  0
VERTEX
  8
0
 10
-0.00005364
 20
11.99901962
  0
VERTEX
  8
0
 10
-0.00005364
 20
9.99901962
  0
VERTEX
  8
0
 10
-0.00005364
 20
7.99901962
  0
VERTEX
  8
0
 10
-0.00005364
 20
5.99901962
  0
VERTEX
  8
0
 10
-0.00005364
 20
3.99901962
  0
VERTEX
  8
0
 10
-0.00005364
 20
1.99901962
  0
VERTEX
  8
0
 10
-0.00005364
 20
-0.00098038
  0
SEQEND
  0
POLYLINE
  8
Default_Layer
 62
256
 66
   1
 39
0.000000
 70
    0
  0
VERTEX
  8
0
 10
1.99994636
 20
31.99901962
  0
VERTEX
  8
0
 10
1.99994636
 20
29.99901962
  0
VERTEX
  8
0
 10
1.99994636
 20
27.99901962
  0
VERTEX
  8
0
 10
1.99994636
 20
25.99901962
  0
VERTEX
  8
0
 10
1.99994636
 20
23.99901962
  0
VERTEX
  8
0
 10
1.99994636
 20
21.99901962
  0
VERTEX
  8
0
 10
1.99994636
 20
19.99901962
  0
VERTEX
  8
0
 10
1.99994636
 20
17.99901962
  0
VERTEX
  8
0
 10
1.99994636
 20
15.99901962
  0
VERTEX
  8
0
 10
1.99994636
 20
13.99901962
  0
VERTEX
  8
0
 10
1.99994636
 20
11.99901962
  0
VERTEX
  8
0
 10
1.99994636
 20
9.99901962
  0
VERTEX
  8
0
 10
1.99994636
 20
7.99901962
  0
VERTEX
  8
0
 10
1.99994636
 20
5.99901962
  0
VERTEX
  8
0
 10
1.99994636
 20
3.99901962
  0
VERTEX
  8
0
 10
1.99994636
 20
1.99901962
  0
VERTEX
  8
0
 10
1.99994636
 20
-0.00098038
  0
SEQEND
  0
POLYLINE
  8
Default_Layer
 62
256
 66
   1
 39
0.000000
 70
    0
  0
VERTEX
  8
0
 10
3.99994636
 20
31.99901962
  0
VERTEX
  8
0
 10
3.99994636
 20
29.99901962
  0
VERTEX
  8
0
 10
3.99994636
 20
27.99901962
  0
VERTEX
  8
0
 10
3.99994636
 20
25.99901962
  0
VERTEX
  8
0
 10
3.99994636
 20
23.99901962
  0
VERTEX
  8
0
 10
3.99994636
 20
21.99901962
  0
VERTEX
  8
0
 10
3.99994636
 20
19.99901962
  0
VERTEX
  8
0
 10
3.99994636
 20
17.99901962
  0
VERTEX
  8
0
 10
3.99994636
 20
15.99901962
  0
VERTEX
  8
0
 10
3.99994636
 20
13.99901962
  0
VERTEX
  8
0
 10
3.99994636
 20
11.99901962
  0
VERTEX
  8
0
 10
3.99994636
 20
9.99901962
  0
VERTEX
  8
0
 10
3.99994636
 20
7.99901962
  0
VERTEX
  8
0
 10
3.99994636
 20
5.99901962
  0
VERTEX
  8
0
 10
3.99994636
 20
3.99901962
  0
VERTEX
  8
0
 10
3.99994636
 20
1.99901962
  0
VERTEX
  8
0
 10
3.99994636
 20
-0.00098038
  0
SEQEND
  0
POLYLINE
  8
Default_Layer
 62
256
 66
   1
 39
0.000000
 70
    0
  0
VERTEX
  8
0
 10
5.99994636
 20
31.99901962
  0
VERTEX
  8
0
 10
5.99994636
 20
29.99901962
  0
VERTEX
  8
0
 10
5.99994636
 20
27.99901962
  0
VERTEX
  8
0
 10
5.99994636
 20
25.99901962
  0
VERTEX
  8
0
 10
5.99994636
 20
23.99901962
  0
VERTEX
  8
0
 10
5.99994636
 20
21.99901962
  0
VERTEX
  8
0
 10
5.99994636
 20
19.99901962
  0
VERTEX
  8
0
 10
5.99994636
 20
17.99901962
  0
VERTEX
  8
0
 10
5.99994636
 20
15.99901962
  0
VERTEX
  8
0
 10
5.99994636
 20
13.99901962
  0
VERTEX
  8
0
 10
5.99994636
 20
11.99901962
  0
VERTEX
  8
0
 10
5.99994636
 20
9.99901962
  0
VERTEX
  8
0
 10
5.99994636
 20
7.99901962
  0
VERTEX
  8
0
 10
5.99994636
 20
5.99901962
  0
VERTEX
  8
0
 10
5.99994636
 20
3.99901962
  0
VERTEX
  8
0
 10
5.99994636
 20
1.99901962
  0
VERTEX
  8
0
 10
5.99994636
 20
-0.00098038
  0
SEQEND
  0
POLYLINE
  8
Default_Layer
 62
256
 66
   1
 39
0.000000
 70
    0
  0
VERTEX
  8
0
 10
7.99994636
 20
31.99901962
  0
VERTEX
  8
0
 10
7.99994636
 20
29.99901962
  0
VERTEX
  8
0
 10
7.99994636
 20
27.99901962
  0
VERTEX
  8
0
 10
7.99994636
 20
25.99901962
  0
VERTEX
  8
0
 10
7.99994636
 20
23.99901962
  0
VERTEX
  8
0
 10
7.99994636
 20
21.99901962
  0
VERTEX
  8
0
 10
7.99994636
 20
19.99901962
  0
VERTEX
  8
0
 10
7.99994636
 20
17.99901962
  0
VERTEX
  8
0
 10
7.99994636
 20
15.99901962
  0
VERTEX
  8
0
 10
7.99994636
 20
13.99901962
  0
VERTEX
  8
0
 10
7.99994636
 20
11.99901962
  0
VERTEX
  8
0
 10
7.99994636
 20
9.99901962
  0
VERTEX
  8
0
 10
7.99994636
 20
7.99901962
  0
VERTEX
  8
0
 10
7.99994636
 20
5.99901962
  0
VERTEX
  8
0
 10
7.99994636
 20
3.99901962
  0
VERTEX
  8
0
 10
7.99994636
 20
1.99901962
  0
VERTEX
  8
0
 10
7.99994636
 20
-0.00098038
  0
SEQEND
  0
POLYLINE
  8
Default_Layer
 62
256
 66
   1
 39
0.000000
 70
    0
  0
VERTEX
  8
0
 10
9.99994636
 20
31.99901962
  0
VERTEX
  8
0
 10
9.99994636
 20
29.99901962
  0
VERTEX
  8
0
 10
9.99994636
 20
27.99901962
  0
VERTEX
  8
0
 10
9.99994636
 20
25.99901962
  0
VERTEX
  8
0
 10
9.99994636
 20
23.99901962
  0
VERTEX
  8
0
 10
9.99994636
 20
21.99901962
  0
VERTEX
  8
0
 10
9.99994636
 20
19.99901962
  0
VERTEX
  8
0
 10
9.99994636
 20
17.99901962
  0
VERTEX
  8
0
 10
9.99994636
 20
15.99901962
  0
VERTEX
  8
0
 10
9.99994636
 20
13.99901962
  0
VERTEX
  8
0
 10
9.99994636
 20
11.99901962
  0
VERTEX
  8
0
 10
9.99994636
 20
9.99901962
  0
VERTEX
  8
0
 10
9.99994636
 20
7.99901962
  0
VERTEX
  8
0
 10
9.99994636
 20
5.99901962
  0
VERTEX
  8
0
 10
9.99994636
 20
3.99901962
  0
VERTEX
  8
0
 10
9.99994636
 20
1.99901962
  0
VERTEX
  8
0
 10
9.99994636
 20
-0.00098038
  0
SEQEND
  0
POLYLINE
  8
Default_Layer
 62
256
 66
   1
 39
0.000000
 70
    0
  0
VERTEX
  8
0
 10
11.99994636
 20
31.99901962
  0
VERTEX
  8
0
 10
11.99994636
 20
29.99901962
  0
VERTEX
  8
0
 10
11.99994636
 20
27.99901962
  0
VERTEX
  8
0
 10
11.99994636
 20
25.99901962
  0
VERTEX
  8
0
 10
11.99994636
 20
23.99901962
  0
VERTEX
  8
0
 10
11.99994636
 20
21.99901962
  0
VERTEX
  8
0
 10
11.99994636
 20
19.99901962
  0
VERTEX
  8
0
 10
11.99994636
 20
17.99901962
  0
VERTEX
  8
0
 10
11.99994636
 20
15.99901962
  0
VERTEX
  8
0
 10
11.99994636
 20
13.99901962
  0
VERTEX
  8
0
 10
11.99994636
 20
11.99901962
  0
VERTEX
  8
0
 10
11.99994636
 20
9.99901962
  0
VERTEX
  8
0
 10
11.99994636
 20
7.99901962
  0
VERTEX
  8
0
 10
11.99994636
 20
5.99901962
  0
VERTEX
  8
0
 10
11.99994636
 20
3.99901962
  0
VERTEX
  8
0
 10
11.99994636
 20
1.99901962
  0
VERTEX
  8
0
 10
11.99994636
 20
-0.00098038
  0
SEQEND
  0
POLYLINE
  8
Default_Layer
 62
256
 66
   1
 39
0.000000
 70
    0
  0
VERTEX
  8
0
 10
13.99994636
 20
31.99901962
  0
VERTEX
  8
0
 10
13.99994636
 20
29.99901962
  0
VERTEX
  8
0
 10
13.99994636
 20
27.99901962
  0
VERTEX
  8
0
 10
13.99994636
 20
25.99901962
  0
VERTEX
  8
0
 10
13.99994636
 20
23.99901962
  0
VERTEX
  8
0
 10
13.99994636
 20
21.99901962
  0
VERTEX
  8
0
 10
13.99994636
 20
19.99901962
  0
VERTEX
  8
0
 10
13.99994636
 20
17.99901962
  0
VERTEX
  8
0
 10
13.99994636
 20
15.99901962
  0
VERTEX
  8
0
 10
13.99994636
 20
13.99901962
  0
VERTEX
  8
0
 10
13.99994636
 20
11.99901962
  0
VERTEX
  8
0
 10
13.99994636
 20
9.99901962
  0
VERTEX
  8
0
 10
13.99994636
 20
7.99901962
  0
VERTEX
  8
0
 10
13.99994636
 20
5.99901962
  0
VERTEX
  8
0
 10
13.99994636
 20
3.99901962
  0
VERTEX
  8
0
 10
13.99994636
 20
1.99901962
  0
VERTEX
  8
0
 10
13.99994636
 20
-0.00098038
  0
SEQEND
  0
POLYLINE
  8
Default_Layer
 62
256
 66
   1
 39
0.000000
 70
    0
  0
VERTEX
  8
0
 10
15.99994636
 20
31.99901962
  0
VERTEX
  8
0
 10
15.99994636
 20
29.99901962
  0
VERTEX
  8
0
 10
15.99994636
 20
27.99901962
  0
VERTEX
  8
0
 10
15.99994636
 20
25.99901962
  0
VERTEX
  8
0
 10
15.99994636
 20
23.99901962
  0
VERTEX
  8
0
 10
15.99994636
 20
21.99901962
  0
VERTEX
  8
0
 10
15.99994636
 20
19.99901962
  0
VERTEX
  8
0
 10
15.99994636
 20
17.99901962
  0
VERTEX
  8
0
 10
15.99994636
 20
15.99901962
  0
VERTEX
  8
0
 10
15.99994636
 20
13.99901962
  0
VERTEX
  8
0
 10
15.99994636
 20
11.99901962
  0
VERTEX
  8
0
 10
15.99994636
 20
9.99901962
  0
VERTEX
  8
0
 10
15.99994636
 20
7.99901962
  0
VERTEX
  8
0
 10
15.99994636
 20
5.99901962
  0
VERTEX
  8
0
 10
15.99994636
 20
3.99901962
  0
VERTEX
  8
0
 10
15.99994636
 20
1.99901962
  0
VERTEX
  8
0
 10
15.99994636
 20
-0.00098038
  0
SEQEND
  0
POLYLINE
  8
Default_Layer
 62
256
 66
   1
 39
0.000000
 70
    0
  0
VERTEX
  8
0
 10
17.99994636
 20
31.99901962
  0
VERTEX
  8
0
 10
17.99994636
 20
29.99901962
  0
VERTEX
  8
0
 10
17.99994636
 20
27.99901962
  0
VERTEX
  8
0
 10
17.99994636
 20
25.99901962
  0
VERTEX
  8
0
 10
17.99994636
 20
23.99901962
  0
VERTEX
  8
0
 10
17.99994636
 20
21.99901962
  0
VERTEX
  8
0
 10
17.99994636
 20
19.99901962
  0
VERTEX
  8
0
 10
17.99994636
 20
17.99901962
  0
VERTEX
  8
0
 10
17.99994636
 20
15.99901962
  0
VERTEX
  8
0
 10
17.99994636
 20
13.99901962
  0
VERTEX
  8
0
 10
17.99994636
 20
11.99901962
  0
VERTEX
  8
0
 10
17.99994636
 20
9.99901962
  0
VERTEX
  8
0
 10
17.99994636
 20
7.99901962
  0
VERTEX
  8
0
 10
17.99994636
 20
5.99901962
  0
VERTEX
  8
0
 10
17.99994636
 20
3.99901962
  0
VERTEX
  8
0
 10
17.99994636
 20
1.99901962
  0
VERTEX
  8
0
 10
17.99994636
 20
-0.00098038
  0
SEQEND
  0
POLYLINE
  8
Default_Layer
 62
256
 66
   1
 39
0.000000
 70
    0
  0
VERTEX
  8
0
 10
19.99994636
 20
31.99901962
  0
VERTEX
  8
0
 10
19.99994636
 20
29.99901962
  0
VERTEX
  8
0
 10
19.99994636
 20
27.99901962
  0
VERTEX
  8
0
 10
19.99994636
 20
25.99901962
  0
VERTEX
  8
0
 10
19.99994636
 20
23.99901962
  0
VERTEX
  8
0
 10
19.99994636
 20
21.99901962
  0
VERTEX
  8
0
 10
19.99994636
 20
19.99901962
  0
VERTEX
  8
0
 10
19.99994636
 20
17.99901962
  0
VERTEX
  8
0
 10
19.99994636
 20
15.99901962
  0
VERTEX
  8
0
 10
19.99994636
 20
13.99901962
  0
VERTEX
  8
0
 10
19.99994636
 20
11.99901962
  0
VERTEX
  8
0
 10
19.99994636
 20
9.99901962
  0
VERTEX
  8
0
 10
19.99994636
 20
7.99901962
  0
VERTEX
  8
0
 10
19.99994636
 20
5.99901962
  0
VERTEX
  8
0
 10
19.99994636
 20
3.99901962
  0
VERTEX
  8
0
 10
19.99994636
 20
1.99901962
  0
VERTEX
  8
0
 10
19.99994636
 20
-0.00098038
  0
SEQEND
  0
POLYLINE
  8
Default_Layer
 62
256
 66
   1
 39
0.000000
 70
    0
  0
VERTEX
  8
0
 10
21.99994636
 20
31.99901962
  0
VERTEX
  8
0
 10
21.99994636
 20
29.99901962
  0
VERTEX
  8
0
 10
21.99994636
 20
27.99901962
  0
VERTEX
  8
0
 10
21.99994636
 20
25.99901962
  0
VERTEX
  8
0
 10
21.99994636
 20
23.99901962
  0
VERTEX
  8
0
 10
21.99994636
 20
21.99901962
  0
VERTEX
  8
0
 10
21.99994636
 20
19.99901962
  0
VERTEX
  8
0
 10
21.99994636
 20
17.99901962
  0
VERTEX
  8
0
 10
21.99994636
 20
15.99901962
  0
VERTEX
  8
0
 10
21.99994636
 20
13.99901962
  0
VERTEX
  8
0
 10
21.99994636
 20
11.99901962
  0
VERTEX
  8
0
 10
21.99994636
 20
9.99901962
  0
VERTEX
  8
0
 10
21.99994636
 20
7.99901962
  0
VERTEX
  8
0
 10
21.99994636
 20
5.99901962
  0
VERTEX
  8
0
 10
21.99994636
 20
3.99901962
  0
VERTEX
  8
0
 10
21.99994636
 20
1.99901962
  0
VERTEX
  8
0
 10
21.99994636
 20
-0.00098038
  0
SEQEND
  0
POLYLINE
  8
Default_Layer
 62
256
 66
   1
 39
0.000000
 70
    0
  0
VERTEX
  8
0
 10
23.99994636
 20
31.99901962
  0
VERTEX
  8
0
 10
23.99994636
 20
29.99901962
  0
VERTEX
  8
0
 10
23.99994636
 20
27.99901962
  0
VERTEX
  8
0
 10
23.99994636
 20
25.99901962
  0
VERTEX
  8
0
 10
23.99994636
 20
23.99901962
  0
VERTEX
  8
0
 10
23.99994636
 20
21.99901962
  0
VERTEX
  8
0
 10
23.99994636
 20
19.99901962
  0
VERTEX
  8
0
 10
23.99994636
 20
17.99901962
  0
VERTEX
  8
0
 10
23.99994636
 20
15.99901962
  0
VERTEX
  8
0
 10
23.99994636
 20
13.99901962
  0
VERTEX
  8
0
 10
23.99994636
 20
11.99901962
  0
VERTEX
  8
0
 10
23.99994636
 20
9.99901962
  0
VERTEX
  8
0
 10
23.99994636
 20
7.99901962
  0
VERTEX
  8
0
 10
23.99994636
 20
5.99901962
  0
VERTEX
  8
0
 10
23.99994636
 20
3.99901962
  0
VERTEX
  8
0
 10
23.99994636
 20
1.99901962
  0
VERTEX
  8
0
 10
23.99994636
 20
-0.00098038
  0
SEQEND
  0
POLYLINE
  8
Default_Layer
 62
256
 66
   1
 39
0.000000
 70
    0
  0
VERTEX
  8
0
 10
25.99994636
 20
31.99901962
  0
VERTEX
  8
0
 10
25.99994636
 20
29.99901962
  0
VERTEX
  8
0
 10
25.99994636
 20
27.99901962
  0
VERTEX
  8
0
 10
25.99994636
 20
25.99901962
  0
VERTEX
  8
0
 10
25.99994636
 20
23.99901962
  0
VERTEX
  8
0
 10
25.99994636
 20
21.99901962
  0
VERTEX
  8
0
 10
25.99994636
 20
19.99901962
  0
VERTEX
  8
0
 10
25.99994636
 20
17.99901962
  0
VERTEX
  8
0
 10
25.99994636
 20
15.99901962
  0
VERTEX
  8
0
 10
25.99994636
 20
13.99901962
  0
VERTEX
  8
0
 10
25.99994636
 20
11.99901962
  0
VERTEX
  8
0
 10
25.99994636
 20
9.99901962
  0
VERTEX
  8
0
 10
25.99994636
 20
7.99901962
  0
VERTEX
  8
0
 10
25.99994636
 20
5.99901962
  0
VERTEX
  8
0
 10
25.99994636
 20
3.99901962
  0
VERTEX
  8
0
 10
25.99994636
 20
1.99901962
  0
VERTEX
  8
0
 10
25.99994636
 20
-0.00098038
  0
SEQEND
  0
POLYLINE
  8
Default_Layer
 62
256
 66
   1
 39
0.000000
 70
    0
  0
VERTEX
  8
0
 10
27.99994636
 20
31.99901962
  0
VERTEX
  8
0
 10
27.99994636
 20
29.99901962
  0
VERTEX
  8
0
 10
27.99994636
 20
27.99901962
  0
VERTEX
  8
0
 10
27.99994636
 20
25.99901962
  0
VERTEX
  8
0
 10
27.99994636
 20
23.99901962
  0
VERTEX
  8
0
 10
27.99994636
 20
21.99901962
  0
VERTEX
  8
0
 10
27.99994636
 20
19.99901962
  0
VERTEX
  8
0
 10
27.99994636
 20
17.99901962
  0
VERTEX
  8
0
 10
27.99994636
 20
15.99901962
  0
VERTEX
  8
0
 10
27.99994636
 20
13.99901962
  0
VERTEX
  8
0
 10
27.99994636
 20
11.99901962
  0
VERTEX
  8
0
 10
27.99994636
 20
9.99901962
  0
VERTEX
  8
0
 10
27.99994636
 20
7.99901962
  0
VERTEX
  8
0
 10
27.99994636
 20
5.99901962
  0
VERTEX
  8
0
 10
27.99994636
 20
3.99901962
  0
VERTEX
  8
0
 10
27.99994636
 20
1.99901962
  0
VERTEX
  8
0
 10
27.99994636
 20
-0.00098038
  0
SEQEND
  0
POLYLINE
  8
Default_Layer
 62
256
 66
   1
 39
0.000000
 70
    0
  0
VERTEX
  8
0
 10
29.99994636
 20
31.99901962
  0
VERTEX
  8
0
 10
29.99994636
 20
29.99901962
  0
VERTEX
  8
0
 10
29.99994636
 20
27.99901962
  0
VERTEX
  8
0
 10
29.99994636
 20
25.99901962
  0
VERTEX
  8
0
 10
29.99994636
 20
23.99901962
  0
VERTEX
  8
0
 10
29.99994636
 20
21.99901962
  0
VERTEX
  8
0
 10
29.99994636
 20
19.99901962
  0
VERTEX
  8
0
 10
29.99994636
 20
17.99901962
  0
VERTEX
  8
0
 10
29.99994636
 20
15.99901962
  0
VERTEX
  8
0
 10
29.99994636
 20
13.99901962
  0
VERTEX
  8
0
 10
29.99994636
 20
11.99901962
  0
VERTEX
  8
0
 10
29.99994636
 20
9.99901962
  0
VERTEX
  8
0
 10
29.99994636
 20
7.99901962
  0
VERTEX
  8
0
 10
29.99994636
 20
5.99901962
  0
VERTEX
  8
0
 10
29.99994636
 20
3.99901962
  0
VERTEX
  8
0
 10
29.99994636
 20
1.99901962
  0
VERTEX
  8
0
 10
29.99994636
 20
-0.00098038
  0
SEQEND
  0
POLYLINE
  8
Default_Layer
 62
256
 66
   1
 39
0.000000
 70
    0
  0
VERTEX
  8
0
 10
31.99994636
 20
31.99901962
  0
VERTEX
  8
0
 10
31.99994636
 20
29.99901962
  0
VERTEX
  8
0
 10
31.99994636
 20
27.99901962
  0
VERTEX
  8
0
 10
31.99994636
 20
25.99901962
  0
VERTEX
  8
0
 10
31.99994636
 20
23.99901962
  0
VERTEX
  8
0
 10
31.99994636
 20
21.99901962
  0
VERTEX
  8
0
 10
31.99994636
 20
19.99901962
  0
VERTEX
  8
0
 10
31.99994636
 20
17.99901962
  0
VERTEX
  8
0
 10
31.99994636
 20
15.99901962
  0
VERTEX
  8
0
 10
31.99994636
 20
13.99901962
  0
VERTEX
  8
0
 10
31.99994636
 20
11.99901962
  0
VERTEX
  8
0
 10
31.99994636
 20
9.99901962
  0
VERTEX
  8
0
 10
31.99994636
 20
7.99901962
  0
VERTEX
  8
0
 10
31.99994636
 20
5.99901962
  0
VERTEX
  8
0
 10
31.99994636
 20
3.99901962
  0
VERTEX
  8
0
 10
31.99994636
 20
1.99901962
  0
VERTEX
  8
0
 10
31.99994636
 20
-0.00098038
  0
SEQEND
  0
POLYLINE
  8
Default_Layer
 62
256
 66
   1
 39
0.000000
 70
    0
  0
VERTEX
  8
0
 10
-0.00005364
 20
31.99901962
  0
VERTEX
  8
0
 10
1.99994636
 20
31.99901962
  0
VERTEX
  8
0
 10
3.99994636
 20
31.99901962
  0
VERTEX
  8
0
 10
5.99994636
 20
31.99901962
  0
VERTEX
  8
0
 10
7.99994636
 20
31.99901962
  0
VERTEX
  8
0
 10
9.99994636
 20
31.99901962
  0
VERTEX
  8
0
 10
11.99994636
 20
31.99901962
  0
VERTEX
  8
0
 10
13.99994636
 20
31.99901962
  0
VERTEX
  8
0
 10
15.99994636
 20
31.99901962
  0
VERTEX
  8
0
 10
17.99994636
 20
31.99901962
  0
VERTEX
  8
0
 10
19.99994636
 20
31.99901962
  0
VERTEX
  8
0
 10
21.99994636
 20
31.99901962
  0
VERTEX
  8
0
 10
23.99994636
 20
31.99901962
  0
VERTEX
  8
0
 10
25.99994636
 20
31.99901962
  0
VERTEX
  8
0
 10
27.99994636
 20
31.99901962
  0
VERTEX
  8
0
 10
29.99994636
 20
31.99901962
  0
VERTEX
  8
0
 10
31.99994636
 20
31.99901962
  0
SEQEND
  0
POLYLINE
  8
Default_Layer
 62
256
 66
   1
 39
0.000000
 70
    0
  0
VERTEX
  8
0
 10
-0.00005364
 20
29.99901962
  0
VERTEX
  8
0
 10
1.99994636
 20
29.99901962
  0
VERTEX
  8
0
 10
3.99994636
 20
29.99901962
  0
VERTEX
  8
0
 10
5.99994636
 20
29.99901962
  0
VERTEX
  8
0
 10
7.99994636
 20
29.99901962
  0
VERTEX
  8
0
 10
9.99994636
 20
29.99901962
  0
VERTEX
  8
0
 10
11.99994636
 20
29.99901962
  0
VERTEX
  8
0
 10
13.99994636
 20
29.99901962
  0
VERTEX
  8
0
 10
15.99994636
 20
29.99901962
  0
VERTEX
  8
0
 10
17.99994636
 20
29.99901962
  0
VERTEX
  8
0
 10
19.99994636
 20
29.99901962
  0
VERTEX
  8
0
 10
21.99994636
 20
29.99901962
  0
VERTEX
  8
0
 10
23.99994636
 20
29.99901962
  0
VERTEX
  8
0
 10
25.99994636
 20
29.99901962
  0
VERTEX
  8
0
 10
27.99994636
 20
29.99901962
  0
VERTEX
  8
0
 10
29.99994636
 20
29.99901962
  0
VERTEX
  8
0
 10
31.99994636
 20
29.99901962
  0
SEQEND
  0
POLYLINE
  8
Default_Layer
 62
256
 66
   1
 39
0.000000
 70
    0
  0
VERTEX
  8
0
 10
-0.00005364
 20
27.99901962
  0
VERTEX
  8
0
 10
1.99994636
 20
27.99901962
  0
VERTEX
  8
0
 10
3.99994636
 20
27.99901962
  0
VERTEX
  8
0
 10
5.99994636
 20
27.99901962
  0
VERTEX
  8
0
 10
7.99994636
 20
27.99901962
  0
VERTEX
  8
0
 10
9.99994636
 20
27.99901962
  0
VERTEX
  8
0
 10
11.99994636
 20
27.99901962
  0
VERTEX
  8
0
 10
13.99994636
 20
27.99901962
  0
VERTEX
  8
0
 10
15.99994636
 20
27.99901962
  0
VERTEX
  8
0
 10
17.99994636
 20
27.99901962
  0
VERTEX
  8
0
 10
19.99994636
 20
27.99901962
  0
VERTEX
  8
0
 10
21.99994636
 20
27.99901962
  0
VERTEX
  8
0
 10
23.99994636
 20
27.99901962
  0
VERTEX
  8
0
 10
25.99994636
 20
27.99901962
  0
VERTEX
  8
0
 10
27.99994636
 20
27.99901962
  0
VERTEX
  8
0
 10
29.99994636
 20
27.99901962
  0
VERTEX
  8
0
 10
31.99994636
 20
27.99901962
  0
SEQEND
  0
POLYLINE
  8
Default_Layer
 62
256
 66
   1
 39
0.000000
 70
    0
  0
VERTEX
  8
0
 10
-0.00005364
 20
25.99901962
  0
VERTEX
  8
0
 10
1.99994636
 20
25.99901962
  0
VERTEX
  8
0
 10
3.99994636
 20
25.99901962
  0
VERTEX
  8
0
 10
5.99994636
 20
25.99901962
  0
VERTEX
  8
0
 10
7.99994636
 20
25.99901962
  0
VERTEX
  8
0
 10
9.99994636
 20
25.99901962
  0
VERTEX
  8
0
 10
11.99994636
 20
25.99901962
  0
VERTEX
  8
0
 10
13.99994636
 20
25.99901962
  0
VERTEX
  8
0
 10
15.99994636
 20
25.99901962
  0
VERTEX
  8
0
 10
17.99994636
 20
25.99901962
  0
VERTEX
  8
0
 10
19.99994636
 20
25.99901962
  0
VERTEX
  8
0
 10
21.99994636
 20
25.99901962
  0
VERTEX
  8
0
 10
23.99994636
 20
25.99901962
  0
VERTEX
  8
0
 10
25.99994636
 20
25.99901962
  0
VERTEX
  8
0
 10
27.99994636
 20
25.99901962
  0
VERTEX
  8
0
 10
29.99994636
 20
25.99901962
  0
VERTEX
  8
0
 10
31.99994636
 20
25.99901962
  0
SEQEND
  0
POLYLINE
  8
Default_Layer
 62
256
 66
   1
 39
0.000000
 70
    0
  0
VERTEX
  8
0
 10
-0.00005364
 20
13.99901962
  0
VERTEX
  8
0
 10
1.99994636
 20
13.99901962
  0
VERTEX
  8
0
 10
3.99994636
 20
13.99901962
  0
VERTEX
  8
0
 10
5.99994636
 20
13.99901962
  0
VERTEX
  8
0
 10
7.99994636
 20
13.99901962
  0
VERTEX
  8
0
 10
9.99994636
 20
13.99901962
  0
VERTEX
  8
0
 10
11.99994636
 20
13.99901962
  0
VERTEX
  8
0
 10
13.99994636
 20
13.99901962
  0
VERTEX
  8
0
 10
15.99994636
 20
13.99901962
  0
VERTEX
  8
0
 10
17.99994636
 20
13.99901962
  0
VERTEX
  8
0
 10
19.99994636
 20
13.99901962
  0
VERTEX
  8
0
 10
21.99994636
 20
13.99901962
  0
VERTEX
  8
0
 10
23.99994636
 20
13.99901962
  0
VERTEX
  8
0
 10
25.99994636
 20
13.99901962
  0
VERTEX
  8
0
 10
27.99994636
 20
13.99901962
  0
VERTEX
  8
0
 10
29.99994636
 20
13.99901962
  0
VERTEX
  8
0
 10
31.99994636
 20
13.99901962
  0
SEQEND
  0
POLYLINE
  8
Default_Layer
 62
256
 66
   1
 39
0.000000
 70
    0
  0
VERTEX
  8
0
 10
-0.00005364
 20
15.99901962
  0
VERTEX
  8
0
 10
1.99994636
 20
15.99901962
  0
VERTEX
  8
0
 10
3.99994636
 20
15.99901962
  0
VERTEX
  8
0
 10
5.99994636
 20
15.99901962
  0
VERTEX
  8
0
 10
7.99994636
 20
15.99901962
  0
VERTEX
  8
0
 10
9.99994636
 20
15.99901962
  0
VERTEX
  8
0
 10
11.99994636
 20
15.99901962
  0
VERTEX
  8
0
 10
13.99994636
 20
15.99901962
  0
VERTEX
  8
0
 10
15.99994636
 20
15.99901962
  0
VERTEX
  8
0
 10
17.99994636
 20
15.99901962
  0
VERTEX
  8
0
 10
19.99994636
 20
15.99901962
  0
VERTEX
  8
0
 10
21.99994636
 20
15.99901962
  0
VERTEX
  8
0
 10
23.99994636
 20
15.99901962
  0
VERTEX
  8
0
 10
25.99994636
 20
15.99901962
  0
VERTEX
  8
0
 10
27.99994636
 20
15.99901962
  0
VERTEX
  8
0
 10
29.99994636
 20
15.99901962
  0
VERTEX
  8
0
 10
31.99994636
 20
15.99901962
  0
SEQEND
  0
POLYLINE
  8
Default_Layer
 62
256
 66
   1
 39
0.000000
 70
    0
  0
VERTEX
  8
0
 10
-0.00005364
 20
17.99901962
  0
VERTEX
  8
0
 10
1.99994636
 20
17.99901962
  0
VERTEX
  8
0
 10
3.99994636
 20
17.99901962
  0
VERTEX
  8
0
 10
5.99994636
 20
17.99901962
  0
VERTEX
  8
0
 10
7.99994636
 20
17.99901962
  0
VERTEX
  8
0
 10
9.99994636
 20
17.99901962
  0
VERTEX
  8
0
 10
11.99994636
 20
17.99901962
  0
VERTEX
  8
0
 10
13.99994636
 20
17.99901962
  0
VERTEX
  8
0
 10
15.99994636
 20
17.99901962
  0
VERTEX
  8
0
 10
17.99994636
 20
17.99901962
  0
VERTEX
  8
0
 10
19.99994636
 20
17.99901962
  0
VERTEX
  8
0
 10
21.99994636
 20
17.99901962
  0
VERTEX
  8
0
 10
23.99994636
 20
17.99901962
  0
VERTEX
  8
0
 10
25.99994636
 20
17.99901962
  0
VERTEX
  8
0
 10
27.99994636
 20
17.99901962
  0
VERTEX
  8
0
 10
29.99994636
 20
17.99901962
  0
VERTEX
  8
0
 10
31.99994636
 20
17.99901962
  0
SEQEND
  0
POLYLINE
  8
Default_Layer
 62
256
 66
   1
 39
0.000000
 70
    0
  0
VERTEX
  8
0
 10
-0.00005364
 20
19.99901962
  0
VERTEX
  8
0
 10
1.99994636
 20
19.99901962
  0
VERTEX
  8
0
 10
3.99994636
 20
19.99901962
  0
VERTEX
  8
0
 10
5.99994636
 20
19.99901962
  0
VERTEX
  8
0
 10
7.99994636
 20
19.99901962
  0
VERTEX
  8
0
 10
9.99994636
 20
19.99901962
  0
VERTEX
  8
0
 10
11.99994636
 20
19.99901962
  0
VERTEX
  8
0
 10
13.99994636
 20
19.99901962
  0
VERTEX
  8
0
 10
15.99994636
 20
19.99901962
  0
VERTEX
  8
0
 10
17.99994636
 20
19.99901962
  0
VERTEX
  8
0
 10
19.99994636
 20
19.99901962
  0
VERTEX
  8
0
 10
21.99994636
 20
19.99901962
  0
VERTEX
  8
0
 10
23.99994636
 20
19.99901962
  0
VERTEX
  8
0
 10
25.99994636
 20
19.99901962
  0
VERTEX
  8
0
 10
27.99994636
 20
19.99901962
  0
VERTEX
  8
0
 10
29.99994636
 20
19.99901962
  0
VERTEX
  8
0
 10
31.99994636
 20
19.99901962
  0
SEQEND
  0
POLYLINE
  8
Default_Layer
 62
256
 66
   1
 39
0.000000
 70
    0
  0
VERTEX
  8
0
 10
-0.14126760
 20
21.99901962
  0
VERTEX
  8
0
 10
-0.00005364
 20
21.99901962
  0
VERTEX
  8
0
 10
1.99994636
 20
21.99901962
  0
VERTEX
  8
0
 10
3.99994636
 20
21.99901962
  0
VERTEX
  8
0
 10
5.99994636
 20
21.99901962
  0
VERTEX
  8
0
 10
7.99994636
 20
21.99901962
  0
VERTEX
  8
0
 10
9.99994636
 20
21.99901962
  0
VERTEX
  8
0
 10
11.99994636
 20
21.99901962
  0
VERTEX
  8
0
 10
13.99994636
 20
21.99901962
  0
VERTEX
  8
0
 10
15.99994636
 20
21.99901962
  0
VERTEX
  8
0
 10
17.99994636
 20
21.99901962
  0
VERTEX
  8
0
 10
19.99994636
 20
21.99901962
  0
VERTEX
  8
0
 10
21.99994636
 20
21.99901962
  0
VERTEX
  8
0
 10
23.99994636
 20
21.99901962
  0
VERTEX
  8
0
 10
25.99994636
 20
21.99901962
  0
VERTEX
  8
0
 10
27.99994636
 20
21.99901962
  0
VERTEX
  8
0
 10
29.99994636
 20
21.99901962
  0
VERTEX
  8
0
 10
31.99994636
 20
21.99901962
  0
SEQEND
  0
POLYLINE
  8
Default_Layer
 62
256
 66
   1
 39
0.000000
 70
    0
  0
VERTEX
  8
0
 10
-0.14126760
 20
23.99901962
  0
VERTEX
  8
0
 10
-0.00005364
 20
23.99901962
  0
VERTEX
  8
0
 10
1.99994636
 20
23.99901962
  0
VERTEX
  8
0
 10
3.99994636
 20
23.99901962
  0
VERTEX
  8
0
 10
5.99994636
 20
23.99901962
  0
VERTEX
  8
0
 10
7.99994636
 20
23.99901962
  0
VERTEX
  8
0
 10
9.99994636
 20
23.99901962
  0
VERTEX
  8
0
 10
11.99994636
 20
23.99901962
  0
VERTEX
  8
0
 10
13.99994636
 20
23.99901962
  0
VERTEX
  8
0
 10
15.99994636
 20
23.99901962
  0
VERTEX
  8
0
 10
17.99994636
 20
23.99901962
  0
VERTEX
  8
0
 10
19.99994636
 20
23.99901962
  0
VERTEX
  8
0
 10
21.99994636
 20
23.99901962
  0
VERTEX
  8
0
 10
23.99994636
 20
23.99901962
  0
VERTEX
  8
0
 10
25.99994636
 20
23.99901962
  0
VERTEX
  8
0
 10
27.99994636
 20
23.99901962
  0
VERTEX
  8
0
 10
29.99994636
 20
23.99901962
  0
VERTEX
  8
0
 10
31.99994636
 20
23.99901962
  0
SEQEND
  0
POLYLINE
  8
Default_Layer
 62
256
 66
   1
 39
0.000000
 70
    1
  0
VERTEX
  8
0
 10
0.19423442
 20
0.02682966
  0
VERTEX
  8
0
 10
0.17722357
 20
0.02742701
  0
VERTEX
  8
0
 10
0.16126665
 20
0.02919497
  0
VERTEX
  8
0
 10
0.14636366
 20
0.03213355
  0
VERTEX
  8
0
 10
0.13251460
 20
0.03624274
  0
VERTEX
  8
0
 10
0.11971948
 20
0.04152254
  0
VERTEX
  8
0
 10
0.10797829
 20
0.04797296
  0
VERTEX
  8
0
 10
0.09729103
 20
0.05559399
  0
VERTEX
  8
0
 10
0.08765770
 20
0.06438564
  0
VERTEX
  8
0
 10
0.07920181
 20
0.07422424
  0
VERTEX
  8
0
 10
0.07187490
 20
0.08498623
  0
VERTEX
  8
0
 10
0.06567698
 20
0.09667163
  0
VERTEX
  8
0
 10
0.06060805
 20
0.10928043
  0
VERTEX
  8
0
 10
0.05666810
 20
0.12281262
  0
VERTEX
  8
0
 10
0.05385715
 20
0.13726822
  0
VERTEX
  8
0
 10
0.05217517
 20
0.15264721
  0
VERTEX
  8
0
 10
0.05162219
 20
0.16894961
  0
VERTEX
  8
0
 10
0.05177823
 20
0.39625354
  0
VERTEX
  8
0
 10
0.05235902
 20
0.41263038
  0
VERTEX
  8
0
 10
0.05407826
 20
0.42806077
  0
VERTEX
  8
0
 10
0.05693596
 20
0.44254472
  0
VERTEX
  8
0
 10
0.06093210
 20
0.45608221
  0
VERTEX
  8
0
 10
0.06606669
 20
0.46867326
  0
VERTEX
  8
0
 10
0.07233973
 20
0.48031785
  0
VERTEX
  8
0
 10
0.07975122
 20
0.49101600
  0
VERTEX
  8
0
 10
0.08830116
 20
0.50076770
  0
VERTEX
  8
0
 10
0.09794117
 20
0.50954611
  0
VERTEX
  8
0
 10
0.10862276
 20
0.51715248
  0
VERTEX
  8
0
 10
0.12034593
 20
0.52358679
  0
VERTEX
  8
0
 10
0.13311068
 20
0.52884905
  0
VERTEX
  8
0
 10
0.14691701
 20
0.53293925
  0
VERTEX
  8
0
 10
0.16176491
 20
0.53585740
  0
VERTEX
  8
0
 10
0.17765440
 20
0.53760350
  0
VERTEX
  8
0
 10
0.19458546
 20
0.53817755
  0
VERTEX
  8
0
 10
0.21159095
 20
0.53758558
  0
VERTEX
  8
0
 10
0.22753176
 20
0.53583375
  0
VERTEX
  8
0
 10
0.24240790
 20
0.53292206
  0
VERTEX
  8
0
 10
0.25621937
 20
0.52885050
  0
VERTEX
  8
0
 10
0.26896617
 20
0.52361909
  0
VERTEX
  8
0
 10
0.28064830
 20
0.51722782
  0
VERTEX
  8
0
 10
0.29126575
 20
0.50967668
  0
VERTEX
  8
0
 10
0.30081854
 20
0.50096568
  0
VERTEX
  8
0
 10
0.30935508
 20
0.49119688
  0
VERTEX
  8
0
 10
0.31675186
 20
0.48047245
  0
VERTEX
  8
0
 10
0.32300889
 20
0.46879239
  0
VERTEX
  8
0
 10
0.32812616
 20
0.45615669
  0
VERTEX
  8
0
 10
0.33210368
 20
0.44256537
  0
VERTEX
  8
0
 10
0.33494144
 20
0.42801841
  0
VERTEX
  8
0
 10
0.33663944
 20
0.41251582
  0
VERTEX
  8
0
 10
0.33719770
 20
0.39605760
  0
VERTEX
  8
0
 10
0.33704165
 20
0.16875367
  0
VERTEX
  8
0
 10
0.33646086
 20
0.15237146
  0
VERTEX
  8
0
 10
0.33474160
 20
0.13692494
  0
VERTEX
  8
0
 10
0.33188390
 20
0.12241414
  0
VERTEX
  8
0
 10
0.32788773
 20
0.10883903
  0
VERTEX
  8
0
 10
0.32275310
 20
0.09619963
  0
VERTEX
  8
0
 10
0.31648002
 20
0.08449593
  0
VERTEX
  8
0
 10
0.30906849
 20
0.07372793
  0
VERTEX
  8
0
 10
0.30051849
 20
0.06389564
  0
VERTEX
  8
0
 10
0.29087853
 20
0.05519782
  0
VERTEX
  8
0
 10
0.28019699
 20
0.04766130
  0
VERTEX
  8
0
 10
0.26847386
 20
0.04128610
  0
VERTEX
  8
0
 10
0.25570915
 20
0.03607220
  0
VERTEX
  8
0
 10
0.24190285
 20
0.03201960
  0
VERTEX
  8
0
 10
0.22705496
 20
0.02912832
  0
VERTEX
  8
0
 10
0.21116548
 20
0.02739834
  0
VERTEX
  8
0
 10
0.19423442
 20
0.02682966
  0
SEQEND
  0
POLYLINE
  8
Default_Layer
 62
256
 66
   1
 39
0.000000
 70
    1
  0
VERTEX
  8
0
 10
0.19427314
 20
0.08322580
  0
VERTEX
  8
0
 10
0.21417607
 20
0.08458765
  0
VERTEX
  8
0
 10
0.22306437
 20
0.08630094
  0
VERTEX
  8
0
 10
0.23124390
 20
0.08870248
  0
VERTEX
  8
0
 10
0.23871464
 20
0.09179227
  0
VERTEX
  8
0
 10
0.24547661
 20
0.09557029
  0
VERTEX
  8
0
 10
0.25152979
 20
0.10003656
  0
VERTEX
  8
0
 10
0.25687420
 20
0.10519108
  0
VERTEX
  8
0
 10
0.26163344
 20
0.11107137
  0
VERTEX
  8
0
 10
0.26575906
 20
0.11754314
  0
VERTEX
  8
0
 10
0.26925106
 20
0.12460638
  0
VERTEX
  8
0
 10
0.27210943
 20
0.13226110
  0
VERTEX
  8
0
 10
0.27592532
 20
0.14934497
  0
VERTEX
  8
0
 10
0.27720673
 20
0.16879475
  0
VERTEX
  8
0
 10
0.27736277
 20
0.39609868
  0
VERTEX
  8
0
 10
0.27610816
 20
0.41567915
  0
VERTEX
  8
0
 10
0.27452918
 20
0.42455124
  0
VERTEX
  8
0
 10
0.27231576
 20
0.43281123
  0
VERTEX
  8
0
 10
0.26946789
 20
0.44045912
  0
VERTEX
  8
0
 10
0.26598557
 20
0.44749491
  0
VERTEX
  8
0
 10
0.26186880
 20
0.45391861
  0
VERTEX
  8
0
 10
0.25711759
 20
0.45973020
  0
VERTEX
  8
0
 10
0.25178026
 20
0.46489205
  0
VERTEX
  8
0
 10
0.24573321
 20
0.46936663
  0
VERTEX
  8
0
 10
0.23897644
 20
0.47315394
  0
VERTEX
  8
0
 10
0.23150995
 20
0.47625397
  0
VERTEX
  8
0
 10
0.22333373
 20
0.47866674
  0
VERTEX
  8
0
 10
0.21444779
 20
0.48039223
  0
VERTEX
  8
0
 10
0.19454674
 20
0.48178141
  0
VERTEX
  8
0
 10
0.17462232
 20
0.48041957
  0
VERTEX
  8
0
 10
0.16570715
 20
0.47870630
  0
VERTEX
  8
0
 10
0.15749002
 20
0.47630479
  0
VERTEX
  8
0
 10
0.14997092
 20
0.47321504
  0
VERTEX
  8
0
 10
0.14314985
 20
0.46943705
  0
VERTEX
  8
0
 10
0.13702681
 20
0.46497083
  0
VERTEX
  8
0
 10
0.13160180
 20
0.45981637
  0
VERTEX
  8
0
 10
0.12692321
 20
0.45401125
  0
VERTEX
  8
0
 10
0.12286748
 20
0.44759316
  0
VERTEX
  8
0
 10
0.11943461
 20
0.44056212
  0
VERTEX
  8
0
 10
0.11662460
 20
0.43291811
  0
VERTEX
  8
0
 10
0.11287316
 20
0.41579121
  0
VERTEX
  8
0
 10
0.11161315
 20
0.39621247
  0
VERTEX
  8
0
 10
0.11145711
 20
0.16890853
  0
VERTEX
  8
0
 10
0.11271181
 20
0.14945701
  0
VERTEX
  8
0
 10
0.11650424
 20
0.13236792
  0
VERTEX
  8
0
 10
0.11935211
 20
0.12470928
  0
VERTEX
  8
0
 10
0.12283440
 20
0.11764125
  0
VERTEX
  8
0
 10
0.12695113
 20
0.11116383
  0
VERTEX
  8
0
 10
0.13170229
 20
0.10527701
  0
VERTEX
  8
0
 10
0.13711484
 20
0.10011511
  0
VERTEX
  8
0
 10
0.14321563
 20
0.09564049
  0
VERTEX
  8
0
 10
0.15000464
 20
0.09185316
  0
VERTEX
  8
0
 10
0.15748188
 20
0.08875312
  0
VERTEX
  8
0
 10
0.16564735
 20
0.08634036
  0
VERTEX
  8
0
 10
0.17450105
 20
0.08461489
  0
VERTEX
  8
0
 10
0.19427314
 20
0.08322580
  0
SEQEND
  0
POLYLINE
  8
Default_Layer
 62
256
 66
   1
 39
0.000000
 70
    1
  0
VERTEX
  8
0
 10
2.13478164
 20
0.08263270
  0
VERTEX
  8
0
 10
2.31617011
 20
0.32184799
  0
VERTEX
  8
0
 10
2.32412988
 20
0.33286815
  0
VERTEX
  8
0
 10
2.33114401
 20
0.34393194
  0
VERTEX
  8
0
 10
2.33721250
 20
0.35503937
  0
VERTEX
  8
0
 10
2.34233536
 20
0.36619043
  0
VERTEX
  8
0
 10
2.34640492
 20
0.37710579
  0
VERTEX
  8
0
 10
2.34931354
 20
0.38750614
  0
VERTEX
  8
0
 10
2.35106122
 20
0.39739146
  0
VERTEX
  8
0
 10
2.35164795
 20
0.40676176
  0
VERTEX
  8
0
 10
2.35164842
 20
0.40744952
  0
VERTEX
  8
0
 10
2.35039171
 20
0.42397807
  0
VERTEX
  8
0
 10
2.34659751
 20
0.43848807
  0
VERTEX
  8
0
 10
2.34374885
 20
0.44498611
  0
VERTEX
  8
0
 10
2.34026581
 20
0.45097952
  0
VERTEX
  8
0
 10
2.33614841
 20
0.45646829
  0
VERTEX
  8
0
 10
2.33139663
 20
0.46145243
  0
VERTEX
  8
0
 10
2.32606423
 20
0.46596950
  0
VERTEX
  8
0
 10
2.32020485
 20
0.46988515
  0
VERTEX
  8
0
 10
2.31381850
 20
0.47319937
  0
VERTEX
  8
0
 10
2.30690517
 20
0.47591216
  0
VERTEX
  8
0
 10
2.29149758
 20
0.47953347
  0
VERTEX
  8
0
 10
2.27398207
 20
0.48074907
  0
VERTEX
  8
0
 10
2.25743202
 20
0.47947088
  0
VERTEX
  8
0
 10
2.24251362
 20
0.47561249
  0
VERTEX
  8
0
 10
2.23566629
 20
0.47271571
  0
VERTEX
  8
0
 10
2.22922687
 20
0.46917387
  0
VERTEX
  8
0
 10
2.22319537
 20
0.46498699
  0
VERTEX
  8
0
 10
2.21757178
 20
0.46015505
  0
VERTEX
  8
0
 10
2.21241524
 20
0.45472638
  0
VERTEX
  8
0
 10
2.20778489
 20
0.44874928
  0
VERTEX
  8
0
 10
2.20010275
 20
0.43514984
  0
VERTEX
  8
0
 10
2.19452536
 20
0.41935673
  0
VERTEX
  8
0
 10
2.19105273
 20
0.40136994
  0
VERTEX
  8
0
 10
2.19105250
 20
0.40102606
  0
VERTEX
  8
0
 10
2.12881042
 20
0.40106879
  0
VERTEX
  8
0
 10
2.12881066
 20
0.40141267
  0
VERTEX
  8
0
 10
2.13271500
 20
0.42210721
  0
VERTEX
  8
0
 10
2.13820868
 20
0.44121022
  0
VERTEX
  8
0
 10
2.14529172
 20
0.45872169
  0
VERTEX
  8
0
 10
2.15396410
 20
0.47464164
  0
VERTEX
  8
0
 10
2.16429034
 20
0.48901299
  0
VERTEX
  8
0
 10
2.17599082
 20
0.50153505
  0
VERTEX
  8
0
 10
2.18906555
 20
0.51220782
  0
VERTEX
  8
0
 10
2.20351453
 20
0.52103129
  0
VERTEX
  8
0
 10
2.21923035
 20
0.52809151
  0
VERTEX
  8
0
 10
2.23610537
 20
0.53313065
  0
VERTEX
  8
0
 10
2.25413960
 20
0.53614871
  0
VERTEX
  8
0
 10
2.27333303
 20
0.53714568
  0
VERTEX
  8
0
 10
2.29486778
 20
0.53616373
  0
VERTEX
  8
0
 10
2.31476778
 20
0.53324859
  0
VERTEX
  8
0
 10
2.33303303
 20
0.52840025
  0
VERTEX
  8
0
 10
2.34966352
 20
0.52161872
  0
VERTEX
  8
0
 10
2.36453048
 20
0.51316198
  0
VERTEX
  8
0
 10
2.37750490
 20
0.50294417
  0
VERTEX
  8
0
 10
2.38858678
 20
0.49096527
  0
VERTEX
  8
0
 10
2.39777611
 20
0.47722529
  0
VERTEX
  8
0
 10
2.40498702
 20
0.46185325
  0
VERTEX
  8
0
 10
2.41013362
 20
0.44497815
  0
VERTEX
  8
0
 10
2.41321591
 20
0.42660000
  0
VERTEX
  8
0
 10
2.41423390
 20
0.40671879
  0
VERTEX
  8
0
 10
2.41423366
 20
0.40637491
  0
VERTEX
  8
0
 10
2.41345123
 20
0.39369491
  0
VERTEX
  8
0
 10
2.41112093
 20
0.38041418
  0
VERTEX
  8
0
 10
2.40724276
 20
0.36653273
  0
VERTEX
  8
0
 10
2.40181673
 20
0.35205055
  0
VERTEX
  8
0
 10
2.39516543
 20
0.33728981
  0
VERTEX
  8
0
 10
2.38726760
 20
0.32257291
  0
VERTEX
  8
0
 10
2.37812324
 20
0.30789985
  0
VERTEX
  8
0
 10
2.36773235
 20
0.29327063
  0
VERTEX
  8
0
 10
2.21250228
 20
0.08842529
  0
VERTEX
  8
0
 10
2.41676633
 20
0.08828507
  0
VERTEX
  8
0
 10
2.41672761
 20
0.03188893
  0
VERTEX
  8
0
 10
2.13474694
 20
0.03208251
  0
VERTEX
  8
0
 10
2.13478164
 20
0.08263270
  0
SEQEND
  0
POLYLINE
  8
Default_Layer
 62
256
 66
   1
 39
0.000000
 70
    1
  0
VERTEX
  8
0
 10
4.20154681
 20
0.15932985
  0
VERTEX
  8
0
 10
4.36961536
 20
0.53163547
  0
VERTEX
  8
0
 10
4.43151356
 20
0.53159298
  0
VERTEX
  8
0
 10
4.26757438
 20
0.16341107
  0
VERTEX
  8
0
 10
4.52307639
 20
0.16323567
  0
VERTEX
  8
0
 10
4.52303885
 20
0.10855893
  0
VERTEX
  8
0
 10
4.20151210
 20
0.10877966
  0
VERTEX
  8
0
 10
4.20154681
 20
0.15932985
  0
SEQEND
  0
POLYLINE
  8
Default_Layer
 62
256
 66
   1
 39
0.000000
 70
    1
  0
VERTEX
  8
0
 10
4.42243154
 20
0.32595955
  0
VERTEX
  8
0
 10
4.48054707
 20
0.32591965
  0
VERTEX
  8
0
 10
4.48034499
 20
0.03155934
  0
VERTEX
  8
0
 10
4.42222946
 20
0.03159923
  0
VERTEX
  8
0
 10
4.42243154
 20
0.32595955
  0
SEQEND
  0
POLYLINE
  8
Default_Layer
 62
256
 66
   1
 39
0.000000
 70
    1
  0
VERTEX
  8
0
 10
6.25097445
 20
0.02682978
  0
VERTEX
  8
0
 10
6.22976218
 20
0.02794046
  0
VERTEX
  8
0
 10
6.21014185
 20
0.03124227
  0
VERTEX
  8
0
 10
6.19211346
 20
0.03673522
  0
VERTEX
  8
0
 10
6.17567702
 20
0.04441930
  0
VERTEX
  8
0
 10
6.16096152
 20
0.05435891
  0
VERTEX
  8
0
 10
6.14809573
 20
0.06627456
  0
VERTEX
  8
0
 10
6.13707964
 20
0.08016623
  0
VERTEX
  8
0
 10
6.12791327
 20
0.09603395
  0
VERTEX
  8
0
 10
6.12085453
 20
0.11392050
  0
VERTEX
  8
0
 10
6.11581727
 20
0.13352507
  0
VERTEX
  8
0
 10
6.11280147
 20
0.15484764
  0
VERTEX
  8
0
 10
6.11180714
 20
0.17788822
  0
VERTEX
  8
0
 10
6.11180738
 20
0.17823209
  0
VERTEX
  8
0
 10
6.11222541
 20
0.19233085
  0
VERTEX
  8
0
 10
6.11346040
 20
0.20677292
  0
VERTEX
  8
0
 10
6.11551233
 20
0.22155831
  0
VERTEX
  8
0
 10
6.11838121
 20
0.23668702
  0
VERTEX
  8
0
 10
6.12639723
 20
0.26702884
  0
VERTEX
  8
0
 10
6.13733586
 20
0.29685284
  0
VERTEX
  8
0
 10
6.14181313
 20
0.30682225
  0
VERTEX
  8
0
 10
6.14663428
 20
0.31679144
  0
VERTEX
  8
0
 10
6.25544779
 20
0.53198501
  0
VERTEX
  8
0
 10
6.32078477
 20
0.53194016
  0
VERTEX
  8
0
 10
6.19303456
 20
0.28271556
  0
VERTEX
  8
0
 10
6.19338694
 20
0.29509496
  0
VERTEX
  8
0
 10
6.19857185
 20
0.30272122
  0
VERTEX
  8
0
 10
6.20483076
 20
0.30944406
  0
VERTEX
  8
0
 10
6.21216368
 20
0.31526347
  0
VERTEX
  8
0
 10
6.22057060
 20
0.32017947
  0
VERTEX
  8
0
 10
6.23000846
 20
0.32408462
  0
VERTEX
  8
0
 10
6.24009033
 20
0.32687171
  0
VERTEX
  8
0
 10
6.25081620
 20
0.32854076
  0
VERTEX
  8
0
 10
6.26218608
 20
0.32909176
  0
VERTEX
  8
0
 10
6.28174344
 20
0.32798222
  0
VERTEX
  8
0
 10
6.29983781
 20
0.32468145
  0
VERTEX
  8
0
 10
6.31646919
 20
0.31918946
  0
VERTEX
  8
0
 10
6.33163757
 20
0.31150625
  0
VERTEX
  8
0
 10
6.34534303
 20
0.30171778
  0
VERTEX
  8
0
 10
6.35724174
 20
0.28991026
  0
VERTEX
  8
0
 10
6.36733369
 20
0.27608369
  0
VERTEX
  8
0
 10
6.37561890
 20
0.26023808
  0
VERTEX
  8
0
 10
6.38222652
 20
0.24269571
  0
VERTEX
  8
0
 10
6.38694164
 20
0.22343525
  0
VERTEX
  8
0
 10
6.38976424
 20
0.20245669
  0
VERTEX
  8
0
 10
6.39069433
 20
0.17976004
  0
VERTEX
  8
0
 10
6.39069409
 20
0.17941616
  0
VERTEX
  8
0
 10
6.38964652
 20
0.15620504
  0
VERTEX
  8
0
 10
6.38653685
 20
0.13471474
  0
VERTEX
  8
0
 10
6.38136510
 20
0.11494524
  0
VERTEX
  8
0
 10
6.37413125
 20
0.09689656
  0
VERTEX
  8
0
 10
6.36507184
 20
0.08074046
  0
VERTEX
  8
0
 10
6.35407953
 20
0.06664897
  0
VERTEX
  8
0
 10
6.34115432
 20
0.05462208
  0
VERTEX
  8
0
 10
6.32629620
 20
0.04465978
  0
VERTEX
  8
0
 10
6.30984912
 20
0.03684783
  0
VERTEX
  8
0
 10
6.29181314
 20
0.03127217
  0
VERTEX
  8
0
 10
6.27218825
 20
0.02793283
  0
VERTEX
  8
0
 10
6.25097445
 20
0.02682978
  0
SEQEND
  0
POLYLINE
  8
Default_Layer
 62
256
 66
   1
 39
0.000000
 70
    1
  0
VERTEX
  8
0
 10
6.25101364
 20
0.08391367
  0
VERTEX
  8
0
 10
6.26028250
 20
0.08427268
  0
VERTEX
  8
0
 10
6.26900381
 20
0.08536281
  0
VERTEX
  8
0
 10
6.27717756
 20
0.08718406
  0
VERTEX
  8
0
 10
6.28480375
 20
0.08973642
  0
VERTEX
  8
0
 10
6.29188239
 20
0.09301991
  0
VERTEX
  8
0
 10
6.29841348
 20
0.09703451
  0
VERTEX
  8
0
 10
6.30439701
 20
0.10178023
  0
VERTEX
  8
0
 10
6.30983298
 20
0.10725707
  0
VERTEX
  8
0
 10
6.31475360
 20
0.11340590
  0
VERTEX
  8
0
 10
6.31901911
 20
0.12016772
  0
VERTEX
  8
0
 10
6.32262953
 20
0.12754252
  0
VERTEX
  8
0
 10
6.32558485
 20
0.13553031
  0
VERTEX
  8
0
 10
6.32788508
 20
0.14413108
  0
VERTEX
  8
0
 10
6.32953020
 20
0.15334483
  0
VERTEX
  8
0
 10
6.33085515
 20
0.17361129
  0
VERTEX
  8
0
 10
6.33085539
 20
0.17395517
  0
VERTEX
  8
0
 10
6.32951650
 20
0.19600733
  0
VERTEX
  8
0
 10
6.32783086
 20
0.20603471
  0
VERTEX
  8
0
 10
6.32546774
 20
0.21539629
  0
VERTEX
  8
0
 10
6.32242716
 20
0.22409207
  0
VERTEX
  8
0
 10
6.31870911
 20
0.23212205
  0
VERTEX
  8
0
 10
6.31431358
 20
0.23948623
  0
VERTEX
  8
0
 10
6.30924059
 20
0.24618461
  0
VERTEX
  8
0
 10
6.30354388
 20
0.25223327
  0
VERTEX
  8
0
 10
6.29727706
 20
0.25747635
  0
VERTEX
  8
0
 10
6.29044013
 20
0.26191386
  0
VERTEX
  8
0
 10
6.28303311
 20
0.26554579
  0
VERTEX
  8
0
 10
6.27505598
 20
0.26837215
  0
VERTEX
  8
0
 10
6.26650875
 20
0.27039294
  0
VERTEX
  8
0
 10
6.25739142
 20
0.27160815
  0
VERTEX
  8
0
 10
6.24770398
 20
0.27201778
  0
VERTEX
  8
0
 10
6.23892942
 20
0.27162082
  0
VERTEX
  8
0
 10
6.23065938
 20
0.27041755
  0
VERTEX
  8
0
 10
6.22289385
 20
0.26840796
  0
VERTEX
  8
0
 10
6.21563285
 20
0.26559206
  0
VERTEX
  8
0
 10
6.20887636
 20
0.26196985
  0
VERTEX
  8
0
 10
6.20262440
 20
0.25754133
  0
VERTEX
  8
0
 10
6.19687695
 20
0.25230649
  0
VERTEX
  8
0
 10
6.19163402
 20
0.24626534
  0
VERTEX
  8
0
 10
6.18695482
 20
0.23956829
  0
VERTEX
  8
0
 10
6.18289843
 20
0.23219379
  0
VERTEX
  8
0
 10
6.17946486
 20
0.22414186
  0
VERTEX
  8
0
 10
6.17665410
 20
0.21541248
  0
VERTEX
  8
0
 10
6.17290104
 20
0.19592142
  0
VERTEX
  8
0
 10
6.17163923
 20
0.17372059
  0
VERTEX
  8
0
 10
6.17163900
 20
0.17337671
  0
VERTEX
  8
0
 10
6.17291473
 20
0.15325891
  0
VERTEX
  8
0
 10
6.17452038
 20
0.14410203
  0
VERTEX
  8
0
 10
6.17677121
 20
0.13554650
  0
VERTEX
  8
0
 10
6.17966723
 20
0.12759231
  0
VERTEX
  8
0
 10
6.18320844
 20
0.12023946
  0
VERTEX
  8
0
 10
6.18739483
 20
0.11348796
  0
VERTEX
  8
0
 10
6.19222640
 20
0.10733781
  0
VERTEX
  8
0
 10
6.19773008
 20
0.10185346
  0
VERTEX
  8
0
 10
6.20376082
 20
0.09709949
  0
VERTEX
  8
0
 10
6.21031862
 20
0.09307590
  0
VERTEX
  8
0
 10
6.21740349
 20
0.08978269
  0
VERTEX
  8
0
 10
6.22501543
 20
0.08721987
  0
VERTEX
  8
0
 10
6.23315443
 20
0.08538742
  0
VERTEX
  8
0
 10
6.24182050
 20
0.08428536
  0
VERTEX
  8
0
 10
6.25101364
 20
0.08391367
  0
SEQEND
  0
POLYLINE
  8
Default_Layer
 62
256
 66
   1
 39
0.000000
 70
    1
  0
VERTEX
  8
0
 10
8.33212988
 20
0.02682966
  0
VERTEX
  8
0
 10
8.30967100
 20
0.02787672
  0
VERTEX
  8
0
 10
8.28871801
 20
0.03098601
  0
VERTEX
  8
0
 10
8.26927090
 20
0.03615755
  0
VERTEX
  8
0
 10
8.25132968
 20
0.04339133
  0
VERTEX
  8
0
 10
8.23528122
 20
0.05270857
  0
VERTEX
  8
0
 10
8.22116830
 20
0.06378686
  0
VERTEX
  8
0
 10
8.20899090
 20
0.07662621
  0
VERTEX
  8
0
 10
8.19874903
 20
0.09122661
  0
VERTEX
  8
0
 10
8.19078656
 20
0.10758782
  0
VERTEX
  8
0
 10
8.18510327
 20
0.12536597
  0
VERTEX
  8
0
 10
8.18169915
 20
0.14456106
  0
VERTEX
  8
0
 10
8.18057420
 20
0.16517308
  0
VERTEX
  8
0
 10
8.18057869
 20
0.17170678
  0
VERTEX
  8
0
 10
8.18173074
 20
0.19057635
  0
VERTEX
  8
0
 10
8.18516046
 20
0.20867063
  0
VERTEX
  8
0
 10
8.19086785
 20
0.22598962
  0
VERTEX
  8
0
 10
8.19885290
 20
0.24253331
  0
VERTEX
  8
0
 10
8.20898629
 20
0.25776450
  0
VERTEX
  8
0
 10
8.22079483
 20
0.27114618
  0
VERTEX
  8
0
 10
8.23427851
 20
0.28267836
  0
VERTEX
  8
0
 10
8.24943732
 20
0.29236105
  0
VERTEX
  8
0
 10
8.23656920
 20
0.30088089
  0
VERTEX
  8
0
 10
8.22512064
 20
0.31094721
  0
VERTEX
  8
0
 10
8.21509164
 20
0.32256001
  0
VERTEX
  8
0
 10
8.20648221
 20
0.33571929
  0
VERTEX
  8
0
 10
8.19972196
 20
0.35010238
  0
VERTEX
  8
0
 10
8.19489642
 20
0.36504293
  0
VERTEX
  8
0
 10
8.19200558
 20
0.38054097
  0
VERTEX
  8
0
 10
8.19104944
 20
0.39659648
  0
VERTEX
  8
0
 10
8.19105534
 20
0.40519345
  0
VERTEX
  8
0
 10
8.19214342
 20
0.42479381
  0
VERTEX
  8
0
 10
8.19537980
 20
0.44301717
  0
VERTEX
  8
0
 10
8.20076447
 20
0.45986355
  0
VERTEX
  8
0
 10
8.20829745
 20
0.47533294
  0
VERTEX
  8
0
 10
8.21780676
 20
0.48940396
  0
VERTEX
  8
0
 10
8.22912024
 20
0.50171136
  0
VERTEX
  8
0
 10
8.24223786
 20
0.51225514
  0
VERTEX
  8
0
 10
8.25715964
 20
0.52103530
  0
VERTEX
  8
0
 10
8.27386412
 20
0.52809485
  0
VERTEX
  8
0
 10
8.29198570
 20
0.53313313
  0
VERTEX
  8
0
 10
8.31152440
 20
0.53615015
  0
VERTEX
  8
0
 10
8.33248021
 20
0.53714591
  0
VERTEX
  8
0
 10
8.35356359
 20
0.53612129
  0
VERTEX
  8
0
 10
8.37314112
 20
0.53307742
  0
VERTEX
  8
0
 10
8.39121278
 20
0.52801429
  0
VERTEX
  8
0
 10
8.40777859
 20
0.52093191
  0
VERTEX
  8
0
 10
8.42281726
 20
0.51213117
  0
VERTEX
  8
0
 10
8.43596338
 20
0.50156936
  0
VERTEX
  8
0
 10
8.44721696
 20
0.48924647
  0
VERTEX
  8
0
 10
8.45657799
 20
0.47516249
  0
VERTEX
  8
0
 10
8.46408972
 20
0.45968278
  0
VERTEX
  8
0
 10
8.46945126
 20
0.44282903
  0
VERTEX
  8
0
 10
8.47266261
 20
0.42460123
  0
VERTEX
  8
0
 10
8.47372378
 20
0.40499940
  0
VERTEX
  8
0
 10
8.47371788
 20
0.39640243
  0
VERTEX
  8
0
 10
8.47271791
 20
0.37991841
  0
VERTEX
  8
0
 10
8.46974114
 20
0.36416650
  0
VERTEX
  8
0
 10
8.46478757
 20
0.34914668
  0
VERTEX
  8
0
 10
8.45785719
 20
0.33485897
  0
VERTEX
  8
0
 10
8.44918683
 20
0.32188349
  0
VERTEX
  8
0
 10
8.43901306
 20
0.31045649
  0
VERTEX
  8
0
 10
8.42733589
 20
0.30057799
  0
VERTEX
  8
0
 10
8.41415530
 20
0.29224797
  0
VERTEX
  8
0
 10
8.42960160
 20
0.28239383
  0
VERTEX
  8
0
 10
8.44328428
 20
0.27073553
  0
VERTEX
  8
0
 10
8.45520335
 20
0.25727308
  0
VERTEX
  8
0
 10
8.46535879
 20
0.24200648
  0
VERTEX
  8
0
 10
8.47347167
 20
0.22560218
  0
VERTEX
  8
0
 10
8.47926281
 20
0.20838276
  0
VERTEX
  8
0
 10
8.48273220
 20
0.19034822
  0
VERTEX
  8
0
 10
8.48387985
 20
0.17149856
  0
VERTEX
  8
0
 10
8.48387537
 20
0.16496486
  0
VERTEX
  8
0
 10
8.48272212
 20
0.14435441
  0
VERTEX
  8
0
 10
8.47929165
 20
0.12516401
  0
VERTEX
  8
0
 10
8.47358395
 20
0.10739368
  0
VERTEX
  8
0
 10
8.46559903
 20
0.09104342
  0
VERTEX
  8
0
 10
8.45546608
 20
0.07645701
  0
VERTEX
  8
0
 10
8.44331405
 20
0.06363436
  0
VERTEX
  8
0
 10
8.42914294
 20
0.05257548
  0
VERTEX
  8
0
 10
8.41295275
 20
0.04328037
  0
VERTEX
  8
0
 10
8.39513057
 20
0.03607115
  0
VERTEX
  8
0
 10
8.37571936
 20
0.03092629
  0
VERTEX
  8
0
 10
8.35471914
 20
0.02784579
  0
VERTEX
  8
0
 10
8.33212988
 20
0.02682966
  0
SEQEND
  0
POLYLINE
  8
Default_Layer
 62
256
 66
   1
 39
0.000000
 70
    1
  0
VERTEX
  8
0
 10
8.33216860
 20
0.08322580
  0
VERTEX
  8
0
 10
8.34579524
 20
0.08386122
  0
VERTEX
  8
0
 10
8.35847710
 20
0.08578683
  0
VERTEX
  8
0
 10
8.37021418
 20
0.08900264
  0
VERTEX
  8
0
 10
8.38100648
 20
0.09350864
  0
VERTEX
  8
0
 10
8.39072499
 20
0.09921896
  0
VERTEX
  8
0
 10
8.39924068
 20
0.10604771
  0
VERTEX
  8
0
 10
8.40655356
 20
0.11399489
  0
VERTEX
  8
0
 10
8.41266364
 20
0.12306051
  0
VERTEX
  8
0
 10
8.41748497
 20
0.13328760
  0
VERTEX
  8
0
 10
8.42093137
 20
0.14437533
  0
VERTEX
  8
0
 10
8.42300285
 20
0.15632371
  0
VERTEX
  8
0
 10
8.42369940
 20
0.16913272
  0
VERTEX
  8
0
 10
8.42370152
 20
0.17222763
  0
VERTEX
  8
0
 10
8.42302265
 20
0.18516655
  0
VERTEX
  8
0
 10
8.42096761
 20
0.19716074
  0
VERTEX
  8
0
 10
8.41753640
 20
0.20821021
  0
VERTEX
  8
0
 10
8.41272903
 20
0.21831496
  0
VERTEX
  8
0
 10
8.40663151
 20
0.22753940
  0
VERTEX
  8
0
 10
8.39932962
 20
0.23560408
  0
VERTEX
  8
0
 10
8.39082335
 20
0.24250899
  0
VERTEX
  8
0
 10
8.38111271
 20
0.24825414
  0
VERTEX
  8
0
 10
8.37032672
 20
0.25292540
  0
VERTEX
  8
0
 10
8.35859414
 20
0.25626478
  0
VERTEX
  8
0
 10
8.34591498
 20
0.25827228
  0
VERTEX
  8
0
 10
8.33228923
 20
0.25894790
  0
VERTEX
  8
0
 10
8.31866257
 20
0.25829099
  0
VERTEX
  8
0
 10
8.30598067
 20
0.25630090
  0
VERTEX
  8
0
 10
8.29424352
 20
0.25297763
  0
VERTEX
  8
0
 10
8.28345111
 20
0.24832118
  0
VERTEX
  8
0
 10
8.27388304
 20
0.24258927
  0
VERTEX
  8
0
 10
8.26547477
 20
0.23569597
  0
VERTEX
  8
0
 10
8.25822629
 20
0.22764128
  0
VERTEX
  8
0
 10
8.25213760
 20
0.21842520
  0
VERTEX
  8
0
 10
8.24731626
 20
0.20817662
  0
VERTEX
  8
0
 10
8.24386981
 20
0.19702441
  0
VERTEX
  8
0
 10
8.24179826
 20
0.18496857
  0
VERTEX
  8
0
 10
8.24110161
 20
0.17200911
  0
VERTEX
  8
0
 10
8.24109924
 20
0.16857032
  0
VERTEX
  8
0
 10
8.24177833
 20
0.15593230
  0
VERTEX
  8
0
 10
8.24383351
 20
0.14415303
  0
VERTEX
  8
0
 10
8.24726481
 20
0.13323251
  0
VERTEX
  8
0
 10
8.25207221
 20
0.12317075
  0
VERTEX
  8
0
 10
8.25814834
 20
0.11409677
  0
VERTEX
  8
0
 10
8.26538583
 20
0.10613960
  0
VERTEX
  8
0
 10
8.27378468
 20
0.09929924
  0
VERTEX
  8
0
 10
8.28334488
 20
0.09357569
  0
VERTEX
  8
0
 10
8.29413098
 20
0.08905487
  0
VERTEX
  8
0
 10
8.30586364
 20
0.08582295
  0
VERTEX
  8
0
 10
8.31854284
 20
0.08387993
  0
VERTEX
  8
0
 10
8.33216860
 20
0.08322580
  0
SEQEND
  0
POLYLINE
  8
Default_Layer
 62
256
 66
   1
 39
0.000000
 70
    1
  0
VERTEX
  8
0
 10
8.33232724
 20
0.31431240
  0
VERTEX
  8
0
 10
8.34462134
 20
0.31492724
  0
VERTEX
  8
0
 10
8.35605659
 20
0.31678923
  0
VERTEX
  8
0
 10
8.36663301
 20
0.31989838
  0
VERTEX
  8
0
 10
8.37635058
 20
0.32425467
  0
VERTEX
  8
0
 10
8.38510179
 20
0.32977222
  0
VERTEX
  8
0
 10
8.39277912
 20
0.33636513
  0
VERTEX
  8
0
 10
8.39938256
 20
0.34403340
  0
VERTEX
  8
0
 10
8.40491212
 20
0.35277702
  0
VERTEX
  8
0
 10
8.40928187
 20
0.36266055
  0
VERTEX
  8
0
 10
8.41240565
 20
0.37340462
  0
VERTEX
  8
0
 10
8.41428346
 20
0.38500925
  0
VERTEX
  8
0
 10
8.41491530
 20
0.39747443
  0
VERTEX
  8
0
 10
8.41491860
 20
0.40228874
  0
VERTEX
  8
0
 10
8.41430341
 20
0.41406702
  0
VERTEX
  8
0
 10
8.41244106
 20
0.42498645
  0
VERTEX
  8
0
 10
8.40933156
 20
0.43504705
  0
VERTEX
  8
0
 10
8.40497492
 20
0.44424880
  0
VERTEX
  8
0
 10
8.39945713
 20
0.45265614
  0
VERTEX
  8
0
 10
8.39286399
 20
0.45998958
  0
VERTEX
  8
0
 10
8.38519548
 20
0.46624915
  0
VERTEX
  8
0
 10
8.37645162
 20
0.47143483
  0
VERTEX
  8
0
 10
8.36673993
 20
0.47565401
  0
VERTEX
  8
0
 10
8.35616772
 20
0.47867021
  0
VERTEX
  8
0
 10
8.34473499
 20
0.48048343
  0
VERTEX
  8
0
 10
8.33244173
 20
0.48109366
  0
VERTEX
  8
0
 10
8.32029810
 20
0.48050020
  0
VERTEX
  8
0
 10
8.30897035
 20
0.47870261
  0
VERTEX
  8
0
 10
8.29845848
 20
0.47570089
  0
VERTEX
  8
0
 10
8.28876251
 20
0.47149503
  0
VERTEX
  8
0
 10
8.28001153
 20
0.46632136
  0
VERTEX
  8
0
 10
8.27233444
 20
0.46007233
  0
VERTEX
  8
0
 10
8.26573123
 20
0.45274794
  0
VERTEX
  8
0
 10
8.26020191
 20
0.44434819
  0
VERTEX
  8
0
 10
8.25583253
 20
0.43500198
  0
VERTEX
  8
0
 10
8.25270915
 20
0.42483820
  0
VERTEX
  8
0
 10
8.25083177
 20
0.41385685
  0
VERTEX
  8
0
 10
8.25020039
 20
0.40205794
  0
VERTEX
  8
0
 10
8.25019685
 20
0.39689975
  0
VERTEX
  8
0
 10
8.25081169
 20
0.38460565
  0
VERTEX
  8
0
 10
8.25267368
 20
0.37317040
  0
VERTEX
  8
0
 10
8.25578282
 20
0.36259398
  0
VERTEX
  8
0
 10
8.26013912
 20
0.35287641
  0
VERTEX
  8
0
 10
8.26565667
 20
0.34412520
  0
VERTEX
  8
0
 10
8.27224957
 20
0.33644787
  0
VERTEX
  8
0
 10
8.27991784
 20
0.32984443
  0
VERTEX
  8
0
 10
8.28866147
 20
0.32431487
  0
VERTEX
  8
0
 10
8.29835156
 20
0.31994525
  0
VERTEX
  8
0
 10
8.30885922
 20
0.31682164
  0
VERTEX
  8
0
 10
8.32018444
 20
0.31494402
  0
VERTEX
  8
0
 10
8.33232724
 20
0.31431240
  0
SEQEND
  0
POLYLINE
  8
Default_Layer
 62
256
 66
   1
 39
0.000000
 70
    1
  0
VERTEX
  8
0
 10
10.21555845
 20
0.03194996
  0
VERTEX
  8
0
 10
10.15572352
 20
0.03199103
  0
VERTEX
  8
0
 10
10.15602617
 20
0.47284375
  0
VERTEX
  8
0
 10
10.07449217
 20
0.42234950
  0
VERTEX
  8
0
 10
10.07453490
 20
0.48459158
  0
VERTEX
  8
0
 10
10.14575040
 20
0.53199800
  0
VERTEX
  8
0
 10
10.21590169
 20
0.53194984
  0
VERTEX
  8
0
 10
10.21555845
 20
0.03194996
  0
SEQEND
  0
POLYLINE
  8
Default_Layer
 62
256
 66
   1
 39
0.000000
 70
    1
  0
VERTEX
  8
0
 10
10.47174474
 20
0.02682966
  0
VERTEX
  8
0
 10
10.45473388
 20
0.02742701
  0
VERTEX
  8
0
 10
10.43877696
 20
0.02919497
  0
VERTEX
  8
0
 10
10.42387397
 20
0.03213355
  0
VERTEX
  8
0
 10
10.41002492
 20
0.03624274
  0
VERTEX
  8
0
 10
10.39722979
 20
0.04152254
  0
VERTEX
  8
0
 10
10.38548860
 20
0.04797296
  0
VERTEX
  8
0
 10
10.37480135
 20
0.05559399
  0
VERTEX
  8
0
 10
10.36516802
 20
0.06438564
  0
VERTEX
  8
0
 10
10.35671213
 20
0.07422424
  0
VERTEX
  8
0
 10
10.34938522
 20
0.08498623
  0
VERTEX
  8
0
 10
10.34318730
 20
0.09667163
  0
VERTEX
  8
0
 10
10.33811837
 20
0.10928043
  0
VERTEX
  8
0
 10
10.33417842
 20
0.12281262
  0
VERTEX
  8
0
 10
10.33136746
 20
0.13726822
  0
VERTEX
  8
0
 10
10.32968549
 20
0.15264721
  0
VERTEX
  8
0
 10
10.32913250
 20
0.16894961
  0
VERTEX
  8
0
 10
10.32928855
 20
0.39625354
  0
VERTEX
  8
0
 10
10.32986934
 20
0.41263038
  0
VERTEX
  8
0
 10
10.33158858
 20
0.42806077
  0
VERTEX
  8
0
 10
10.33444627
 20
0.44254472
  0
VERTEX
  8
0
 10
10.33844241
 20
0.45608221
  0
VERTEX
  8
0
 10
10.34357700
 20
0.46867326
  0
VERTEX
  8
0
 10
10.34985004
 20
0.48031785
  0
VERTEX
  8
0
 10
10.35726153
 20
0.49101600
  0
VERTEX
  8
0
 10
10.36581147
 20
0.50076770
  0
VERTEX
  8
0
 10
10.37545149
 20
0.50954611
  0
VERTEX
  8
0
 10
10.38613308
 20
0.51715248
  0
VERTEX
  8
0
 10
10.39785625
 20
0.52358679
  0
VERTEX
  8
0
 10
10.41062100
 20
0.52884905
  0
VERTEX
  8
0
 10
10.42442732
 20
0.53293925
  0
VERTEX
  8
0
 10
10.43927523
 20
0.53585740
  0
VERTEX
  8
0
 10
10.45516471
 20
0.53760350
  0
VERTEX
  8
0
 10
10.47209578
 20
0.53817755
  0
VERTEX
  8
0
 10
10.48910126
 20
0.53758558
  0
VERTEX
  8
0
 10
10.50504208
 20
0.53583375
  0
VERTEX
  8
0
 10
10.51991822
 20
0.53292206
  0
VERTEX
  8
0
 10
10.53372969
 20
0.52885050
  0
VERTEX
  8
0
 10
10.54647649
 20
0.52361909
  0
VERTEX
  8
0
 10
10.55815862
 20
0.51722782
  0
VERTEX
  8
0
 10
10.56877607
 20
0.50967668
  0
VERTEX
  8
0
 10
10.57832885
 20
0.50096568
  0
VERTEX
  8
0
 10
10.58686539
 20
0.49119688
  0
VERTEX
  8
0
 10
10.59426217
 20
0.48047245
  0
VERTEX
  8
0
 10
10.60051920
 20
0.46879239
  0
VERTEX
  8
0
 10
10.60563648
 20
0.45615669
  0
VERTEX
  8
0
 10
10.60961399
 20
0.44256537
  0
VERTEX
  8
0
 10
10.61245175
 20
0.42801841
  0
VERTEX
  8
0
 10
10.61414976
 20
0.41251582
  0
VERTEX
  8
0
 10
10.61470801
 20
0.39605760
  0
VERTEX
  8
0
 10
10.61455197
 20
0.16875367
  0
VERTEX
  8
0
 10
10.61397117
 20
0.15237146
  0
VERTEX
  8
0
 10
10.61225192
 20
0.13692494
  0
VERTEX
  8
0
 10
10.60939421
 20
0.12241414
  0
VERTEX
  8
0
 10
10.60539804
 20
0.10883903
  0
VERTEX
  8
0
 10
10.60026342
 20
0.09619963
  0
VERTEX
  8
0
 10
10.59399034
 20
0.08449593
  0
VERTEX
  8
0
 10
10.58657880
 20
0.07372793
  0
VERTEX
  8
0
 10
10.57802881
 20
0.06389564
  0
VERTEX
  8
0
 10
10.56838885
 20
0.05519782
  0
VERTEX
  8
0
 10
10.55770731
 20
0.04766130
  0
VERTEX
  8
0
 10
10.54598418
 20
0.04128610
  0
VERTEX
  8
0
 10
10.53321946
 20
0.03607220
  0
VERTEX
  8
0
 10
10.51941316
 20
0.03201960
  0
VERTEX
  8
0
 10
10.50456527
 20
0.02912832
  0
VERTEX
  8
0
 10
10.48867580
 20
0.02739834
  0
VERTEX
  8
0
 10
10.47174474
 20
0.02682966
  0
SEQEND
  0
POLYLINE
  8
Default_Layer
 62
256
 66
   1
 39
0.000000
 70
    1
  0
VERTEX
  8
0
 10
10.47178346
 20
0.08322580
  0
VERTEX
  8
0
 10
10.49168639
 20
0.08458765
  0
VERTEX
  8
0
 10
10.50057469
 20
0.08630094
  0
VERTEX
  8
0
 10
10.50875421
 20
0.08870248
  0
VERTEX
  8
0
 10
10.51622496
 20
0.09179227
  0
VERTEX
  8
0
 10
10.52298692
 20
0.09557029
  0
VERTEX
  8
0
 10
10.52904011
 20
0.10003656
  0
VERTEX
  8
0
 10
10.53438452
 20
0.10519108
  0
VERTEX
  8
0
 10
10.53914376
 20
0.11107137
  0
VERTEX
  8
0
 10
10.54326938
 20
0.11754314
  0
VERTEX
  8
0
 10
10.54676137
 20
0.12460638
  0
VERTEX
  8
0
 10
10.54961975
 20
0.13226110
  0
VERTEX
  8
0
 10
10.55343564
 20
0.14934497
  0
VERTEX
  8
0
 10
10.55471705
 20
0.16879475
  0
VERTEX
  8
0
 10
10.55487309
 20
0.39609868
  0
VERTEX
  8
0
 10
10.55361848
 20
0.41567915
  0
VERTEX
  8
0
 10
10.55203950
 20
0.42455124
  0
VERTEX
  8
0
 10
10.54982608
 20
0.43281123
  0
VERTEX
  8
0
 10
10.54697820
 20
0.44045912
  0
VERTEX
  8
0
 10
10.54349589
 20
0.44749491
  0
VERTEX
  8
0
 10
10.53937912
 20
0.45391861
  0
VERTEX
  8
0
 10
10.53462791
 20
0.45973020
  0
VERTEX
  8
0
 10
10.52929058
 20
0.46489205
  0
VERTEX
  8
0
 10
10.52324353
 20
0.46936663
  0
VERTEX
  8
0
 10
10.51648676
 20
0.47315394
  0
VERTEX
  8
0
 10
10.50902026
 20
0.47625397
  0
VERTEX
  8
0
 10
10.50084405
 20
0.47866674
  0
VERTEX
  8
0
 10
10.49195811
 20
0.48039223
  0
VERTEX
  8
0
 10
10.47205706
 20
0.48178141
  0
VERTEX
  8
0
 10
10.45213263
 20
0.48041957
  0
VERTEX
  8
0
 10
10.44321747
 20
0.47870630
  0
VERTEX
  8
0
 10
10.43500034
 20
0.47630479
  0
VERTEX
  8
0
 10
10.42748123
 20
0.47321504
  0
VERTEX
  8
0
 10
10.42066016
 20
0.46943705
  0
VERTEX
  8
0
 10
10.41453713
 20
0.46497083
  0
VERTEX
  8
0
 10
10.40911212
 20
0.45981637
  0
VERTEX
  8
0
 10
10.40443353
 20
0.45401125
  0
VERTEX
  8
0
 10
10.40037780
 20
0.44759316
  0
VERTEX
  8
0
 10
10.39694493
 20
0.44056212
  0
VERTEX
  8
0
 10
10.39413492
 20
0.43291811
  0
VERTEX
  8
0
 10
10.39038347
 20
0.41579121
  0
VERTEX
  8
0
 10
10.38912347
 20
0.39621247
  0
VERTEX
  8
0
 10
10.38896743
 20
0.16890853
  0
VERTEX
  8
0
 10
10.39022213
 20
0.14945701
  0
VERTEX
  8
0
 10
10.39401456
 20
0.13236792
  0
VERTEX
  8
0
 10
10.39686242
 20
0.12470928
  0
VERTEX
  8
0
 10
10.40034472
 20
0.11764125
  0
VERTEX
  8
0
 10
10.40446145
 20
0.11116383
  0
VERTEX
  8
0
 10
10.40921261
 20
0.10527701
  0
VERTEX
  8
0
 10
10.41462516
 20
0.10011511
  0
VERTEX
  8
0
 10
10.42072594
 20
0.09564049
  0
VERTEX
  8
0
 10
10.42751495
 20
0.09185316
  0
VERTEX
  8
0
 10
10.43499219
 20
0.08875312
  0
VERTEX
  8
0
 10
10.44315766
 20
0.08634036
  0
VERTEX
  8
0
 10
10.45201137
 20
0.08461489
  0
VERTEX
  8
0
 10
10.47178346
 20
0.08322580
  0
SEQEND
  0
POLYLINE
  8
Default_Layer
 62
256
 66
   1
 39
0.000000
 70
    1
  0
VERTEX
  8
0
 10
12.16225721
 20
0.03194996
  0
VERTEX
  8
0
 10
12.10242229
 20
0.03199103
  0
VERTEX
  8
0
 10
12.10272493
 20
0.47284375
  0
VERTEX
  8
0
 10
12.02119093
 20
0.42234950
  0
VERTEX
  8
0
 10
12.02123366
 20
0.48459158
  0
VERTEX
  8
0
 10
12.09244917
 20
0.53199800
  0
VERTEX
  8
0
 10
12.16260046
 20
0.53194984
  0
VERTEX
  8
0
 10
12.16225721
 20
0.03194996
  0
SEQEND
  0
POLYLINE
  8
Default_Layer
 62
256
 66
   1
 39
0.000000
 70
    1
  0
VERTEX
  8
0
 10
12.26820668
 20
0.08263270
  0
VERTEX
  8
0
 10
12.44959515
 20
0.32184799
  0
VERTEX
  8
0
 10
12.45755491
 20
0.33286815
  0
VERTEX
  8
0
 10
12.46456904
 20
0.34393194
  0
VERTEX
  8
0
 10
12.47063754
 20
0.35503937
  0
VERTEX
  8
0
 10
12.47576039
 20
0.36619043
  0
VERTEX
  8
0
 10
12.47982996
 20
0.37710579
  0
VERTEX
  8
0
 10
12.48273858
 20
0.38750614
  0
VERTEX
  8
0
 10
12.48448625
 20
0.39739146
  0
VERTEX
  8
0
 10
12.48507298
 20
0.40676176
  0
VERTEX
  8
0
 10
12.48507345
 20
0.40744952
  0
VERTEX
  8
0
 10
12.48381674
 20
0.42397807
  0
VERTEX
  8
0
 10
12.48002254
 20
0.43848807
  0
VERTEX
  8
0
 10
12.47717388
 20
0.44498611
  0
VERTEX
  8
0
 10
12.47369085
 20
0.45097952
  0
VERTEX
  8
0
 10
12.46957344
 20
0.45646829
  0
VERTEX
  8
0
 10
12.46482166
 20
0.46145243
  0
VERTEX
  8
0
 10
12.45948926
 20
0.46596950
  0
VERTEX
  8
0
 10
12.45362989
 20
0.46988515
  0
VERTEX
  8
0
 10
12.44724354
 20
0.47319937
  0
VERTEX
  8
0
 10
12.44033021
 20
0.47591216
  0
VERTEX
  8
0
 10
12.42492261
 20
0.47953347
  0
VERTEX
  8
0
 10
12.40740711
 20
0.48074907
  0
VERTEX
  8
0
 10
12.39085705
 20
0.47947088
  0
VERTEX
  8
0
 10
12.37593865
 20
0.47561249
  0
VERTEX
  8
0
 10
12.36909132
 20
0.47271571
  0
VERTEX
  8
0
 10
12.36265190
 20
0.46917387
  0
VERTEX
  8
0
 10
12.35662040
 20
0.46498699
  0
VERTEX
  8
0
 10
12.35099681
 20
0.46015505
  0
VERTEX
  8
0
 10
12.34584027
 20
0.45472638
  0
VERTEX
  8
0
 10
12.34120992
 20
0.44874928
  0
VERTEX
  8
0
 10
12.33352778
 20
0.43514984
  0
VERTEX
  8
0
 10
12.32795040
 20
0.41935673
  0
VERTEX
  8
0
 10
12.32447777
 20
0.40136994
  0
VERTEX
  8
0
 10
12.32447753
 20
0.40102606
  0
VERTEX
  8
0
 10
12.26223546
 20
0.40106879
  0
VERTEX
  8
0
 10
12.26223569
 20
0.40141267
  0
VERTEX
  8
0
 10
12.26614003
 20
0.42210721
  0
VERTEX
  8
0
 10
12.27163372
 20
0.44121022
  0
VERTEX
  8
0
 10
12.27871675
 20
0.45872169
  0
VERTEX
  8
0
 10
12.28738913
 20
0.47464164
  0
VERTEX
  8
0
 10
12.29771537
 20
0.48901299
  0
VERTEX
  8
0
 10
12.30941585
 20
0.50153505
  0
VERTEX
  8
0
 10
12.32249058
 20
0.51220782
  0
VERTEX
  8
0
 10
12.33693956
 20
0.52103129
  0
VERTEX
  8
0
 10
12.35265538
 20
0.52809151
  0
VERTEX
  8
0
 10
12.36953041
 20
0.53313065
  0
VERTEX
  8
0
 10
12.38756463
 20
0.53614871
  0
VERTEX
  8
0
 10
12.40675807
 20
0.53714568
  0
VERTEX
  8
0
 10
12.42829282
 20
0.53616373
  0
VERTEX
  8
0
 10
12.44819282
 20
0.53324859
  0
VERTEX
  8
0
 10
12.46645806
 20
0.52840025
  0
VERTEX
  8
0
 10
12.48308855
 20
0.52161872
  0
VERTEX
  8
0
 10
12.49795552
 20
0.51316198
  0
VERTEX
  8
0
 10
12.51092994
 20
0.50294417
  0
VERTEX
  8
0
 10
12.52201181
 20
0.49096527
  0
VERTEX
  8
0
 10
12.53120114
 20
0.47722529
  0
VERTEX
  8
0
 10
12.53841205
 20
0.46185325
  0
VERTEX
  8
0
 10
12.54355865
 20
0.44497815
  0
VERTEX
  8
0
 10
12.54664095
 20
0.42660000
  0
VERTEX
  8
0
 10
12.54765893
 20
0.40671879
  0
VERTEX
  8
0
 10
12.54765870
 20
0.40637491
  0
VERTEX
  8
0
 10
12.54687627
 20
0.39369491
  0
VERTEX
  8
0
 10
12.54454597
 20
0.38041418
  0
VERTEX
  8
0
 10
12.54066780
 20
0.36653273
  0
VERTEX
  8
0
 10
12.53524176
 20
0.35205055
  0
VERTEX
  8
0
 10
12.52859046
 20
0.33728981
  0
VERTEX
  8
0
 10
12.52069263
 20
0.32257291
  0
VERTEX
  8
0
 10
12.51154827
 20
0.30789985
  0
VERTEX
  8
0
 10
12.50115738
 20
0.29327063
  0
VERTEX
  8
0
 10
12.34592731
 20
0.08842529
  0
VERTEX
  8
0
 10
12.55019136
 20
0.08828507
  0
VERTEX
  8
0
 10
12.55015265
 20
0.03188893
  0
VERTEX
  8
0
 10
12.26817197
 20
0.03208251
  0
VERTEX
  8
0
 10
12.26820668
 20
0.08263270
  0
SEQEND
  0
POLYLINE
  8
Default_Layer
 62
256
 66
   1
 39
0.000000
 70
    1
  0
VERTEX
  8
0
 10
14.27333011
 20
0.03194996
  0
VERTEX
  8
0
 10
14.21349519
 20
0.03199103
  0
VERTEX
  8
0
 10
14.21379783
 20
0.47284375
  0
VERTEX
  8
0
 10
14.13226383
 20
0.42234950
  0
VERTEX
  8
0
 10
14.13230656
 20
0.48459158
  0
VERTEX
  8
0
 10
14.20352207
 20
0.53199800
  0
VERTEX
  8
0
 10
14.27367336
 20
0.53194984
  0
VERTEX
  8
0
 10
14.27333011
 20
0.03194996
  0
SEQEND
  0
POLYLINE
  8
Default_Layer
 62
256
 66
   1
 39
0.000000
 70
    1
  0
VERTEX
  8
0
 10
14.38001998
 20
0.15932985
  0
VERTEX
  8
0
 10
14.54808854
 20
0.53163547
  0
VERTEX
  8
0
 10
14.60998673
 20
0.53159298
  0
VERTEX
  8
0
 10
14.44604756
 20
0.16341107
  0
VERTEX
  8
0
 10
14.70154956
 20
0.16323567
  0
VERTEX
  8
0
 10
14.70151203
 20
0.10855893
  0
VERTEX
  8
0
 10
14.37998528
 20
0.10877966
  0
VERTEX
  8
0
 10
14.38001998
 20
0.15932985
  0
SEQEND
  0
POLYLINE
  8
Default_Layer
 62
256
 66
   1
 39
0.000000
 70
    1
  0
VERTEX
  8
0
 10
14.60090471
 20
0.32595955
  0
VERTEX
  8
0
 10
14.65902024
 20
0.32591965
  0
VERTEX
  8
0
 10
14.65881817
 20
0.03155934
  0
VERTEX
  8
0
 10
14.60070264
 20
0.03159923
  0
VERTEX
  8
0
 10
14.60090471
 20
0.32595955
  0
SEQEND
  0
POLYLINE
  8
Default_Layer
 62
256
 66
   1
 39
0.000000
 70
    1
  0
VERTEX
  8
0
 10
16.23206464
 20
0.03194996
  0
VERTEX
  8
0
 10
16.17222971
 20
0.03199103
  0
VERTEX
  8
0
 10
16.17253236
 20
0.47284375
  0
VERTEX
  8
0
 10
16.09099836
 20
0.42234950
  0
VERTEX
  8
0
 10
16.09104109
 20
0.48459158
  0
VERTEX
  8
0
 10
16.16225659
 20
0.53199800
  0
VERTEX
  8
0
 10
16.23240788
 20
0.53194984
  0
VERTEX
  8
0
 10
16.23206464
 20
0.03194996
  0
SEQEND
  0
POLYLINE
  8
Default_Layer
 62
256
 66
   1
 39
0.000000
 70
    1
  0
VERTEX
  8
0
 10
16.47449577
 20
0.02682978
  0
VERTEX
  8
0
 10
16.45328350
 20
0.02794046
  0
VERTEX
  8
0
 10
16.43366317
 20
0.03124227
  0
VERTEX
  8
0
 10
16.41563478
 20
0.03673522
  0
VERTEX
  8
0
 10
16.39919834
 20
0.04441930
  0
VERTEX
  8
0
 10
16.38448284
 20
0.05435891
  0
VERTEX
  8
0
 10
16.37161705
 20
0.06627456
  0
VERTEX
  8
0
 10
16.36060096
 20
0.08016623
  0
VERTEX
  8
0
 10
16.35143459
 20
0.09603395
  0
VERTEX
  8
0
 10
16.34437585
 20
0.11392050
  0
VERTEX
  8
0
 10
16.33933859
 20
0.13352507
  0
VERTEX
  8
0
 10
16.33632279
 20
0.15484764
  0
VERTEX
  8
0
 10
16.33532846
 20
0.17788822
  0
VERTEX
  8
0
 10
16.33532870
 20
0.17823209
  0
VERTEX
  8
0
 10
16.33574673
 20
0.19233085
  0
VERTEX
  8
0
 10
16.33698172
 20
0.20677292
  0
VERTEX
  8
0
 10
16.33903365
 20
0.22155831
  0
VERTEX
  8
0
 10
16.34190253
 20
0.23668702
  0
VERTEX
  8
0
 10
16.34991855
 20
0.26702884
  0
VERTEX
  8
0
 10
16.36085718
 20
0.29685284
  0
VERTEX
  8
0
 10
16.36533445
 20
0.30682225
  0
VERTEX
  8
0
 10
16.37015560
 20
0.31679144
  0
VERTEX
  8
0
 10
16.47896911
 20
0.53198501
  0
VERTEX
  8
0
 10
16.54430609
 20
0.53194016
  0
VERTEX
  8
0
 10
16.41655588
 20
0.28271556
  0
VERTEX
  8
0
 10
16.41690826
 20
0.29509496
  0
VERTEX
  8
0
 10
16.42209317
 20
0.30272122
  0
VERTEX
  8
0
 10
16.42835208
 20
0.30944406
  0
VERTEX
  8
0
 10
16.43568500
 20
0.31526347
  0
VERTEX
  8
0
 10
16.44409192
 20
0.32017947
  0
VERTEX
  8
0
 10
16.45352978
 20
0.32408462
  0
VERTEX
  8
0
 10
16.46361165
 20
0.32687171
  0
VERTEX
  8
0
 10
16.47433752
 20
0.32854076
  0
VERTEX
  8
0
 10
16.48570740
 20
0.32909176
  0
VERTEX
  8
0
 10
16.50526476
 20
0.32798222
  0
VERTEX
  8
0
 10
16.52335913
 20
0.32468145
  0
VERTEX
  8
0
 10
16.53999051
 20
0.31918946
  0
VERTEX
  8
0
 10
16.55515889
 20
0.31150625
  0
VERTEX
  8
0
 10
16.56886435
 20
0.30171778
  0
VERTEX
  8
0
 10
16.58076306
 20
0.28991026
  0
VERTEX
  8
0
 10
16.59085501
 20
0.27608369
  0
VERTEX
  8
0
 10
16.59914022
 20
0.26023808
  0
VERTEX
  8
0
 10
16.60574784
 20
0.24269571
  0
VERTEX
  8
0
 10
16.61046296
 20
0.22343525
  0
VERTEX
  8
0
 10
16.61328556
 20
0.20245669
  0
VERTEX
  8
0
 10
16.61421565
 20
0.17976004
  0
VERTEX
  8
0
 10
16.61421541
 20
0.17941616
  0
VERTEX
  8
0
 10
16.61316784
 20
0.15620504
  0
VERTEX
  8
0
 10
16.61005817
 20
0.13471474
  0
VERTEX
  8
0
 10
16.60488642
 20
0.11494524
  0
VERTEX
  8
0
 10
16.59765257
 20
0.09689656
  0
VERTEX
  8
0
 10
16.58859316
 20
0.08074046
  0
VERTEX
  8
0
 10
16.57760085
 20
0.06664897
  0
VERTEX
  8
0
 10
16.56467564
 20
0.05462208
  0
VERTEX
  8
0
 10
16.54981752
 20
0.04465978
  0
VERTEX
  8
0
 10
16.53337044
 20
0.03684783
  0
VERTEX
  8
0
 10
16.51533446
 20
0.03127217
  0
VERTEX
  8
0
 10
16.49570957
 20
0.02793283
  0
VERTEX
  8
0
 10
16.47449577
 20
0.02682978
  0
SEQEND
  0
POLYLINE
  8
Default_Layer
 62
256
 66
   1
 39
0.000000
 70
    1
  0
VERTEX
  8
0
 10
16.47453496
 20
0.08391367
  0
VERTEX
  8
0
 10
16.48380382
 20
0.08427268
  0
VERTEX
  8
0
 10
16.49252513
 20
0.08536281
  0
VERTEX
  8
0
 10
16.50069888
 20
0.08718406
  0
VERTEX
  8
0
 10
16.50832507
 20
0.08973642
  0
VERTEX
  8
0
 10
16.51540371
 20
0.09301991
  0
VERTEX
  8
0
 10
16.52193480
 20
0.09703451
  0
VERTEX
  8
0
 10
16.52791833
 20
0.10178023
  0
VERTEX
  8
0
 10
16.53335430
 20
0.10725707
  0
VERTEX
  8
0
 10
16.53827492
 20
0.11340590
  0
VERTEX
  8
0
 10
16.54254043
 20
0.12016772
  0
VERTEX
  8
0
 10
16.54615085
 20
0.12754252
  0
VERTEX
  8
0
 10
16.54910618
 20
0.13553031
  0
VERTEX
  8
0
 10
16.55140640
 20
0.14413108
  0
VERTEX
  8
0
 10
16.55305152
 20
0.15334483
  0
VERTEX
  8
0
 10
16.55437647
 20
0.17361129
  0
VERTEX
  8
0
 10
16.55437671
 20
0.17395517
  0
VERTEX
  8
0
 10
16.55303782
 20
0.19600733
  0
VERTEX
  8
0
 10
16.55135218
 20
0.20603471
  0
VERTEX
  8
0
 10
16.54898906
 20
0.21539629
  0
VERTEX
  8
0
 10
16.54594848
 20
0.22409207
  0
VERTEX
  8
0
 10
16.54223043
 20
0.23212205
  0
VERTEX
  8
0
 10
16.53783491
 20
0.23948623
  0
VERTEX
  8
0
 10
16.53276191
 20
0.24618461
  0
VERTEX
  8
0
 10
16.52706520
 20
0.25223327
  0
VERTEX
  8
0
 10
16.52079838
 20
0.25747635
  0
VERTEX
  8
0
 10
16.51396145
 20
0.26191386
  0
VERTEX
  8
0
 10
16.50655443
 20
0.26554579
  0
VERTEX
  8
0
 10
16.49857730
 20
0.26837215
  0
VERTEX
  8
0
 10
16.49003007
 20
0.27039294
  0
VERTEX
  8
0
 10
16.48091274
 20
0.27160815
  0
VERTEX
  8
0
 10
16.47122530
 20
0.27201778
  0
VERTEX
  8
0
 10
16.46245074
 20
0.27162082
  0
VERTEX
  8
0
 10
16.45418070
 20
0.27041755
  0
VERTEX
  8
0
 10
16.44641517
 20
0.26840796
  0
VERTEX
  8
0
 10
16.43915417
 20
0.26559206
  0
VERTEX
  8
0
 10
16.43239768
 20
0.26196985
  0
VERTEX
  8
0
 10
16.42614572
 20
0.25754133
  0
VERTEX
  8
0
 10
16.42039827
 20
0.25230649
  0
VERTEX
  8
0
 10
16.41515534
 20
0.24626534
  0
VERTEX
  8
0
 10
16.41047614
 20
0.23956829
  0
VERTEX
  8
0
 10
16.40641975
 20
0.23219379
  0
VERTEX
  8
0
 10
16.40298618
 20
0.22414186
  0
VERTEX
  8
0
 10
16.40017542
 20
0.21541248
  0
VERTEX
  8
0
 10
16.39642236
 20
0.19592142
  0
VERTEX
  8
0
 10
16.39516055
 20
0.17372059
  0
VERTEX
  8
0
 10
16.39516032
 20
0.17337671
  0
VERTEX
  8
0
 10
16.39643605
 20
0.15325891
  0
VERTEX
  8
0
 10
16.39804170
 20
0.14410203
  0
VERTEX
  8
0
 10
16.40029253
 20
0.13554650
  0
VERTEX
  8
0
 10
16.40318855
 20
0.12759231
  0
VERTEX
  8
0
 10
16.40672976
 20
0.12023946
  0
VERTEX
  8
0
 10
16.41091615
 20
0.11348796
  0
VERTEX
  8
0
 10
16.41574773
 20
0.10733781
  0
VERTEX
  8
0
 10
16.42125140
 20
0.10185346
  0
VERTEX
  8
0
 10
16.42728214
 20
0.09709949
  0
VERTEX
  8
0
 10
16.43383994
 20
0.09307590
  0
VERTEX
  8
0
 10
16.44092481
 20
0.08978269
  0
VERTEX
  8
0
 10
16.44853675
 20
0.08721987
  0
VERTEX
  8
0
 10
16.45667575
 20
0.08538742
  0
VERTEX
  8
0
 10
16.46534182
 20
0.08428536
  0
VERTEX
  8
0
 10
16.47453496
 20
0.08391367
  0
SEQEND
  0
POLYLINE
  8
Default_Layer
 62
256
 66
   1
 39
0.000000
 70
    1
  0
VERTEX
  8
0
 10
18.34073039
 20
0.03194996
  0
VERTEX
  8
0
 10
18.28089546
 20
0.03199103
  0
VERTEX
  8
0
 10
18.28119810
 20
0.47284375
  0
VERTEX
  8
0
 10
18.19966411
 20
0.42234950
  0
VERTEX
  8
0
 10
18.19970684
 20
0.48459158
  0
VERTEX
  8
0
 10
18.27092234
 20
0.53199800
  0
VERTEX
  8
0
 10
18.34107363
 20
0.53194984
  0
VERTEX
  8
0
 10
18.34073039
 20
0.03194996
  0
SEQEND
  0
POLYLINE
  8
Default_Layer
 62
256
 66
   1
 39
0.000000
 70
    1
  0
VERTEX
  8
0
 10
18.60069935
 20
0.02682966
  0
VERTEX
  8
0
 10
18.57824047
 20
0.02787672
  0
VERTEX
  8
0
 10
18.55728747
 20
0.03098601
  0
VERTEX
  8
0
 10
18.53784037
 20
0.03615755
  0
VERTEX
  8
0
 10
18.51989914
 20
0.04339133
  0
VERTEX
  8
0
 10
18.50385069
 20
0.05270857
  0
VERTEX
  8
0
 10
18.48973776
 20
0.06378686
  0
VERTEX
  8
0
 10
18.47756036
 20
0.07662621
  0
VERTEX
  8
0
 10
18.46731849
 20
0.09122661
  0
VERTEX
  8
0
 10
18.45935603
 20
0.10758782
  0
VERTEX
  8
0
 10
18.45367274
 20
0.12536597
  0
VERTEX
  8
0
 10
18.45026861
 20
0.14456106
  0
VERTEX
  8
0
 10
18.44914367
 20
0.16517308
  0
VERTEX
  8
0
 10
18.44914815
 20
0.17170678
  0
VERTEX
  8
0
 10
18.45030020
 20
0.19057635
  0
VERTEX
  8
0
 10
18.45372992
 20
0.20867063
  0
VERTEX
  8
0
 10
18.45943731
 20
0.22598962
  0
VERTEX
  8
0
 10
18.46742236
 20
0.24253331
  0
VERTEX
  8
0
 10
18.47755576
 20
0.25776450
  0
VERTEX
  8
0
 10
18.48936429
 20
0.27114618
  0
VERTEX
  8
0
 10
18.50284797
 20
0.28267836
  0
VERTEX
  8
0
 10
18.51800679
 20
0.29236105
  0
VERTEX
  8
0
 10
18.50513866
 20
0.30088089
  0
VERTEX
  8
0
 10
18.49369010
 20
0.31094721
  0
VERTEX
  8
0
 10
18.48366111
 20
0.32256001
  0
VERTEX
  8
0
 10
18.47505167
 20
0.33571929
  0
VERTEX
  8
0
 10
18.46829143
 20
0.35010238
  0
VERTEX
  8
0
 10
18.46346588
 20
0.36504293
  0
VERTEX
  8
0
 10
18.46057504
 20
0.38054097
  0
VERTEX
  8
0
 10
18.45961891
 20
0.39659648
  0
VERTEX
  8
0
 10
18.45962481
 20
0.40519345
  0
VERTEX
  8
0
 10
18.46071289
 20
0.42479381
  0
VERTEX
  8
0
 10
18.46394926
 20
0.44301717
  0
VERTEX
  8
0
 10
18.46933394
 20
0.45986355
  0
VERTEX
  8
0
 10
18.47686691
 20
0.47533294
  0
VERTEX
  8
0
 10
18.48637623
 20
0.48940396
  0
VERTEX
  8
0
 10
18.49768970
 20
0.50171136
  0
VERTEX
  8
0
 10
18.51080733
 20
0.51225514
  0
VERTEX
  8
0
 10
18.52572911
 20
0.52103530
  0
VERTEX
  8
0
 10
18.54243358
 20
0.52809485
  0
VERTEX
  8
0
 10
18.56055517
 20
0.53313313
  0
VERTEX
  8
0
 10
18.58009386
 20
0.53615015
  0
VERTEX
  8
0
 10
18.60104968
 20
0.53714591
  0
VERTEX
  8
0
 10
18.62213306
 20
0.53612129
  0
VERTEX
  8
0
 10
18.64171058
 20
0.53307742
  0
VERTEX
  8
0
 10
18.65978225
 20
0.52801429
  0
VERTEX
  8
0
 10
18.67634805
 20
0.52093191
  0
VERTEX
  8
0
 10
18.69138672
 20
0.51213117
  0
VERTEX
  8
0
 10
18.70453284
 20
0.50156936
  0
VERTEX
  8
0
 10
18.71578642
 20
0.48924647
  0
VERTEX
  8
0
 10
18.72514746
 20
0.47516249
  0
VERTEX
  8
0
 10
18.73265918
 20
0.45968278
  0
VERTEX
  8
0
 10
18.73802072
 20
0.44282903
  0
VERTEX
  8
0
 10
18.74123208
 20
0.42460123
  0
VERTEX
  8
0
 10
18.74229324
 20
0.40499940
  0
VERTEX
  8
0
 10
18.74228734
 20
0.39640243
  0
VERTEX
  8
0
 10
18.74128737
 20
0.37991841
  0
VERTEX
  8
0
 10
18.73831060
 20
0.36416650
  0
VERTEX
  8
0
 10
18.73335703
 20
0.34914668
  0
VERTEX
  8
0
 10
18.72642666
 20
0.33485897
  0
VERTEX
  8
0
 10
18.71775630
 20
0.32188349
  0
VERTEX
  8
0
 10
18.70758253
 20
0.31045649
  0
VERTEX
  8
0
 10
18.69590535
 20
0.30057799
  0
VERTEX
  8
0
 10
18.68272477
 20
0.29224797
  0
VERTEX
  8
0
 10
18.69817107
 20
0.28239383
  0
VERTEX
  8
0
 10
18.71185375
 20
0.27073553
  0
VERTEX
  8
0
 10
18.72377281
 20
0.25727308
  0
VERTEX
  8
0
 10
18.73392825
 20
0.24200648
  0
VERTEX
  8
0
 10
18.74204113
 20
0.22560218
  0
VERTEX
  8
0
 10
18.74783227
 20
0.20838276
  0
VERTEX
  8
0
 10
18.75130167
 20
0.19034822
  0
VERTEX
  8
0
 10
18.75244932
 20
0.17149856
  0
VERTEX
  8
0
 10
18.75244483
 20
0.16496486
  0
VERTEX
  8
0
 10
18.75129158
 20
0.14435441
  0
VERTEX
  8
0
 10
18.74786111
 20
0.12516401
  0
VERTEX
  8
0
 10
18.74215342
 20
0.10739368
  0
VERTEX
  8
0
 10
18.73416850
 20
0.09104342
  0
VERTEX
  8
0
 10
18.72403554
 20
0.07645701
  0
VERTEX
  8
0
 10
18.71188351
 20
0.06363436
  0
VERTEX
  8
0
 10
18.69771240
 20
0.05257548
  0
VERTEX
  8
0
 10
18.68152222
 20
0.04328037
  0
VERTEX
  8
0
 10
18.66370003
 20
0.03607115
  0
VERTEX
  8
0
 10
18.64428883
 20
0.03092629
  0
VERTEX
  8
0
 10
18.62328860
 20
0.02784579
  0
VERTEX
  8
0
 10
18.60069935
 20
0.02682966
  0
SEQEND
  0
POLYLINE
  8
Default_Layer
 62
256
 66
   1
 39
0.000000
 70
    1
  0
VERTEX
  8
0
 10
18.60073806
 20
0.08322580
  0
VERTEX
  8
0
 10
18.61436471
 20
0.08386122
  0
VERTEX
  8
0
 10
18.62704657
 20
0.08578683
  0
VERTEX
  8
0
 10
18.63878365
 20
0.08900264
  0
VERTEX
  8
0
 10
18.64957595
 20
0.09350864
  0
VERTEX
  8
0
 10
18.65929445
 20
0.09921896
  0
VERTEX
  8
0
 10
18.66781014
 20
0.10604771
  0
VERTEX
  8
0
 10
18.67512303
 20
0.11399489
  0
VERTEX
  8
0
 10
18.68123310
 20
0.12306051
  0
VERTEX
  8
0
 10
18.68605443
 20
0.13328760
  0
VERTEX
  8
0
 10
18.68950083
 20
0.14437533
  0
VERTEX
  8
0
 10
18.69157231
 20
0.15632371
  0
VERTEX
  8
0
 10
18.69226886
 20
0.16913272
  0
VERTEX
  8
0
 10
18.69227099
 20
0.17222763
  0
VERTEX
  8
0
 10
18.69159211
 20
0.18516655
  0
VERTEX
  8
0
 10
18.68953707
 20
0.19716074
  0
VERTEX
  8
0
 10
18.68610587
 20
0.20821021
  0
VERTEX
  8
0
 10
18.68129850
 20
0.21831496
  0
VERTEX
  8
0
 10
18.67520098
 20
0.22753940
  0
VERTEX
  8
0
 10
18.66789908
 20
0.23560408
  0
VERTEX
  8
0
 10
18.65939282
 20
0.24250899
  0
VERTEX
  8
0
 10
18.64968218
 20
0.24825414
  0
VERTEX
  8
0
 10
18.63889618
 20
0.25292540
  0
VERTEX
  8
0
 10
18.62716360
 20
0.25626478
  0
VERTEX
  8
0
 10
18.61448444
 20
0.25827228
  0
VERTEX
  8
0
 10
18.60085870
 20
0.25894790
  0
VERTEX
  8
0
 10
18.58723204
 20
0.25829099
  0
VERTEX
  8
0
 10
18.57455013
 20
0.25630090
  0
VERTEX
  8
0
 10
18.56281298
 20
0.25297763
  0
VERTEX
  8
0
 10
18.55202058
 20
0.24832118
  0
VERTEX
  8
0
 10
18.54245251
 20
0.24258927
  0
VERTEX
  8
0
 10
18.53404423
 20
0.23569597
  0
VERTEX
  8
0
 10
18.52679575
 20
0.22764128
  0
VERTEX
  8
0
 10
18.52070706
 20
0.21842520
  0
VERTEX
  8
0
 10
18.51588572
 20
0.20817662
  0
VERTEX
  8
0
 10
18.51243927
 20
0.19702441
  0
VERTEX
  8
0
 10
18.51036772
 20
0.18496857
  0
VERTEX
  8
0
 10
18.50967107
 20
0.17200911
  0
VERTEX
  8
0
 10
18.50966871
 20
0.16857032
  0
VERTEX
  8
0
 10
18.51034779
 20
0.15593230
  0
VERTEX
  8
0
 10
18.51240298
 20
0.14415303
  0
VERTEX
  8
0
 10
18.51583427
 20
0.13323251
  0
VERTEX
  8
0
 10
18.52064167
 20
0.12317075
  0
VERTEX
  8
0
 10
18.52671780
 20
0.11409677
  0
VERTEX
  8
0
 10
18.53395529
 20
0.10613960
  0
VERTEX
  8
0
 10
18.54235414
 20
0.09929924
  0
VERTEX
  8
0
 10
18.55191435
 20
0.09357569
  0
VERTEX
  8
0
 10
18.56270045
 20
0.08905487
  0
VERTEX
  8
0
 10
18.57443310
 20
0.08582295
  0
VERTEX
  8
0
 10
18.58711231
 20
0.08387993
  0
VERTEX
  8
0
 10
18.60073806
 20
0.08322580
  0
SEQEND
  0
POLYLINE
  8
Default_Layer
 62
256
 66
   1
 39
0.000000
 70
    1
  0
VERTEX
  8
0
 10
18.60089670
 20
0.31431240
  0
VERTEX
  8
0
 10
18.61319080
 20
0.31492724
  0
VERTEX
  8
0
 10
18.62462606
 20
0.31678923
  0
VERTEX
  8
0
 10
18.63520247
 20
0.31989838
  0
VERTEX
  8
0
 10
18.64492004
 20
0.32425467
  0
VERTEX
  8
0
 10
18.65367126
 20
0.32977222
  0
VERTEX
  8
0
 10
18.66134858
 20
0.33636513
  0
VERTEX
  8
0
 10
18.66795203
 20
0.34403340
  0
VERTEX
  8
0
 10
18.67348159
 20
0.35277702
  0
VERTEX
  8
0
 10
18.67785134
 20
0.36266055
  0
VERTEX
  8
0
 10
18.68097511
 20
0.37340462
  0
VERTEX
  8
0
 10
18.68285292
 20
0.38500925
  0
VERTEX
  8
0
 10
18.68348476
 20
0.39747443
  0
VERTEX
  8
0
 10
18.68348807
 20
0.40228874
  0
VERTEX
  8
0
 10
18.68287287
 20
0.41406702
  0
VERTEX
  8
0
 10
18.68101053
 20
0.42498645
  0
VERTEX
  8
0
 10
18.67790103
 20
0.43504705
  0
VERTEX
  8
0
 10
18.67354438
 20
0.44424880
  0
VERTEX
  8
0
 10
18.66802659
 20
0.45265614
  0
VERTEX
  8
0
 10
18.66143345
 20
0.45998958
  0
VERTEX
  8
0
 10
18.65376495
 20
0.46624915
  0
VERTEX
  8
0
 10
18.64502108
 20
0.47143483
  0
VERTEX
  8
0
 10
18.63530940
 20
0.47565401
  0
VERTEX
  8
0
 10
18.62473719
 20
0.47867021
  0
VERTEX
  8
0
 10
18.61330445
 20
0.48048343
  0
VERTEX
  8
0
 10
18.60101120
 20
0.48109366
  0
VERTEX
  8
0
 10
18.58886756
 20
0.48050020
  0
VERTEX
  8
0
 10
18.57753981
 20
0.47870261
  0
VERTEX
  8
0
 10
18.56702795
 20
0.47570089
  0
VERTEX
  8
0
 10
18.55733197
 20
0.47149503
  0
VERTEX
  8
0
 10
18.54858100
 20
0.46632136
  0
VERTEX
  8
0
 10
18.54090390
 20
0.46007233
  0
VERTEX
  8
0
 10
18.53430070
 20
0.45274794
  0
VERTEX
  8
0
 10
18.52877137
 20
0.44434819
  0
VERTEX
  8
0
 10
18.52440199
 20
0.43500198
  0
VERTEX
  8
0
 10
18.52127861
 20
0.42483820
  0
VERTEX
  8
0
 10
18.51940123
 20
0.41385685
  0
VERTEX
  8
0
 10
18.51876985
 20
0.40205794
  0
VERTEX
  8
0
 10
18.51876631
 20
0.39689975
  0
VERTEX
  8
0
 10
18.51938115
 20
0.38460565
  0
VERTEX
  8
0
 10
18.52124314
 20
0.37317040
  0
VERTEX
  8
0
 10
18.52435229
 20
0.36259398
  0
VERTEX
  8
0
 10
18.52870858
 20
0.35287641
  0
VERTEX
  8
0
 10
18.53422613
 20
0.34412520
  0
VERTEX
  8
0
 10
18.54081904
 20
0.33644787
  0
VERTEX
  8
0
 10
18.54848731
 20
0.32984443
  0
VERTEX
  8
0
 10
18.55723093
 20
0.32431487
  0
VERTEX
  8
0
 10
18.56692102
 20
0.31994525
  0
VERTEX
  8
0
 10
18.57742868
 20
0.31682164
  0
VERTEX
  8
0
 10
18.58875391
 20
0.31494402
  0
VERTEX
  8
0
 10
18.60089670
 20
0.31431240
  0
SEQEND
  0
POLYLINE
  8
Default_Layer
 62
256
 66
   1
 39
0.000000
 70
    1
  0
VERTEX
  8
0
 10
20.16676238
 20
0.08263270
  0
VERTEX
  8
0
 10
20.34815085
 20
0.32184799
  0
VERTEX
  8
0
 10
20.35611062
 20
0.33286815
  0
VERTEX
  8
0
 10
20.36312475
 20
0.34393194
  0
VERTEX
  8
0
 10
20.36919325
 20
0.35503937
  0
VERTEX
  8
0
 10
20.37431610
 20
0.36619043
  0
VERTEX
  8
0
 10
20.37838567
 20
0.37710579
  0
VERTEX
  8
0
 10
20.38129429
 20
0.38750614
  0
VERTEX
  8
0
 10
20.38304196
 20
0.39739146
  0
VERTEX
  8
0
 10
20.38362869
 20
0.40676176
  0
VERTEX
  8
0
 10
20.38362916
 20
0.40744952
  0
VERTEX
  8
0
 10
20.38237245
 20
0.42397807
  0
VERTEX
  8
0
 10
20.37857825
 20
0.43848807
  0
VERTEX
  8
0
 10
20.37572959
 20
0.44498611
  0
VERTEX
  8
0
 10
20.37224656
 20
0.45097952
  0
VERTEX
  8
0
 10
20.36812915
 20
0.45646829
  0
VERTEX
  8
0
 10
20.36337737
 20
0.46145243
  0
VERTEX
  8
0
 10
20.35804497
 20
0.46596950
  0
VERTEX
  8
0
 10
20.35218560
 20
0.46988515
  0
VERTEX
  8
0
 10
20.34579925
 20
0.47319937
  0
VERTEX
  8
0
 10
20.33888591
 20
0.47591216
  0
VERTEX
  8
0
 10
20.32347832
 20
0.47953347
  0
VERTEX
  8
0
 10
20.30596282
 20
0.48074907
  0
VERTEX
  8
0
 10
20.28941276
 20
0.47947088
  0
VERTEX
  8
0
 10
20.27449436
 20
0.47561249
  0
VERTEX
  8
0
 10
20.26764703
 20
0.47271571
  0
VERTEX
  8
0
 10
20.26120761
 20
0.46917387
  0
VERTEX
  8
0
 10
20.25517611
 20
0.46498699
  0
VERTEX
  8
0
 10
20.24955252
 20
0.46015505
  0
VERTEX
  8
0
 10
20.24439598
 20
0.45472638
  0
VERTEX
  8
0
 10
20.23976563
 20
0.44874928
  0
VERTEX
  8
0
 10
20.23208349
 20
0.43514984
  0
VERTEX
  8
0
 10
20.22650611
 20
0.41935673
  0
VERTEX
  8
0
 10
20.22303348
 20
0.40136994
  0
VERTEX
  8
0
 10
20.22303324
 20
0.40102606
  0
VERTEX
  8
0
 10
20.16079116
 20
0.40106879
  0
VERTEX
  8
0
 10
20.16079140
 20
0.40141267
  0
VERTEX
  8
0
 10
20.16469574
 20
0.42210721
  0
VERTEX
  8
0
 10
20.17018943
 20
0.44121022
  0
VERTEX
  8
0
 10
20.17727246
 20
0.45872169
  0
VERTEX
  8
0
 10
20.18594484
 20
0.47464164
  0
VERTEX
  8
0
 10
20.19627108
 20
0.48901299
  0
VERTEX
  8
0
 10
20.20797156
 20
0.50153505
  0
VERTEX
  8
0
 10
20.22104629
 20
0.51220782
  0
VERTEX
  8
0
 10
20.23549527
 20
0.52103129
  0
VERTEX
  8
0
 10
20.25121109
 20
0.52809151
  0
VERTEX
  8
0
 10
20.26808611
 20
0.53313065
  0
VERTEX
  8
0
 10
20.28612034
 20
0.53614871
  0
VERTEX
  8
0
 10
20.30531378
 20
0.53714568
  0
VERTEX
  8
0
 10
20.32684853
 20
0.53616373
  0
VERTEX
  8
0
 10
20.34674852
 20
0.53324859
  0
VERTEX
  8
0
 10
20.36501377
 20
0.52840025
  0
VERTEX
  8
0
 10
20.38164426
 20
0.52161872
  0
VERTEX
  8
0
 10
20.39651123
 20
0.51316198
  0
VERTEX
  8
0
 10
20.40948564
 20
0.50294417
  0
VERTEX
  8
0
 10
20.42056752
 20
0.49096527
  0
VERTEX
  8
0
 10
20.42975685
 20
0.47722529
  0
VERTEX
  8
0
 10
20.43696776
 20
0.46185325
  0
VERTEX
  8
0
 10
20.44211436
 20
0.44497815
  0
VERTEX
  8
0
 10
20.44519665
 20
0.42660000
  0
VERTEX
  8
0
 10
20.44621464
 20
0.40671879
  0
VERTEX
  8
0
 10
20.44621441
 20
0.40637491
  0
VERTEX
  8
0
 10
20.44543197
 20
0.39369491
  0
VERTEX
  8
0
 10
20.44310167
 20
0.38041418
  0
VERTEX
  8
0
 10
20.43922351
 20
0.36653273
  0
VERTEX
  8
0
 10
20.43379747
 20
0.35205055
  0
VERTEX
  8
0
 10
20.42714617
 20
0.33728981
  0
VERTEX
  8
0
 10
20.41924834
 20
0.32257291
  0
VERTEX
  8
0
 10
20.41010398
 20
0.30789985
  0
VERTEX
  8
0
 10
20.39971309
 20
0.29327063
  0
VERTEX
  8
0
 10
20.24448302
 20
0.08842529
  0
VERTEX
  8
0
 10
20.44874707
 20
0.08828507
  0
VERTEX
  8
0
 10
20.44870836
 20
0.03188893
  0
VERTEX
  8
0
 10
20.16672768
 20
0.03208251
  0
VERTEX
  8
0
 10
20.16676238
 20
0.08263270
  0
SEQEND
  0
POLYLINE
  8
Default_Layer
 62
256
 66
   1
 39
0.000000
 70
    1
  0
VERTEX
  8
0
 10
20.68082314
 20
0.02682966
  0
VERTEX
  8
0
 10
20.66381229
 20
0.02742701
  0
VERTEX
  8
0
 10
20.64785537
 20
0.02919497
  0
VERTEX
  8
0
 10
20.63295238
 20
0.03213355
  0
VERTEX
  8
0
 10
20.61910332
 20
0.03624274
  0
VERTEX
  8
0
 10
20.60630820
 20
0.04152254
  0
VERTEX
  8
0
 10
20.59456701
 20
0.04797296
  0
VERTEX
  8
0
 10
20.58387975
 20
0.05559399
  0
VERTEX
  8
0
 10
20.57424643
 20
0.06438564
  0
VERTEX
  8
0
 10
20.56579053
 20
0.07422424
  0
VERTEX
  8
0
 10
20.55846362
 20
0.08498623
  0
VERTEX
  8
0
 10
20.55226570
 20
0.09667163
  0
VERTEX
  8
0
 10
20.54719677
 20
0.10928043
  0
VERTEX
  8
0
 10
20.54325683
 20
0.12281262
  0
VERTEX
  8
0
 10
20.54044587
 20
0.13726822
  0
VERTEX
  8
0
 10
20.53876389
 20
0.15264721
  0
VERTEX
  8
0
 10
20.53821091
 20
0.16894961
  0
VERTEX
  8
0
 10
20.53836695
 20
0.39625354
  0
VERTEX
  8
0
 10
20.53894774
 20
0.41263038
  0
VERTEX
  8
0
 10
20.54066699
 20
0.42806077
  0
VERTEX
  8
0
 10
20.54352468
 20
0.44254472
  0
VERTEX
  8
0
 10
20.54752082
 20
0.45608221
  0
VERTEX
  8
0
 10
20.55265541
 20
0.46867326
  0
VERTEX
  8
0
 10
20.55892845
 20
0.48031785
  0
VERTEX
  8
0
 10
20.56633994
 20
0.49101600
  0
VERTEX
  8
0
 10
20.57488988
 20
0.50076770
  0
VERTEX
  8
0
 10
20.58452989
 20
0.50954611
  0
VERTEX
  8
0
 10
20.59521148
 20
0.51715248
  0
VERTEX
  8
0
 10
20.60693465
 20
0.52358679
  0
VERTEX
  8
0
 10
20.61969940
 20
0.52884905
  0
VERTEX
  8
0
 10
20.63350573
 20
0.53293925
  0
VERTEX
  8
0
 10
20.64835363
 20
0.53585740
  0
VERTEX
  8
0
 10
20.66424312
 20
0.53760350
  0
VERTEX
  8
0
 10
20.68117418
 20
0.53817755
  0
VERTEX
  8
0
 10
20.69817967
 20
0.53758558
  0
VERTEX
  8
0
 10
20.71412048
 20
0.53583375
  0
VERTEX
  8
0
 10
20.72899662
 20
0.53292206
  0
VERTEX
  8
0
 10
20.74280810
 20
0.52885050
  0
VERTEX
  8
0
 10
20.75555489
 20
0.52361909
  0
VERTEX
  8
0
 10
20.76723702
 20
0.51722782
  0
VERTEX
  8
0
 10
20.77785447
 20
0.50967668
  0
VERTEX
  8
0
 10
20.78740726
 20
0.50096568
  0
VERTEX
  8
0
 10
20.79594380
 20
0.49119688
  0
VERTEX
  8
0
 10
20.80334058
 20
0.48047245
  0
VERTEX
  8
0
 10
20.80959761
 20
0.46879239
  0
VERTEX
  8
0
 10
20.81471488
 20
0.45615669
  0
VERTEX
  8
0
 10
20.81869240
 20
0.44256537
  0
VERTEX
  8
0
 10
20.82153016
 20
0.42801841
  0
VERTEX
  8
0
 10
20.82322817
 20
0.41251582
  0
VERTEX
  8
0
 10
20.82378642
 20
0.39605760
  0
VERTEX
  8
0
 10
20.82363037
 20
0.16875367
  0
VERTEX
  8
0
 10
20.82304958
 20
0.15237146
  0
VERTEX
  8
0
 10
20.82133033
 20
0.13692494
  0
VERTEX
  8
0
 10
20.81847262
 20
0.12241414
  0
VERTEX
  8
0
 10
20.81447645
 20
0.10883903
  0
VERTEX
  8
0
 10
20.80934183
 20
0.09619963
  0
VERTEX
  8
0
 10
20.80306874
 20
0.08449593
  0
VERTEX
  8
0
 10
20.79565721
 20
0.07372793
  0
VERTEX
  8
0
 10
20.78710721
 20
0.06389564
  0
VERTEX
  8
0
 10
20.77746726
 20
0.05519782
  0
VERTEX
  8
0
 10
20.76678571
 20
0.04766130
  0
VERTEX
  8
0
 10
20.75506258
 20
0.04128610
  0
VERTEX
  8
0
 10
20.74229787
 20
0.03607220
  0
VERTEX
  8
0
 10
20.72849157
 20
0.03201960
  0
VERTEX
  8
0
 10
20.71364368
 20
0.02912832
  0
VERTEX
  8
0
 10
20.69775420
 20
0.02739834
  0
VERTEX
  8
0
 10
20.68082314
 20
0.02682966
  0
SEQEND
  0
POLYLINE
  8
Default_Layer
 62
256
 66
   1
 39
0.000000
 70
    1
  0
VERTEX
  8
0
 10
20.68086186
 20
0.08322580
  0
VERTEX
  8
0
 10
20.70076479
 20
0.08458765
  0
VERTEX
  8
0
 10
20.70965309
 20
0.08630094
  0
VERTEX
  8
0
 10
20.71783262
 20
0.08870248
  0
VERTEX
  8
0
 10
20.72530336
 20
0.09179227
  0
VERTEX
  8
0
 10
20.73206533
 20
0.09557029
  0
VERTEX
  8
0
 10
20.73811851
 20
0.10003656
  0
VERTEX
  8
0
 10
20.74346292
 20
0.10519108
  0
VERTEX
  8
0
 10
20.74822216
 20
0.11107137
  0
VERTEX
  8
0
 10
20.75234778
 20
0.11754314
  0
VERTEX
  8
0
 10
20.75583978
 20
0.12460638
  0
VERTEX
  8
0
 10
20.75869815
 20
0.13226110
  0
VERTEX
  8
0
 10
20.76251404
 20
0.14934497
  0
VERTEX
  8
0
 10
20.76379545
 20
0.16879475
  0
VERTEX
  8
0
 10
20.76395149
 20
0.39609868
  0
VERTEX
  8
0
 10
20.76269688
 20
0.41567915
  0
VERTEX
  8
0
 10
20.76111790
 20
0.42455124
  0
VERTEX
  8
0
 10
20.75890448
 20
0.43281123
  0
VERTEX
  8
0
 10
20.75605661
 20
0.44045912
  0
VERTEX
  8
0
 10
20.75257429
 20
0.44749491
  0
VERTEX
  8
0
 10
20.74845752
 20
0.45391861
  0
VERTEX
  8
0
 10
20.74370631
 20
0.45973020
  0
VERTEX
  8
0
 10
20.73836898
 20
0.46489205
  0
VERTEX
  8
0
 10
20.73232193
 20
0.46936663
  0
VERTEX
  8
0
 10
20.72556516
 20
0.47315394
  0
VERTEX
  8
0
 10
20.71809867
 20
0.47625397
  0
VERTEX
  8
0
 10
20.70992245
 20
0.47866674
  0
VERTEX
  8
0
 10
20.70103651
 20
0.48039223
  0
VERTEX
  8
0
 10
20.68113547
 20
0.48178141
  0
VERTEX
  8
0
 10
20.66121104
 20
0.48041957
  0
VERTEX
  8
0
 10
20.65229587
 20
0.47870630
  0
VERTEX
  8
0
 10
20.64407874
 20
0.47630479
  0
VERTEX
  8
0
 10
20.63655964
 20
0.47321504
  0
VERTEX
  8
0
 10
20.62973857
 20
0.46943705
  0
VERTEX
  8
0
 10
20.62361553
 20
0.46497083
  0
VERTEX
  8
0
 10
20.61819052
 20
0.45981637
  0
VERTEX
  8
0
 10
20.61351193
 20
0.45401125
  0
VERTEX
  8
0
 10
20.60945620
 20
0.44759316
  0
VERTEX
  8
0
 10
20.60602333
 20
0.44056212
  0
VERTEX
  8
0
 10
20.60321332
 20
0.43291811
  0
VERTEX
  8
0
 10
20.59946188
 20
0.41579121
  0
VERTEX
  8
0
 10
20.59820188
 20
0.39621247
  0
VERTEX
  8
0
 10
20.59804583
 20
0.16890853
  0
VERTEX
  8
0
 10
20.59930053
 20
0.14945701
  0
VERTEX
  8
0
 10
20.60309296
 20
0.13236792
  0
VERTEX
  8
0
 10
20.60594083
 20
0.12470928
  0
VERTEX
  8
0
 10
20.60942312
 20
0.11764125
  0
VERTEX
  8
0
 10
20.61353985
 20
0.11116383
  0
VERTEX
  8
0
 10
20.61829101
 20
0.10527701
  0
VERTEX
  8
0
 10
20.62370357
 20
0.10011511
  0
VERTEX
  8
0
 10
20.62980435
 20
0.09564049
  0
VERTEX
  8
0
 10
20.63659336
 20
0.09185316
  0
VERTEX
  8
0
 10
20.64407060
 20
0.08875312
  0
VERTEX
  8
0
 10
20.65223607
 20
0.08634036
  0
VERTEX
  8
0
 10
20.66108977
 20
0.08461489
  0
VERTEX
  8
0
 10
20.68086186
 20
0.08322580
  0
SEQEND
  0
POLYLINE
  8
Default_Layer
 62
256
 66
   1
 39
0.000000
 70
    1
  0
VERTEX
  8
0
 10
22.05397009
 20
0.08263270
  0
VERTEX
  8
0
 10
22.23535856
 20
0.32184799
  0
VERTEX
  8
0
 10
22.24331833
 20
0.33286815
  0
VERTEX
  8
0
 10
22.25033246
 20
0.34393194
  0
VERTEX
  8
0
 10
22.25640095
 20
0.35503937
  0
VERTEX
  8
0
 10
22.26152381
 20
0.36619043
  0
VERTEX
  8
0
 10
22.26559337
 20
0.37710579
  0
VERTEX
  8
0
 10
22.26850199
 20
0.38750614
  0
VERTEX
  8
0
 10
22.27024966
 20
0.39739146
  0
VERTEX
  8
0
 10
22.27083639
 20
0.40676176
  0
VERTEX
  8
0
 10
22.27083686
 20
0.40744952
  0
VERTEX
  8
0
 10
22.26958016
 20
0.42397807
  0
VERTEX
  8
0
 10
22.26578596
 20
0.43848807
  0
VERTEX
  8
0
 10
22.26293729
 20
0.44498611
  0
VERTEX
  8
0
 10
22.25945426
 20
0.45097952
  0
VERTEX
  8
0
 10
22.25533685
 20
0.45646829
  0
VERTEX
  8
0
 10
22.25058507
 20
0.46145243
  0
VERTEX
  8
0
 10
22.24525268
 20
0.46596950
  0
VERTEX
  8
0
 10
22.23939330
 20
0.46988515
  0
VERTEX
  8
0
 10
22.23300695
 20
0.47319937
  0
VERTEX
  8
0
 10
22.22609362
 20
0.47591216
  0
VERTEX
  8
0
 10
22.21068602
 20
0.47953347
  0
VERTEX
  8
0
 10
22.19317052
 20
0.48074907
  0
VERTEX
  8
0
 10
22.17662046
 20
0.47947088
  0
VERTEX
  8
0
 10
22.16170206
 20
0.47561249
  0
VERTEX
  8
0
 10
22.15485473
 20
0.47271571
  0
VERTEX
  8
0
 10
22.14841531
 20
0.46917387
  0
VERTEX
  8
0
 10
22.14238381
 20
0.46498699
  0
VERTEX
  8
0
 10
22.13676022
 20
0.46015505
  0
VERTEX
  8
0
 10
22.13160368
 20
0.45472638
  0
VERTEX
  8
0
 10
22.12697333
 20
0.44874928
  0
VERTEX
  8
0
 10
22.11929119
 20
0.43514984
  0
VERTEX
  8
0
 10
22.11371381
 20
0.41935673
  0
VERTEX
  8
0
 10
22.11024118
 20
0.40136994
  0
VERTEX
  8
0
 10
22.11024094
 20
0.40102606
  0
VERTEX
  8
0
 10
22.04799887
 20
0.40106879
  0
VERTEX
  8
0
 10
22.04799910
 20
0.40141267
  0
VERTEX
  8
0
 10
22.05190344
 20
0.42210721
  0
VERTEX
  8
0
 10
22.05739713
 20
0.44121022
  0
VERTEX
  8
0
 10
22.06448016
 20
0.45872169
  0
VERTEX
  8
0
 10
22.07315254
 20
0.47464164
  0
VERTEX
  8
0
 10
22.08347878
 20
0.48901299
  0
VERTEX
  8
0
 10
22.09517926
 20
0.50153505
  0
VERTEX
  8
0
 10
22.10825399
 20
0.51220782
  0
VERTEX
  8
0
 10
22.12270297
 20
0.52103129
  0
VERTEX
  8
0
 10
22.13841879
 20
0.52809151
  0
VERTEX
  8
0
 10
22.15529382
 20
0.53313065
  0
VERTEX
  8
0
 10
22.17332805
 20
0.53614871
  0
VERTEX
  8
0
 10
22.19252148
 20
0.53714568
  0
VERTEX
  8
0
 10
22.21405623
 20
0.53616373
  0
VERTEX
  8
0
 10
22.23395623
 20
0.53324859
  0
VERTEX
  8
0
 10
22.25222147
 20
0.52840025
  0
VERTEX
  8
0
 10
22.26885197
 20
0.52161872
  0
VERTEX
  8
0
 10
22.28371893
 20
0.51316198
  0
VERTEX
  8
0
 10
22.29669335
 20
0.50294417
  0
VERTEX
  8
0
 10
22.30777522
 20
0.49096527
  0
VERTEX
  8
0
 10
22.31696455
 20
0.47722529
  0
VERTEX
  8
0
 10
22.32417546
 20
0.46185325
  0
VERTEX
  8
0
 10
22.32932206
 20
0.44497815
  0
VERTEX
  8
0
 10
22.33240436
 20
0.42660000
  0
VERTEX
  8
0
 10
22.33342235
 20
0.40671879
  0
VERTEX
  8
0
 10
22.33342211
 20
0.40637491
  0
VERTEX
  8
0
 10
22.33263968
 20
0.39369491
  0
VERTEX
  8
0
 10
22.33030938
 20
0.38041418
  0
VERTEX
  8
0
 10
22.32643121
 20
0.36653273
  0
VERTEX
  8
0
 10
22.32100517
 20
0.35205055
  0
VERTEX
  8
0
 10
22.31435387
 20
0.33728981
  0
VERTEX
  8
0
 10
22.30645605
 20
0.32257291
  0
VERTEX
  8
0
 10
22.29731169
 20
0.30789985
  0
VERTEX
  8
0
 10
22.28692079
 20
0.29327063
  0
VERTEX
  8
0
 10
22.13169073
 20
0.08842529
  0
VERTEX
  8
0
 10
22.33595478
 20
0.08828507
  0
VERTEX
  8
0
 10
22.33591606
 20
0.03188893
  0
VERTEX
  8
0
 10
22.05393538
 20
0.03208251
  0
VERTEX
  8
0
 10
22.05397009
 20
0.08263270
  0
SEQEND
  0
POLYLINE
  8
Default_Layer
 62
256
 66
   1
 39
0.000000
 70
    1
  0
VERTEX
  8
0
 10
22.41779402
 20
0.08263270
  0
VERTEX
  8
0
 10
22.59918249
 20
0.32184799
  0
VERTEX
  8
0
 10
22.60714226
 20
0.33286815
  0
VERTEX
  8
0
 10
22.61415639
 20
0.34393194
  0
VERTEX
  8
0
 10
22.62022488
 20
0.35503937
  0
VERTEX
  8
0
 10
22.62534774
 20
0.36619043
  0
VERTEX
  8
0
 10
22.62941730
 20
0.37710579
  0
VERTEX
  8
0
 10
22.63232592
 20
0.38750614
  0
VERTEX
  8
0
 10
22.63407360
 20
0.39739146
  0
VERTEX
  8
0
 10
22.63466032
 20
0.40676176
  0
VERTEX
  8
0
 10
22.63466080
 20
0.40744952
  0
VERTEX
  8
0
 10
22.63340409
 20
0.42397807
  0
VERTEX
  8
0
 10
22.62960989
 20
0.43848807
  0
VERTEX
  8
0
 10
22.62676123
 20
0.44498611
  0
VERTEX
  8
0
 10
22.62327819
 20
0.45097952
  0
VERTEX
  8
0
 10
22.61916079
 20
0.45646829
  0
VERTEX
  8
0
 10
22.61440901
 20
0.46145243
  0
VERTEX
  8
0
 10
22.60907661
 20
0.46596950
  0
VERTEX
  8
0
 10
22.60321723
 20
0.46988515
  0
VERTEX
  8
0
 10
22.59683088
 20
0.47319937
  0
VERTEX
  8
0
 10
22.58991755
 20
0.47591216
  0
VERTEX
  8
0
 10
22.57450996
 20
0.47953347
  0
VERTEX
  8
0
 10
22.55699445
 20
0.48074907
  0
VERTEX
  8
0
 10
22.54044440
 20
0.47947088
  0
VERTEX
  8
0
 10
22.52552600
 20
0.47561249
  0
VERTEX
  8
0
 10
22.51867867
 20
0.47271571
  0
VERTEX
  8
0
 10
22.51223925
 20
0.46917387
  0
VERTEX
  8
0
 10
22.50620775
 20
0.46498699
  0
VERTEX
  8
0
 10
22.50058416
 20
0.46015505
  0
VERTEX
  8
0
 10
22.49542762
 20
0.45472638
  0
VERTEX
  8
0
 10
22.49079727
 20
0.44874928
  0
VERTEX
  8
0
 10
22.48311513
 20
0.43514984
  0
VERTEX
  8
0
 10
22.47753774
 20
0.41935673
  0
VERTEX
  8
0
 10
22.47406511
 20
0.40136994
  0
VERTEX
  8
0
 10
22.47406488
 20
0.40102606
  0
VERTEX
  8
0
 10
22.41182280
 20
0.40106879
  0
VERTEX
  8
0
 10
22.41182304
 20
0.40141267
  0
VERTEX
  8
0
 10
22.41572738
 20
0.42210721
  0
VERTEX
  8
0
 10
22.42122106
 20
0.44121022
  0
VERTEX
  8
0
 10
22.42830410
 20
0.45872169
  0
VERTEX
  8
0
 10
22.43697648
 20
0.47464164
  0
VERTEX
  8
0
 10
22.44730272
 20
0.48901299
  0
VERTEX
  8
0
 10
22.45900320
 20
0.50153505
  0
VERTEX
  8
0
 10
22.47207793
 20
0.51220782
  0
VERTEX
  8
0
 10
22.48652691
 20
0.52103129
  0
VERTEX
  8
0
 10
22.50224273
 20
0.52809151
  0
VERTEX
  8
0
 10
22.51911775
 20
0.53313065
  0
VERTEX
  8
0
 10
22.53715198
 20
0.53614871
  0
VERTEX
  8
0
 10
22.55634541
 20
0.53714568
  0
VERTEX
  8
0
 10
22.57788016
 20
0.53616373
  0
VERTEX
  8
0
 10
22.59778016
 20
0.53324859
  0
VERTEX
  8
0
 10
22.61604541
 20
0.52840025
  0
VERTEX
  8
0
 10
22.63267590
 20
0.52161872
  0
VERTEX
  8
0
 10
22.64754286
 20
0.51316198
  0
VERTEX
  8
0
 10
22.66051728
 20
0.50294417
  0
VERTEX
  8
0
 10
22.67159916
 20
0.49096527
  0
VERTEX
  8
0
 10
22.68078849
 20
0.47722529
  0
VERTEX
  8
0
 10
22.68799940
 20
0.46185325
  0
VERTEX
  8
0
 10
22.69314600
 20
0.44497815
  0
VERTEX
  8
0
 10
22.69622829
 20
0.42660000
  0
VERTEX
  8
0
 10
22.69724628
 20
0.40671879
  0
VERTEX
  8
0
 10
22.69724604
 20
0.40637491
  0
VERTEX
  8
0
 10
22.69646361
 20
0.39369491
  0
VERTEX
  8
0
 10
22.69413331
 20
0.38041418
  0
VERTEX
  8
0
 10
22.69025514
 20
0.36653273
  0
VERTEX
  8
0
 10
22.68482911
 20
0.35205055
  0
VERTEX
  8
0
 10
22.67817781
 20
0.33728981
  0
VERTEX
  8
0
 10
22.67027998
 20
0.32257291
  0
VERTEX
  8
0
 10
22.66113562
 20
0.30789985
  0
VERTEX
  8
0
 10
22.65074473
 20
0.29327063
  0
VERTEX
  8
0
 10
22.49551466
 20
0.08842529
  0
VERTEX
  8
0
 10
22.69977871
 20
0.08828507
  0
VERTEX
  8
0
 10
22.69973999
 20
0.03188893
  0
VERTEX
  8
0
 10
22.41775932
 20
0.03208251
  0
VERTEX
  8
0
 10
22.41779402
 20
0.08263270
  0
SEQEND
  0
POLYLINE
  8
Default_Layer
 62
256
 66
   1
 39
0.000000
 70
    1
  0
VERTEX
  8
0
 10
24.10555193
 20
0.08263270
  0
VERTEX
  8
0
 10
24.28694040
 20
0.32184799
  0
VERTEX
  8
0
 10
24.29490017
 20
0.33286815
  0
VERTEX
  8
0
 10
24.30191430
 20
0.34393194
  0
VERTEX
  8
0
 10
24.30798279
 20
0.35503937
  0
VERTEX
  8
0
 10
24.31310565
 20
0.36619043
  0
VERTEX
  8
0
 10
24.31717521
 20
0.37710579
  0
VERTEX
  8
0
 10
24.32008383
 20
0.38750614
  0
VERTEX
  8
0
 10
24.32183151
 20
0.39739146
  0
VERTEX
  8
0
 10
24.32241823
 20
0.40676176
  0
VERTEX
  8
0
 10
24.32241871
 20
0.40744952
  0
VERTEX
  8
0
 10
24.32116200
 20
0.42397807
  0
VERTEX
  8
0
 10
24.31736780
 20
0.43848807
  0
VERTEX
  8
0
 10
24.31451914
 20
0.44498611
  0
VERTEX
  8
0
 10
24.31103610
 20
0.45097952
  0
VERTEX
  8
0
 10
24.30691870
 20
0.45646829
  0
VERTEX
  8
0
 10
24.30216692
 20
0.46145243
  0
VERTEX
  8
0
 10
24.29683452
 20
0.46596950
  0
VERTEX
  8
0
 10
24.29097514
 20
0.46988515
  0
VERTEX
  8
0
 10
24.28458879
 20
0.47319937
  0
VERTEX
  8
0
 10
24.27767546
 20
0.47591216
  0
VERTEX
  8
0
 10
24.26226787
 20
0.47953347
  0
VERTEX
  8
0
 10
24.24475236
 20
0.48074907
  0
VERTEX
  8
0
 10
24.22820231
 20
0.47947088
  0
VERTEX
  8
0
 10
24.21328391
 20
0.47561249
  0
VERTEX
  8
0
 10
24.20643658
 20
0.47271571
  0
VERTEX
  8
0
 10
24.19999716
 20
0.46917387
  0
VERTEX
  8
0
 10
24.19396565
 20
0.46498699
  0
VERTEX
  8
0
 10
24.18834206
 20
0.46015505
  0
VERTEX
  8
0
 10
24.18318553
 20
0.45472638
  0
VERTEX
  8
0
 10
24.17855517
 20
0.44874928
  0
VERTEX
  8
0
 10
24.17087304
 20
0.43514984
  0
VERTEX
  8
0
 10
24.16529565
 20
0.41935673
  0
VERTEX
  8
0
 10
24.16182302
 20
0.40136994
  0
VERTEX
  8
0
 10
24.16182279
 20
0.40102606
  0
VERTEX
  8
0
 10
24.09958071
 20
0.40106879
  0
VERTEX
  8
0
 10
24.09958095
 20
0.40141267
  0
VERTEX
  8
0
 10
24.10348529
 20
0.42210721
  0
VERTEX
  8
0
 10
24.10897897
 20
0.44121022
  0
VERTEX
  8
0
 10
24.11606201
 20
0.45872169
  0
VERTEX
  8
0
 10
24.12473439
 20
0.47464164
  0
VERTEX
  8
0
 10
24.13506062
 20
0.48901299
  0
VERTEX
  8
0
 10
24.14676111
 20
0.50153505
  0
VERTEX
  8
0
 10
24.15983584
 20
0.51220782
  0
VERTEX
  8
0
 10
24.17428481
 20
0.52103129
  0
VERTEX
  8
0
 10
24.19000064
 20
0.52809151
  0
VERTEX
  8
0
 10
24.20687566
 20
0.53313065
  0
VERTEX
  8
0
 10
24.22490989
 20
0.53614871
  0
VERTEX
  8
0
 10
24.24410332
 20
0.53714568
  0
VERTEX
  8
0
 10
24.26563807
 20
0.53616373
  0
VERTEX
  8
0
 10
24.28553807
 20
0.53324859
  0
VERTEX
  8
0
 10
24.30380332
 20
0.52840025
  0
VERTEX
  8
0
 10
24.32043381
 20
0.52161872
  0
VERTEX
  8
0
 10
24.33530077
 20
0.51316198
  0
VERTEX
  8
0
 10
24.34827519
 20
0.50294417
  0
VERTEX
  8
0
 10
24.35935707
 20
0.49096527
  0
VERTEX
  8
0
 10
24.36854640
 20
0.47722529
  0
VERTEX
  8
0
 10
24.37575730
 20
0.46185325
  0
VERTEX
  8
0
 10
24.38090391
 20
0.44497815
  0
VERTEX
  8
0
 10
24.38398620
 20
0.42660000
  0
VERTEX
  8
0
 10
24.38500419
 20
0.40671879
  0
VERTEX
  8
0
 10
24.38500395
 20
0.40637491
  0
VERTEX
  8
0
 10
24.38422152
 20
0.39369491
  0
VERTEX
  8
0
 10
24.38189122
 20
0.38041418
  0
VERTEX
  8
0
 10
24.37801305
 20
0.36653273
  0
VERTEX
  8
0
 10
24.37258701
 20
0.35205055
  0
VERTEX
  8
0
 10
24.36593572
 20
0.33728981
  0
VERTEX
  8
0
 10
24.35803789
 20
0.32257291
  0
VERTEX
  8
0
 10
24.34889353
 20
0.30789985
  0
VERTEX
  8
0
 10
24.33850264
 20
0.29327063
  0
VERTEX
  8
0
 10
24.18327257
 20
0.08842529
  0
VERTEX
  8
0
 10
24.38753662
 20
0.08828507
  0
VERTEX
  8
0
 10
24.38749790
 20
0.03188893
  0
VERTEX
  8
0
 10
24.10551723
 20
0.03208251
  0
VERTEX
  8
0
 10
24.10555193
 20
0.08263270
  0
SEQEND
  0
POLYLINE
  8
Default_Layer
 62
256
 66
   1
 39
0.000000
 70
    1
  0
VERTEX
  8
0
 10
24.47011627
 20
0.15932985
  0
VERTEX
  8
0
 10
24.63818482
 20
0.53163547
  0
VERTEX
  8
0
 10
24.70008302
 20
0.53159298
  0
VERTEX
  8
0
 10
24.53614385
 20
0.16341107
  0
VERTEX
  8
0
 10
24.79164585
 20
0.16323567
  0
VERTEX
  8
0
 10
24.79160831
 20
0.10855893
  0
VERTEX
  8
0
 10
24.47008157
 20
0.10877966
  0
VERTEX
  8
0
 10
24.47011627
 20
0.15932985
  0
SEQEND
  0
POLYLINE
  8
Default_Layer
 62
256
 66
   1
 39
0.000000
 70
    1
  0
VERTEX
  8
0
 10
24.69100100
 20
0.32595955
  0
VERTEX
  8
0
 10
24.74911653
 20
0.32591965
  0
VERTEX
  8
0
 10
24.74891445
 20
0.03155934
  0
VERTEX
  8
0
 10
24.69079892
 20
0.03159923
  0
VERTEX
  8
0
 10
24.69100100
 20
0.32595955
  0
SEQEND
  0
POLYLINE
  8
Default_Layer
 62
256
 66
   1
 39
0.000000
 70
    1
  0
VERTEX
  8
0
 10
26.19392882
 20
0.08263270
  0
VERTEX
  8
0
 10
26.37531729
 20
0.32184799
  0
VERTEX
  8
0
 10
26.38327706
 20
0.33286815
  0
VERTEX
  8
0
 10
26.39029119
 20
0.34393194
  0
VERTEX
  8
0
 10
26.39635968
 20
0.35503937
  0
VERTEX
  8
0
 10
26.40148254
 20
0.36619043
  0
VERTEX
  8
0
 10
26.40555210
 20
0.37710579
  0
VERTEX
  8
0
 10
26.40846072
 20
0.38750614
  0
VERTEX
  8
0
 10
26.41020840
 20
0.39739146
  0
VERTEX
  8
0
 10
26.41079513
 20
0.40676176
  0
VERTEX
  8
0
 10
26.41079560
 20
0.40744952
  0
VERTEX
  8
0
 10
26.40953889
 20
0.42397807
  0
VERTEX
  8
0
 10
26.40574469
 20
0.43848807
  0
VERTEX
  8
0
 10
26.40289603
 20
0.44498611
  0
VERTEX
  8
0
 10
26.39941300
 20
0.45097952
  0
VERTEX
  8
0
 10
26.39529559
 20
0.45646829
  0
VERTEX
  8
0
 10
26.39054381
 20
0.46145243
  0
VERTEX
  8
0
 10
26.38521141
 20
0.46596950
  0
VERTEX
  8
0
 10
26.37935203
 20
0.46988515
  0
VERTEX
  8
0
 10
26.37296568
 20
0.47319937
  0
VERTEX
  8
0
 10
26.36605235
 20
0.47591216
  0
VERTEX
  8
0
 10
26.35064476
 20
0.47953347
  0
VERTEX
  8
0
 10
26.33312926
 20
0.48074907
  0
VERTEX
  8
0
 10
26.31657920
 20
0.47947088
  0
VERTEX
  8
0
 10
26.30166080
 20
0.47561249
  0
VERTEX
  8
0
 10
26.29481347
 20
0.47271571
  0
VERTEX
  8
0
 10
26.28837405
 20
0.46917387
  0
VERTEX
  8
0
 10
26.28234255
 20
0.46498699
  0
VERTEX
  8
0
 10
26.27671896
 20
0.46015505
  0
VERTEX
  8
0
 10
26.27156242
 20
0.45472638
  0
VERTEX
  8
0
 10
26.26693207
 20
0.44874928
  0
VERTEX
  8
0
 10
26.25924993
 20
0.43514984
  0
VERTEX
  8
0
 10
26.25367254
 20
0.41935673
  0
VERTEX
  8
0
 10
26.25019991
 20
0.40136994
  0
VERTEX
  8
0
 10
26.25019968
 20
0.40102606
  0
VERTEX
  8
0
 10
26.18795760
 20
0.40106879
  0
VERTEX
  8
0
 10
26.18795784
 20
0.40141267
  0
VERTEX
  8
0
 10
26.19186218
 20
0.42210721
  0
VERTEX
  8
0
 10
26.19735586
 20
0.44121022
  0
VERTEX
  8
0
 10
26.20443890
 20
0.45872169
  0
VERTEX
  8
0
 10
26.21311128
 20
0.47464164
  0
VERTEX
  8
0
 10
26.22343752
 20
0.48901299
  0
VERTEX
  8
0
 10
26.23513800
 20
0.50153505
  0
VERTEX
  8
0
 10
26.24821273
 20
0.51220782
  0
VERTEX
  8
0
 10
26.26266171
 20
0.52103129
  0
VERTEX
  8
0
 10
26.27837753
 20
0.52809151
  0
VERTEX
  8
0
 10
26.29525255
 20
0.53313065
  0
VERTEX
  8
0
 10
26.31328678
 20
0.53614871
  0
VERTEX
  8
0
 10
26.33248021
 20
0.53714568
  0
VERTEX
  8
0
 10
26.35401496
 20
0.53616373
  0
VERTEX
  8
0
 10
26.37391496
 20
0.53324859
  0
VERTEX
  8
0
 10
26.39218021
 20
0.52840025
  0
VERTEX
  8
0
 10
26.40881070
 20
0.52161872
  0
VERTEX
  8
0
 10
26.42367766
 20
0.51316198
  0
VERTEX
  8
0
 10
26.43665208
 20
0.50294417
  0
VERTEX
  8
0
 10
26.44773396
 20
0.49096527
  0
VERTEX
  8
0
 10
26.45692329
 20
0.47722529
  0
VERTEX
  8
0
 10
26.46413420
 20
0.46185325
  0
VERTEX
  8
0
 10
26.46928080
 20
0.44497815
  0
VERTEX
  8
0
 10
26.47236309
 20
0.42660000
  0
VERTEX
  8
0
 10
26.47338108
 20
0.40671879
  0
VERTEX
  8
0
 10
26.47338084
 20
0.40637491
  0
VERTEX
  8
0
 10
26.47259841
 20
0.39369491
  0
VERTEX
  8
0
 10
26.47026811
 20
0.38041418
  0
VERTEX
  8
0
 10
26.46638994
 20
0.36653273
  0
VERTEX
  8
0
 10
26.46096391
 20
0.35205055
  0
VERTEX
  8
0
 10
26.45431261
 20
0.33728981
  0
VERTEX
  8
0
 10
26.44641478
 20
0.32257291
  0
VERTEX
  8
0
 10
26.43727042
 20
0.30789985
  0
VERTEX
  8
0
 10
26.42687953
 20
0.29327063
  0
VERTEX
  8
0
 10
26.27164946
 20
0.08842529
  0
VERTEX
  8
0
 10
26.47591351
 20
0.08828507
  0
VERTEX
  8
0
 10
26.47587480
 20
0.03188893
  0
VERTEX
  8
0
 10
26.19389412
 20
0.03208251
  0
VERTEX
  8
0
 10
26.19392882
 20
0.08263270
  0
SEQEND
  0
POLYLINE
  8
Default_Layer
 62
256
 66
   1
 39
0.000000
 70
    1
  0
VERTEX
  8
0
 10
26.69423442
 20
0.02682978
  0
VERTEX
  8
0
 10
26.67302215
 20
0.02794046
  0
VERTEX
  8
0
 10
26.65340182
 20
0.03124227
  0
VERTEX
  8
0
 10
26.63537343
 20
0.03673522
  0
VERTEX
  8
0
 10
26.61893699
 20
0.04441930
  0
VERTEX
  8
0
 10
26.60422149
 20
0.05435891
  0
VERTEX
  8
0
 10
26.59135570
 20
0.06627456
  0
VERTEX
  8
0
 10
26.58033962
 20
0.08016623
  0
VERTEX
  8
0
 10
26.57117324
 20
0.09603395
  0
VERTEX
  8
0
 10
26.56411450
 20
0.11392050
  0
VERTEX
  8
0
 10
26.55907724
 20
0.13352507
  0
VERTEX
  8
0
 10
26.55606144
 20
0.15484764
  0
VERTEX
  8
0
 10
26.55506712
 20
0.17788822
  0
VERTEX
  8
0
 10
26.55506735
 20
0.17823209
  0
VERTEX
  8
0
 10
26.55548539
 20
0.19233085
  0
VERTEX
  8
0
 10
26.55672037
 20
0.20677292
  0
VERTEX
  8
0
 10
26.55877230
 20
0.22155831
  0
VERTEX
  8
0
 10
26.56164118
 20
0.23668702
  0
VERTEX
  8
0
 10
26.56965720
 20
0.26702884
  0
VERTEX
  8
0
 10
26.58059583
 20
0.29685284
  0
VERTEX
  8
0
 10
26.58507310
 20
0.30682225
  0
VERTEX
  8
0
 10
26.58989425
 20
0.31679144
  0
VERTEX
  8
0
 10
26.69870776
 20
0.53198501
  0
VERTEX
  8
0
 10
26.76404474
 20
0.53194016
  0
VERTEX
  8
0
 10
26.63629453
 20
0.28271556
  0
VERTEX
  8
0
 10
26.63664691
 20
0.29509496
  0
VERTEX
  8
0
 10
26.64183182
 20
0.30272122
  0
VERTEX
  8
0
 10
26.64809074
 20
0.30944406
  0
VERTEX
  8
0
 10
26.65542365
 20
0.31526347
  0
VERTEX
  8
0
 10
26.66383057
 20
0.32017947
  0
VERTEX
  8
0
 10
26.67326843
 20
0.32408462
  0
VERTEX
  8
0
 10
26.68335030
 20
0.32687171
  0
VERTEX
  8
0
 10
26.69407617
 20
0.32854076
  0
VERTEX
  8
0
 10
26.70544605
 20
0.32909176
  0
VERTEX
  8
0
 10
26.72500341
 20
0.32798222
  0
VERTEX
  8
0
 10
26.74309778
 20
0.32468145
  0
VERTEX
  8
0
 10
26.75972916
 20
0.31918946
  0
VERTEX
  8
0
 10
26.77489755
 20
0.31150625
  0
VERTEX
  8
0
 10
26.78860300
 20
0.30171778
  0
VERTEX
  8
0
 10
26.80050171
 20
0.28991026
  0
VERTEX
  8
0
 10
26.81059366
 20
0.27608369
  0
VERTEX
  8
0
 10
26.81887887
 20
0.26023808
  0
VERTEX
  8
0
 10
26.82548650
 20
0.24269571
  0
VERTEX
  8
0
 10
26.83020161
 20
0.22343525
  0
VERTEX
  8
0
 10
26.83302421
 20
0.20245669
  0
VERTEX
  8
0
 10
26.83395430
 20
0.17976004
  0
VERTEX
  8
0
 10
26.83395406
 20
0.17941616
  0
VERTEX
  8
0
 10
26.83290649
 20
0.15620504
  0
VERTEX
  8
0
 10
26.82979683
 20
0.13471474
  0
VERTEX
  8
0
 10
26.82462507
 20
0.11494524
  0
VERTEX
  8
0
 10
26.81739122
 20
0.09689656
  0
VERTEX
  8
0
 10
26.80833181
 20
0.08074046
  0
VERTEX
  8
0
 10
26.79733950
 20
0.06664897
  0
VERTEX
  8
0
 10
26.78441429
 20
0.05462208
  0
VERTEX
  8
0
 10
26.76955617
 20
0.04465978
  0
VERTEX
  8
0
 10
26.75310909
 20
0.03684783
  0
VERTEX
  8
0
 10
26.73507311
 20
0.03127217
  0
VERTEX
  8
0
 10
26.71544822
 20
0.02793283
  0
VERTEX
  8
0
 10
26.69423442
 20
0.02682978
  0
SEQEND
  0
POLYLINE
  8
Default_Layer
 62
256
 66
   1
 39
0.000000
 70
    1
  0
VERTEX
  8
0
 10
26.69427361
 20
0.08391367
  0
VERTEX
  8
0
 10
26.70354247
 20
0.08427268
  0
VERTEX
  8
0
 10
26.71226378
 20
0.08536281
  0
VERTEX
  8
0
 10
26.72043753
 20
0.08718406
  0
VERTEX
  8
0
 10
26.72806372
 20
0.08973642
  0
VERTEX
  8
0
 10
26.73514236
 20
0.09301991
  0
VERTEX
  8
0
 10
26.74167345
 20
0.09703451
  0
VERTEX
  8
0
 10
26.74765698
 20
0.10178023
  0
VERTEX
  8
0
 10
26.75309295
 20
0.10725707
  0
VERTEX
  8
0
 10
26.75801357
 20
0.11340590
  0
VERTEX
  8
0
 10
26.76227909
 20
0.12016772
  0
VERTEX
  8
0
 10
26.76588951
 20
0.12754252
  0
VERTEX
  8
0
 10
26.76884483
 20
0.13553031
  0
VERTEX
  8
0
 10
26.77114505
 20
0.14413108
  0
VERTEX
  8
0
 10
26.77279017
 20
0.15334483
  0
VERTEX
  8
0
 10
26.77411512
 20
0.17361129
  0
VERTEX
  8
0
 10
26.77411536
 20
0.17395517
  0
VERTEX
  8
0
 10
26.77277648
 20
0.19600733
  0
VERTEX
  8
0
 10
26.77109083
 20
0.20603471
  0
VERTEX
  8
0
 10
26.76872772
 20
0.21539629
  0
VERTEX
  8
0
 10
26.76568713
 20
0.22409207
  0
VERTEX
  8
0
 10
26.76196908
 20
0.23212205
  0
VERTEX
  8
0
 10
26.75757356
 20
0.23948623
  0
VERTEX
  8
0
 10
26.75250057
 20
0.24618461
  0
VERTEX
  8
0
 10
26.74680385
 20
0.25223327
  0
VERTEX
  8
0
 10
26.74053703
 20
0.25747635
  0
VERTEX
  8
0
 10
26.73370011
 20
0.26191386
  0
VERTEX
  8
0
 10
26.72629308
 20
0.26554579
  0
VERTEX
  8
0
 10
26.71831595
 20
0.26837215
  0
VERTEX
  8
0
 10
26.70976872
 20
0.27039294
  0
VERTEX
  8
0
 10
26.70065139
 20
0.27160815
  0
VERTEX
  8
0
 10
26.69096395
 20
0.27201778
  0
VERTEX
  8
0
 10
26.68218939
 20
0.27162082
  0
VERTEX
  8
0
 10
26.67391935
 20
0.27041755
  0
VERTEX
  8
0
 10
26.66615383
 20
0.26840796
  0
VERTEX
  8
0
 10
26.65889282
 20
0.26559206
  0
VERTEX
  8
0
 10
26.65213634
 20
0.26196985
  0
VERTEX
  8
0
 10
26.64588437
 20
0.25754133
  0
VERTEX
  8
0
 10
26.64013692
 20
0.25230649
  0
VERTEX
  8
0
 10
26.63489399
 20
0.24626534
  0
VERTEX
  8
0
 10
26.63021479
 20
0.23956829
  0
VERTEX
  8
0
 10
26.62615840
 20
0.23219379
  0
VERTEX
  8
0
 10
26.62272483
 20
0.22414186
  0
VERTEX
  8
0
 10
26.61991407
 20
0.21541248
  0
VERTEX
  8
0
 10
26.61616101
 20
0.19592142
  0
VERTEX
  8
0
 10
26.61489921
 20
0.17372059
  0
VERTEX
  8
0
 10
26.61489897
 20
0.17337671
  0
VERTEX
  8
0
 10
26.61617471
 20
0.15325891
  0
VERTEX
  8
0
 10
26.61778035
 20
0.14410203
  0
VERTEX
  8
0
 10
26.62003119
 20
0.13554650
  0
VERTEX
  8
0
 10
26.62292720
 20
0.12759231
  0
VERTEX
  8
0
 10
26.62646841
 20
0.12023946
  0
VERTEX
  8
0
 10
26.63065480
 20
0.11348796
  0
VERTEX
  8
0
 10
26.63548638
 20
0.10733781
  0
VERTEX
  8
0
 10
26.64099005
 20
0.10185346
  0
VERTEX
  8
0
 10
26.64702079
 20
0.09709949
  0
VERTEX
  8
0
 10
26.65357859
 20
0.09307590
  0
VERTEX
  8
0
 10
26.66066347
 20
0.08978269
  0
VERTEX
  8
0
 10
26.66827540
 20
0.08721987
  0
VERTEX
  8
0
 10
26.67641441
 20
0.08538742
  0
VERTEX
  8
0
 10
26.68508048
 20
0.08428536
  0
VERTEX
  8
0
 10
26.69427361
 20
0.08391367
  0
SEQEND
  0
POLYLINE
  8
Default_Layer
 62
256
 66
   1
 39
0.000000
 70
    1
  0
VERTEX
  8
0
 10
28.05397009
 20
0.08263270
  0
VERTEX
  8
0
 10
28.23535856
 20
0.32184799
  0
VERTEX
  8
0
 10
28.24331833
 20
0.33286815
  0
VERTEX
  8
0
 10
28.25033246
 20
0.34393194
  0
VERTEX
  8
0
 10
28.25640095
 20
0.35503937
  0
VERTEX
  8
0
 10
28.26152381
 20
0.36619043
  0
VERTEX
  8
0
 10
28.26559337
 20
0.37710579
  0
VERTEX
  8
0
 10
28.26850199
 20
0.38750614
  0
VERTEX
  8
0
 10
28.27024966
 20
0.39739146
  0
VERTEX
  8
0
 10
28.27083639
 20
0.40676176
  0
VERTEX
  8
0
 10
28.27083686
 20
0.40744952
  0
VERTEX
  8
0
 10
28.26958016
 20
0.42397807
  0
VERTEX
  8
0
 10
28.26578596
 20
0.43848807
  0
VERTEX
  8
0
 10
28.26293729
 20
0.44498611
  0
VERTEX
  8
0
 10
28.25945426
 20
0.45097952
  0
VERTEX
  8
0
 10
28.25533685
 20
0.45646829
  0
VERTEX
  8
0
 10
28.25058507
 20
0.46145243
  0
VERTEX
  8
0
 10
28.24525268
 20
0.46596950
  0
VERTEX
  8
0
 10
28.23939330
 20
0.46988515
  0
VERTEX
  8
0
 10
28.23300695
 20
0.47319937
  0
VERTEX
  8
0
 10
28.22609362
 20
0.47591216
  0
VERTEX
  8
0
 10
28.21068602
 20
0.47953347
  0
VERTEX
  8
0
 10
28.19317052
 20
0.48074907
  0
VERTEX
  8
0
 10
28.17662046
 20
0.47947088
  0
VERTEX
  8
0
 10
28.16170206
 20
0.47561249
  0
VERTEX
  8
0
 10
28.15485473
 20
0.47271571
  0
VERTEX
  8
0
 10
28.14841531
 20
0.46917387
  0
VERTEX
  8
0
 10
28.14238381
 20
0.46498699
  0
VERTEX
  8
0
 10
28.13676022
 20
0.46015505
  0
VERTEX
  8
0
 10
28.13160368
 20
0.45472638
  0
VERTEX
  8
0
 10
28.12697333
 20
0.44874928
  0
VERTEX
  8
0
 10
28.11929119
 20
0.43514984
  0
VERTEX
  8
0
 10
28.11371381
 20
0.41935673
  0
VERTEX
  8
0
 10
28.11024118
 20
0.40136994
  0
VERTEX
  8
0
 10
28.11024094
 20
0.40102606
  0
VERTEX
  8
0
 10
28.04799887
 20
0.40106879
  0
VERTEX
  8
0
 10
28.04799910
 20
0.40141267
  0
VERTEX
  8
0
 10
28.05190344
 20
0.42210721
  0
VERTEX
  8
0
 10
28.05739713
 20
0.44121022
  0
VERTEX
  8
0
 10
28.06448016
 20
0.45872169
  0
VERTEX
  8
0
 10
28.07315254
 20
0.47464164
  0
VERTEX
  8
0
 10
28.08347878
 20
0.48901299
  0
VERTEX
  8
0
 10
28.09517926
 20
0.50153505
  0
VERTEX
  8
0
 10
28.10825399
 20
0.51220782
  0
VERTEX
  8
0
 10
28.12270297
 20
0.52103129
  0
VERTEX
  8
0
 10
28.13841879
 20
0.52809151
  0
VERTEX
  8
0
 10
28.15529382
 20
0.53313065
  0
VERTEX
  8
0
 10
28.17332805
 20
0.53614871
  0
VERTEX
  8
0
 10
28.19252148
 20
0.53714568
  0
VERTEX
  8
0
 10
28.21405623
 20
0.53616373
  0
VERTEX
  8
0
 10
28.23395623
 20
0.53324859
  0
VERTEX
  8
0
 10
28.25222147
 20
0.52840025
  0
VERTEX
  8
0
 10
28.26885197
 20
0.52161872
  0
VERTEX
  8
0
 10
28.28371893
 20
0.51316198
  0
VERTEX
  8
0
 10
28.29669335
 20
0.50294417
  0
VERTEX
  8
0
 10
28.30777522
 20
0.49096527
  0
VERTEX
  8
0
 10
28.31696455
 20
0.47722529
  0
VERTEX
  8
0
 10
28.32417546
 20
0.46185325
  0
VERTEX
  8
0
 10
28.32932206
 20
0.44497815
  0
VERTEX
  8
0
 10
28.33240436
 20
0.42660000
  0
VERTEX
  8
0
 10
28.33342235
 20
0.40671879
  0
VERTEX
  8
0
 10
28.33342211
 20
0.40637491
  0
VERTEX
  8
0
 10
28.33263968
 20
0.39369491
  0
VERTEX
  8
0
 10
28.33030938
 20
0.38041418
  0
VERTEX
  8
0
 10
28.32643121
 20
0.36653273
  0
VERTEX
  8
0
 10
28.32100517
 20
0.35205055
  0
VERTEX
  8
0
 10
28.31435387
 20
0.33728981
  0
VERTEX
  8
0
 10
28.30645605
 20
0.32257291
  0
VERTEX
  8
0
 10
28.29731169
 20
0.30789985
  0
VERTEX
  8
0
 10
28.28692079
 20
0.29327063
  0
VERTEX
  8
0
 10
28.13169073
 20
0.08842529
  0
VERTEX
  8
0
 10
28.33595478
 20
0.08828507
  0
VERTEX
  8
0
 10
28.33591606
 20
0.03188893
  0
VERTEX
  8
0
 10
28.05393538
 20
0.03208251
  0
VERTEX
  8
0
 10
28.05397009
 20
0.08263270
  0
SEQEND
  0
POLYLINE
  8
Default_Layer
 62
256
 66
   1
 39
0.000000
 70
    1
  0
VERTEX
  8
0
 10
28.57181352
 20
0.02682966
  0
VERTEX
  8
0
 10
28.54935464
 20
0.02787672
  0
VERTEX
  8
0
 10
28.52840164
 20
0.03098601
  0
VERTEX
  8
0
 10
28.50895453
 20
0.03615755
  0
VERTEX
  8
0
 10
28.49101331
 20
0.04339133
  0
VERTEX
  8
0
 10
28.47496486
 20
0.05270857
  0
VERTEX
  8
0
 10
28.46085193
 20
0.06378686
  0
VERTEX
  8
0
 10
28.44867453
 20
0.07662621
  0
VERTEX
  8
0
 10
28.43843266
 20
0.09122661
  0
VERTEX
  8
0
 10
28.43047020
 20
0.10758782
  0
VERTEX
  8
0
 10
28.42478690
 20
0.12536597
  0
VERTEX
  8
0
 10
28.42138278
 20
0.14456106
  0
VERTEX
  8
0
 10
28.42025783
 20
0.16517308
  0
VERTEX
  8
0
 10
28.42026232
 20
0.17170678
  0
VERTEX
  8
0
 10
28.42141437
 20
0.19057635
  0
VERTEX
  8
0
 10
28.42484409
 20
0.20867063
  0
VERTEX
  8
0
 10
28.43055148
 20
0.22598962
  0
VERTEX
  8
0
 10
28.43853653
 20
0.24253331
  0
VERTEX
  8
0
 10
28.44866992
 20
0.25776450
  0
VERTEX
  8
0
 10
28.46047846
 20
0.27114618
  0
VERTEX
  8
0
 10
28.47396214
 20
0.28267836
  0
VERTEX
  8
0
 10
28.48912095
 20
0.29236105
  0
VERTEX
  8
0
 10
28.47625283
 20
0.30088089
  0
VERTEX
  8
0
 10
28.46480427
 20
0.31094721
  0
VERTEX
  8
0
 10
28.45477527
 20
0.32256001
  0
VERTEX
  8
0
 10
28.44616584
 20
0.33571929
  0
VERTEX
  8
0
 10
28.43940559
 20
0.35010238
  0
VERTEX
  8
0
 10
28.43458005
 20
0.36504293
  0
VERTEX
  8
0
 10
28.43168921
 20
0.38054097
  0
VERTEX
  8
0
 10
28.43073307
 20
0.39659648
  0
VERTEX
  8
0
 10
28.43073898
 20
0.40519345
  0
VERTEX
  8
0
 10
28.43182705
 20
0.42479381
  0
VERTEX
  8
0
 10
28.43506343
 20
0.44301717
  0
VERTEX
  8
0
 10
28.44044810
 20
0.45986355
  0
VERTEX
  8
0
 10
28.44798108
 20
0.47533294
  0
VERTEX
  8
0
 10
28.45749040
 20
0.48940396
  0
VERTEX
  8
0
 10
28.46880387
 20
0.50171136
  0
VERTEX
  8
0
 10
28.48192150
 20
0.51225514
  0
VERTEX
  8
0
 10
28.49684328
 20
0.52103530
  0
VERTEX
  8
0
 10
28.51354775
 20
0.52809485
  0
VERTEX
  8
0
 10
28.53166933
 20
0.53313313
  0
VERTEX
  8
0
 10
28.55120803
 20
0.53615015
  0
VERTEX
  8
0
 10
28.57216384
 20
0.53714591
  0
VERTEX
  8
0
 10
28.59324722
 20
0.53612129
  0
VERTEX
  8
0
 10
28.61282475
 20
0.53307742
  0
VERTEX
  8
0
 10
28.63089641
 20
0.52801429
  0
VERTEX
  8
0
 10
28.64746222
 20
0.52093191
  0
VERTEX
  8
0
 10
28.66250089
 20
0.51213117
  0
VERTEX
  8
0
 10
28.67564701
 20
0.50156936
  0
VERTEX
  8
0
 10
28.68690059
 20
0.48924647
  0
VERTEX
  8
0
 10
28.69626163
 20
0.47516249
  0
VERTEX
  8
0
 10
28.70377335
 20
0.45968278
  0
VERTEX
  8
0
 10
28.70913489
 20
0.44282903
  0
VERTEX
  8
0
 10
28.71234624
 20
0.42460123
  0
VERTEX
  8
0
 10
28.71340741
 20
0.40499940
  0
VERTEX
  8
0
 10
28.71340151
 20
0.39640243
  0
VERTEX
  8
0
 10
28.71240154
 20
0.37991841
  0
VERTEX
  8
0
 10
28.70942477
 20
0.36416650
  0
VERTEX
  8
0
 10
28.70447120
 20
0.34914668
  0
VERTEX
  8
0
 10
28.69754082
 20
0.33485897
  0
VERTEX
  8
0
 10
28.68887046
 20
0.32188349
  0
VERTEX
  8
0
 10
28.67869669
 20
0.31045649
  0
VERTEX
  8
0
 10
28.66701952
 20
0.30057799
  0
VERTEX
  8
0
 10
28.65383893
 20
0.29224797
  0
VERTEX
  8
0
 10
28.66928523
 20
0.28239383
  0
VERTEX
  8
0
 10
28.68296791
 20
0.27073553
  0
VERTEX
  8
0
 10
28.69488698
 20
0.25727308
  0
VERTEX
  8
0
 10
28.70504242
 20
0.24200648
  0
VERTEX
  8
0
 10
28.71315530
 20
0.22560218
  0
VERTEX
  8
0
 10
28.71894644
 20
0.20838276
  0
VERTEX
  8
0
 10
28.72241583
 20
0.19034822
  0
VERTEX
  8
0
 10
28.72356349
 20
0.17149856
  0
VERTEX
  8
0
 10
28.72355900
 20
0.16496486
  0
VERTEX
  8
0
 10
28.72240575
 20
0.14435441
  0
VERTEX
  8
0
 10
28.71897528
 20
0.12516401
  0
VERTEX
  8
0
 10
28.71326758
 20
0.10739368
  0
VERTEX
  8
0
 10
28.70528266
 20
0.09104342
  0
VERTEX
  8
0
 10
28.69514971
 20
0.07645701
  0
VERTEX
  8
0
 10
28.68299768
 20
0.06363436
  0
VERTEX
  8
0
 10
28.66882657
 20
0.05257548
  0
VERTEX
  8
0
 10
28.65263638
 20
0.04328037
  0
VERTEX
  8
0
 10
28.63481420
 20
0.03607115
  0
VERTEX
  8
0
 10
28.61540300
 20
0.03092629
  0
VERTEX
  8
0
 10
28.59440277
 20
0.02784579
  0
VERTEX
  8
0
 10
28.57181352
 20
0.02682966
  0
SEQEND
  0
POLYLINE
  8
Default_Layer
 62
256
 66
   1
 39
0.000000
 70
    1
  0
VERTEX
  8
0
 10
28.57185223
 20
0.08322580
  0
VERTEX
  8
0
 10
28.58547887
 20
0.08386122
  0
VERTEX
  8
0
 10
28.59816074
 20
0.08578683
  0
VERTEX
  8
0
 10
28.60989782
 20
0.08900264
  0
VERTEX
  8
0
 10
28.62069011
 20
0.09350864
  0
VERTEX
  8
0
 10
28.63040862
 20
0.09921896
  0
VERTEX
  8
0
 10
28.63892431
 20
0.10604771
  0
VERTEX
  8
0
 10
28.64623720
 20
0.11399489
  0
VERTEX
  8
0
 10
28.65234727
 20
0.12306051
  0
VERTEX
  8
0
 10
28.65716860
 20
0.13328760
  0
VERTEX
  8
0
 10
28.66061500
 20
0.14437533
  0
VERTEX
  8
0
 10
28.66268648
 20
0.15632371
  0
VERTEX
  8
0
 10
28.66338303
 20
0.16913272
  0
VERTEX
  8
0
 10
28.66338515
 20
0.17222763
  0
VERTEX
  8
0
 10
28.66270628
 20
0.18516655
  0
VERTEX
  8
0
 10
28.66065124
 20
0.19716074
  0
VERTEX
  8
0
 10
28.65722003
 20
0.20821021
  0
VERTEX
  8
0
 10
28.65241266
 20
0.21831496
  0
VERTEX
  8
0
 10
28.64631514
 20
0.22753940
  0
VERTEX
  8
0
 10
28.63901325
 20
0.23560408
  0
VERTEX
  8
0
 10
28.63050698
 20
0.24250899
  0
VERTEX
  8
0
 10
28.62079635
 20
0.24825414
  0
VERTEX
  8
0
 10
28.61001035
 20
0.25292540
  0
VERTEX
  8
0
 10
28.59827777
 20
0.25626478
  0
VERTEX
  8
0
 10
28.58559861
 20
0.25827228
  0
VERTEX
  8
0
 10
28.57197286
 20
0.25894790
  0
VERTEX
  8
0
 10
28.55834621
 20
0.25829099
  0
VERTEX
  8
0
 10
28.54566430
 20
0.25630090
  0
VERTEX
  8
0
 10
28.53392715
 20
0.25297763
  0
VERTEX
  8
0
 10
28.52313475
 20
0.24832118
  0
VERTEX
  8
0
 10
28.51356667
 20
0.24258927
  0
VERTEX
  8
0
 10
28.50515840
 20
0.23569597
  0
VERTEX
  8
0
 10
28.49790992
 20
0.22764128
  0
VERTEX
  8
0
 10
28.49182123
 20
0.21842520
  0
VERTEX
  8
0
 10
28.48699989
 20
0.20817662
  0
VERTEX
  8
0
 10
28.48355344
 20
0.19702441
  0
VERTEX
  8
0
 10
28.48148189
 20
0.18496857
  0
VERTEX
  8
0
 10
28.48078524
 20
0.17200911
  0
VERTEX
  8
0
 10
28.48078288
 20
0.16857032
  0
VERTEX
  8
0
 10
28.48146196
 20
0.15593230
  0
VERTEX
  8
0
 10
28.48351715
 20
0.14415303
  0
VERTEX
  8
0
 10
28.48694844
 20
0.13323251
  0
VERTEX
  8
0
 10
28.49175584
 20
0.12317075
  0
VERTEX
  8
0
 10
28.49783197
 20
0.11409677
  0
VERTEX
  8
0
 10
28.50506946
 20
0.10613960
  0
VERTEX
  8
0
 10
28.51346831
 20
0.09929924
  0
VERTEX
  8
0
 10
28.52302851
 20
0.09357569
  0
VERTEX
  8
0
 10
28.53381462
 20
0.08905487
  0
VERTEX
  8
0
 10
28.54554727
 20
0.08582295
  0
VERTEX
  8
0
 10
28.55822647
 20
0.08387993
  0
VERTEX
  8
0
 10
28.57185223
 20
0.08322580
  0
SEQEND
  0
POLYLINE
  8
Default_Layer
 62
256
 66
   1
 39
0.000000
 70
    1
  0
VERTEX
  8
0
 10
28.57201087
 20
0.31431240
  0
VERTEX
  8
0
 10
28.58430497
 20
0.31492724
  0
VERTEX
  8
0
 10
28.59574022
 20
0.31678923
  0
VERTEX
  8
0
 10
28.60631664
 20
0.31989838
  0
VERTEX
  8
0
 10
28.61603421
 20
0.32425467
  0
VERTEX
  8
0
 10
28.62478542
 20
0.32977222
  0
VERTEX
  8
0
 10
28.63246275
 20
0.33636513
  0
VERTEX
  8
0
 10
28.63906619
 20
0.34403340
  0
VERTEX
  8
0
 10
28.64459575
 20
0.35277702
  0
VERTEX
  8
0
 10
28.64896550
 20
0.36266055
  0
VERTEX
  8
0
 10
28.65208928
 20
0.37340462
  0
VERTEX
  8
0
 10
28.65396709
 20
0.38500925
  0
VERTEX
  8
0
 10
28.65459893
 20
0.39747443
  0
VERTEX
  8
0
 10
28.65460223
 20
0.40228874
  0
VERTEX
  8
0
 10
28.65398704
 20
0.41406702
  0
VERTEX
  8
0
 10
28.65212469
 20
0.42498645
  0
VERTEX
  8
0
 10
28.64901520
 20
0.43504705
  0
VERTEX
  8
0
 10
28.64465855
 20
0.44424880
  0
VERTEX
  8
0
 10
28.63914076
 20
0.45265614
  0
VERTEX
  8
0
 10
28.63254762
 20
0.45998958
  0
VERTEX
  8
0
 10
28.62487911
 20
0.46624915
  0
VERTEX
  8
0
 10
28.61613525
 20
0.47143483
  0
VERTEX
  8
0
 10
28.60642356
 20
0.47565401
  0
VERTEX
  8
0
 10
28.59585135
 20
0.47867021
  0
VERTEX
  8
0
 10
28.58441862
 20
0.48048343
  0
VERTEX
  8
0
 10
28.57212536
 20
0.48109366
  0
VERTEX
  8
0
 10
28.55998173
 20
0.48050020
  0
VERTEX
  8
0
 10
28.54865398
 20
0.47870261
  0
VERTEX
  8
0
 10
28.53814212
 20
0.47570089
  0
VERTEX
  8
0
 10
28.52844614
 20
0.47149503
  0
VERTEX
  8
0
 10
28.51969516
 20
0.46632136
  0
VERTEX
  8
0
 10
28.51201807
 20
0.46007233
  0
VERTEX
  8
0
 10
28.50541487
 20
0.45274794
  0
VERTEX
  8
0
 10
28.49988554
 20
0.44434819
  0
VERTEX
  8
0
 10
28.49551616
 20
0.43500198
  0
VERTEX
  8
0
 10
28.49239278
 20
0.42483820
  0
VERTEX
  8
0
 10
28.49051540
 20
0.41385685
  0
VERTEX
  8
0
 10
28.48988402
 20
0.40205794
  0
VERTEX
  8
0
 10
28.48988048
 20
0.39689975
  0
VERTEX
  8
0
 10
28.49049532
 20
0.38460565
  0
VERTEX
  8
0
 10
28.49235731
 20
0.37317040
  0
VERTEX
  8
0
 10
28.49546645
 20
0.36259398
  0
VERTEX
  8
0
 10
28.49982275
 20
0.35287641
  0
VERTEX
  8
0
 10
28.50534030
 20
0.34412520
  0
VERTEX
  8
0
 10
28.51193321
 20
0.33644787
  0
VERTEX
  8
0
 10
28.51960147
 20
0.32984443
  0
VERTEX
  8
0
 10
28.52834510
 20
0.32431487
  0
VERTEX
  8
0
 10
28.53803519
 20
0.31994525
  0
VERTEX
  8
0
 10
28.54854285
 20
0.31682164
  0
VERTEX
  8
0
 10
28.55986808
 20
0.31494402
  0
VERTEX
  8
0
 10
28.57201087
 20
0.31431240
  0
SEQEND
  0
POLYLINE
  8
Default_Layer
 62
256
 66
   1
 39
0.000000
 70
    1
  0
VERTEX
  8
0
 10
30.27470210
 20
0.02683332
  0
VERTEX
  8
0
 10
30.25434942
 20
0.02779296
  0
VERTEX
  8
0
 10
30.23524460
 20
0.03064308
  0
VERTEX
  8
0
 10
30.21738763
 20
0.03538367
  0
VERTEX
  8
0
 10
30.20077853
 20
0.04201475
  0
VERTEX
  8
0
 10
30.18556766
 20
0.05042873
  0
VERTEX
  8
0
 10
30.17190539
 20
0.06051807
  0
VERTEX
  8
0
 10
30.15979173
 20
0.07228275
  0
VERTEX
  8
0
 10
30.14922668
 20
0.08572278
  0
VERTEX
  8
0
 10
30.14048966
 20
0.10088094
  0
VERTEX
  8
0
 10
30.13351600
 20
0.11745640
  0
VERTEX
  8
0
 10
30.12830569
 20
0.13544915
  0
VERTEX
  8
0
 10
30.12485873
 20
0.15485919
  0
VERTEX
  8
0
 10
30.18572529
 20
0.15481741
  0
VERTEX
  8
0
 10
30.18795290
 20
0.14374727
  0
VERTEX
  8
0
 10
30.19121278
 20
0.13357911
  0
VERTEX
  8
0
 10
30.19550490
 20
0.12431292
  0
VERTEX
  8
0
 10
30.20082929
 20
0.11594871
  0
VERTEX
  8
0
 10
30.20709997
 20
0.10850802
  0
VERTEX
  8
0
 10
30.21423100
 20
0.10201240
  0
VERTEX
  8
0
 10
30.22222238
 20
0.09646187
  0
VERTEX
  8
0
 10
30.23107410
 20
0.09185641
  0
VERTEX
  8
0
 10
30.24089377
 20
0.08838939
  0
VERTEX
  8
0
 10
30.25144485
 20
0.08591051
  0
VERTEX
  8
0
 10
30.26272736
 20
0.08441979
  0
VERTEX
  8
0
 10
30.27474129
 20
0.08391722
  0
VERTEX
  8
0
 10
30.29354808
 20
0.08523684
  0
VERTEX
  8
0
 10
30.30209784
 20
0.08689663
  0
VERTEX
  8
0
 10
30.31007850
 20
0.08922308
  0
VERTEX
  8
0
 10
30.31749008
 20
0.09221619
  0
VERTEX
  8
0
 10
30.32433256
 20
0.09587595
  0
VERTEX
  8
0
 10
30.33060595
 20
0.10020237
  0
VERTEX
  8
0
 10
30.33631024
 20
0.10519545
  0
VERTEX
  8
0
 10
30.34147227
 20
0.11079069
  0
VERTEX
  8
0
 10
30.34594691
 20
0.11692371
  0
VERTEX
  8
0
 10
30.34973416
 20
0.12359451
  0
VERTEX
  8
0
 10
30.35283402
 20
0.13080309
  0
VERTEX
  8
0
 10
30.35524649
 20
0.13854946
  0
VERTEX
  8
0
 10
30.35697157
 20
0.14683361
  0
VERTEX
  8
0
 10
30.35835957
 20
0.16501526
  0
VERTEX
  8
0
 10
30.35836995
 20
0.18014593
  0
VERTEX
  8
0
 10
30.35707183
 20
0.19895271
  0
VERTEX
  8
0
 10
30.35543890
 20
0.20750245
  0
VERTEX
  8
0
 10
30.35315006
 20
0.21548309
  0
VERTEX
  8
0
 10
30.35020531
 20
0.22289463
  0
VERTEX
  8
0
 10
30.34660465
 20
0.22973707
  0
VERTEX
  8
0
 10
30.34234808
 20
0.23601041
  0
VERTEX
  8
0
 10
30.33743560
 20
0.24171465
  0
VERTEX
  8
0
 10
30.33192633
 20
0.24687662
  0
VERTEX
  8
0
 10
30.32587928
 20
0.25135120
  0
VERTEX
  8
0
 10
30.31929445
 20
0.25513839
  0
VERTEX
  8
0
 10
30.31217183
 20
0.25823819
  0
VERTEX
  8
0
 10
30.30451144
 20
0.26065060
  0
VERTEX
  8
0
 10
30.29631325
 20
0.26237563
  0
VERTEX
  8
0
 10
30.27830354
 20
0.26376351
  0
VERTEX
  8
0
 10
30.24288402
 20
0.26378782
  0
VERTEX
  8
0
 10
30.24292273
 20
0.32018396
  0
VERTEX
  8
0
 10
30.27834226
 20
0.32015964
  0
VERTEX
  8
0
 10
30.29454836
 20
0.32133060
  0
VERTEX
  8
0
 10
30.30877878
 20
0.32486708
  0
VERTEX
  8
0
 10
30.32103353
 20
0.33076909
  0
VERTEX
  8
0
 10
30.32642002
 20
0.33460717
  0
VERTEX
  8
0
 10
30.33131259
 20
0.33903662
  0
VERTEX
  8
0
 10
30.33574881
 20
0.34400371
  0
VERTEX
  8
0
 10
30.33959433
 20
0.34945477
  0
VERTEX
  8
0
 10
30.34551323
 20
0.36180886
  0
VERTEX
  8
0
 10
30.34906929
 20
0.37609889
  0
VERTEX
  8
0
 10
30.35026252
 20
0.39232487
  0
VERTEX
  8
0
 10
30.35027314
 20
0.40779941
  0
VERTEX
  8
0
 10
30.34903781
 20
0.42415601
  0
VERTEX
  8
0
 10
30.34530797
 20
0.43849403
  0
VERTEX
  8
0
 10
30.34250760
 20
0.44490607
  0
VERTEX
  8
0
 10
30.33908362
 20
0.45081347
  0
VERTEX
  8
0
 10
30.33503600
 20
0.45621622
  0
VERTEX
  8
0
 10
30.33036476
 20
0.46111433
  0
VERTEX
  8
0
 10
30.32520962
 20
0.46555069
  0
VERTEX
  8
0
 10
30.31953825
 20
0.46939635
  0
VERTEX
  8
0
 10
30.31335066
 20
0.47265133
  0
VERTEX
  8
0
 10
30.30664685
 20
0.47531562
  0
VERTEX
  8
0
 10
30.29169056
 20
0.47887214
  0
VERTEX
  8
0
 10
30.27466936
 20
0.48006591
  0
VERTEX
  8
0
 10
30.26476101
 20
0.47957839
  0
VERTEX
  8
0
 10
30.25532482
 20
0.47810189
  0
VERTEX
  8
0
 10
30.24636078
 20
0.47563641
  0
VERTEX
  8
0
 10
30.23786889
 20
0.47218196
  0
VERTEX
  8
0
 10
30.23008570
 20
0.46791031
  0
VERTEX
  8
0
 10
30.22290361
 20
0.46264959
  0
VERTEX
  8
0
 10
30.21632263
 20
0.45639981
  0
VERTEX
  8
0
 10
30.21034277
 20
0.44916096
  0
VERTEX
  8
0
 10
30.20505002
 20
0.44099747
  0
VERTEX
  8
0
 10
30.20053042
 20
0.43197374
  0
VERTEX
  8
0
 10
30.19678395
 20
0.42208979
  0
VERTEX
  8
0
 10
30.19381061
 20
0.41134562
  0
VERTEX
  8
0
 10
30.13328793
 20
0.41138716
  0
VERTEX
  8
0
 10
30.13749204
 20
0.43044807
  0
VERTEX
  8
0
 10
30.14319965
 20
0.44808945
  0
VERTEX
  8
0
 10
30.15041075
 20
0.46431129
  0
VERTEX
  8
0
 10
30.15912535
 20
0.47911360
  0
VERTEX
  8
0
 10
30.16938645
 20
0.49251783
  0
VERTEX
  8
0
 10
30.18089292
 20
0.50420182
  0
VERTEX
  8
0
 10
30.19364478
 20
0.51416556
  0
VERTEX
  8
0
 10
30.20764202
 20
0.52240905
  0
VERTEX
  8
0
 10
30.22292758
 20
0.52886778
  0
VERTEX
  8
0
 10
30.23920052
 20
0.53347748
  0
VERTEX
  8
0
 10
30.25646084
 20
0.53623816
  0
VERTEX
  8
0
 10
30.27470855
 20
0.53714981
  0
VERTEX
  8
0
 10
30.29041378
 20
0.53660709
  0
VERTEX
  8
0
 10
30.30520485
 20
0.53500112
  0
VERTEX
  8
0
 10
30.31908176
 20
0.53233190
  0
VERTEX
  8
0
 10
30.33204451
 20
0.52859944
  0
VERTEX
  8
0
 10
30.34409310
 20
0.52380373
  0
VERTEX
  8
0
 10
30.35522754
 20
0.51794477
  0
VERTEX
  8
0
 10
30.36544781
 20
0.51102256
  0
VERTEX
  8
0
 10
30.37475393
 20
0.50303710
  0
VERTEX
  8
0
 10
30.38304924
 20
0.49408518
  0
VERTEX
  8
0
 10
30.39023709
 20
0.48426357
  0
VERTEX
  8
0
 10
30.39631749
 20
0.47357228
  0
VERTEX
  8
0
 10
30.40129042
 20
0.46201131
  0
VERTEX
  8
0
 10
30.40515590
 20
0.44958065
  0
VERTEX
  8
0
 10
30.40791392
 20
0.43628031
  0
VERTEX
  8
0
 10
30.40956449
 20
0.42211029
  0
VERTEX
  8
0
 10
30.41010759
 20
0.40707058
  0
VERTEX
  8
0
 10
30.41009957
 20
0.39537870
  0
VERTEX
  8
0
 10
30.40892696
 20
0.37788466
  0
VERTEX
  8
0
 10
30.40543395
 20
0.36150982
  0
VERTEX
  8
0
 10
30.39962052
 20
0.34625418
  0
VERTEX
  8
0
 10
30.39148667
 20
0.33211773
  0
VERTEX
  8
0
 10
30.38137664
 20
0.31961607
  0
VERTEX
  8
0
 10
30.36929055
 20
0.30892114
  0
VERTEX
  8
0
 10
30.35522839
 20
0.30003292
  0
VERTEX
  8
0
 10
30.33919017
 20
0.29295143
  0
VERTEX
  8
0
 10
30.34837647
 20
0.29045200
  0
VERTEX
  8
0
 10
30.35702499
 20
0.28726518
  0
VERTEX
  8
0
 10
30.36513573
 20
0.28339097
  0
VERTEX
  8
0
 10
30.37270868
 20
0.27882937
  0
VERTEX
  8
0
 10
30.37974385
 20
0.27358039
  0
VERTEX
  8
0
 10
30.38624124
 20
0.26764402
  0
VERTEX
  8
0
 10
30.39220084
 20
0.26102025
  0
VERTEX
  8
0
 10
30.39762266
 20
0.25370910
  0
VERTEX
  8
0
 10
30.40245309
 20
0.24587716
  0
VERTEX
  8
0
 10
30.40663838
 20
0.23751911
  0
VERTEX
  8
0
 10
30.41017853
 20
0.22863492
  0
VERTEX
  8
0
 10
30.41307355
 20
0.21922462
  0
VERTEX
  8
0
 10
30.41692818
 20
0.19882565
  0
VERTEX
  8
0
 10
30.41820228
 20
0.17632219
  0
VERTEX
  8
0
 10
30.41819426
 20
0.16463031
  0
VERTEX
  8
0
 10
30.41712668
 20
0.14358994
  0
VERTEX
  8
0
 10
30.41395394
 20
0.12414146
  0
VERTEX
  8
0
 10
30.40867604
 20
0.10628487
  0
VERTEX
  8
0
 10
30.40129296
 20
0.09002016
  0
VERTEX
  8
0
 10
30.39189078
 20
0.07547623
  0
VERTEX
  8
0
 10
30.38055555
 20
0.06278198
  0
VERTEX
  8
0
 10
30.36728727
 20
0.05193741
  0
VERTEX
  8
0
 10
30.35208594
 20
0.04294251
  0
VERTEX
  8
0
 10
30.33525252
 20
0.03588306
  0
VERTEX
  8
0
 10
30.31674407
 20
0.03084504
  0
VERTEX
  8
0
 10
30.29656060
 20
0.02782846
  0
VERTEX
  8
0
 10
30.27470210
 20
0.02683332
  0
SEQEND
  0
POLYLINE
  8
Default_Layer
 62
256
 66
   1
 39
0.000000
 70
    1
  0
VERTEX
  8
0
 10
30.66053429
 20
0.02682966
  0
VERTEX
  8
0
 10
30.64352343
 20
0.02742701
  0
VERTEX
  8
0
 10
30.62756651
 20
0.02919497
  0
VERTEX
  8
0
 10
30.61266352
 20
0.03213355
  0
VERTEX
  8
0
 10
30.59881446
 20
0.03624274
  0
VERTEX
  8
0
 10
30.58601934
 20
0.04152254
  0
VERTEX
  8
0
 10
30.57427815
 20
0.04797296
  0
VERTEX
  8
0
 10
30.56359089
 20
0.05559399
  0
VERTEX
  8
0
 10
30.55395757
 20
0.06438564
  0
VERTEX
  8
0
 10
30.54550167
 20
0.07422424
  0
VERTEX
  8
0
 10
30.53817477
 20
0.08498623
  0
VERTEX
  8
0
 10
30.53197685
 20
0.09667163
  0
VERTEX
  8
0
 10
30.52690791
 20
0.10928043
  0
VERTEX
  8
0
 10
30.52296797
 20
0.12281262
  0
VERTEX
  8
0
 10
30.52015701
 20
0.13726822
  0
VERTEX
  8
0
 10
30.51847504
 20
0.15264721
  0
VERTEX
  8
0
 10
30.51792205
 20
0.16894961
  0
VERTEX
  8
0
 10
30.51807809
 20
0.39625354
  0
VERTEX
  8
0
 10
30.51865889
 20
0.41263038
  0
VERTEX
  8
0
 10
30.52037813
 20
0.42806077
  0
VERTEX
  8
0
 10
30.52323582
 20
0.44254472
  0
VERTEX
  8
0
 10
30.52723196
 20
0.45608221
  0
VERTEX
  8
0
 10
30.53236655
 20
0.46867326
  0
VERTEX
  8
0
 10
30.53863959
 20
0.48031785
  0
VERTEX
  8
0
 10
30.54605108
 20
0.49101600
  0
VERTEX
  8
0
 10
30.55460102
 20
0.50076770
  0
VERTEX
  8
0
 10
30.56424103
 20
0.50954611
  0
VERTEX
  8
0
 10
30.57492262
 20
0.51715248
  0
VERTEX
  8
0
 10
30.58664579
 20
0.52358679
  0
VERTEX
  8
0
 10
30.59941054
 20
0.52884905
  0
VERTEX
  8
0
 10
30.61321687
 20
0.53293925
  0
VERTEX
  8
0
 10
30.62806477
 20
0.53585740
  0
VERTEX
  8
0
 10
30.64395426
 20
0.53760350
  0
VERTEX
  8
0
 10
30.66088532
 20
0.53817755
  0
VERTEX
  8
0
 10
30.67789081
 20
0.53758558
  0
VERTEX
  8
0
 10
30.69383162
 20
0.53583375
  0
VERTEX
  8
0
 10
30.70870777
 20
0.53292206
  0
VERTEX
  8
0
 10
30.72251924
 20
0.52885050
  0
VERTEX
  8
0
 10
30.73526604
 20
0.52361909
  0
VERTEX
  8
0
 10
30.74694816
 20
0.51722782
  0
VERTEX
  8
0
 10
30.75756562
 20
0.50967668
  0
VERTEX
  8
0
 10
30.76711840
 20
0.50096568
  0
VERTEX
  8
0
 10
30.77565494
 20
0.49119688
  0
VERTEX
  8
0
 10
30.78305172
 20
0.48047245
  0
VERTEX
  8
0
 10
30.78930875
 20
0.46879239
  0
VERTEX
  8
0
 10
30.79442602
 20
0.45615669
  0
VERTEX
  8
0
 10
30.79840354
 20
0.44256537
  0
VERTEX
  8
0
 10
30.80124130
 20
0.42801841
  0
VERTEX
  8
0
 10
30.80293931
 20
0.41251582
  0
VERTEX
  8
0
 10
30.80349756
 20
0.39605760
  0
VERTEX
  8
0
 10
30.80334152
 20
0.16875367
  0
VERTEX
  8
0
 10
30.80276072
 20
0.15237146
  0
VERTEX
  8
0
 10
30.80104147
 20
0.13692494
  0
VERTEX
  8
0
 10
30.79818376
 20
0.12241414
  0
VERTEX
  8
0
 10
30.79418759
 20
0.10883903
  0
VERTEX
  8
0
 10
30.78905297
 20
0.09619963
  0
VERTEX
  8
0
 10
30.78277989
 20
0.08449593
  0
VERTEX
  8
0
 10
30.77536835
 20
0.07372793
  0
VERTEX
  8
0
 10
30.76681835
 20
0.06389564
  0
VERTEX
  8
0
 10
30.75717840
 20
0.05519782
  0
VERTEX
  8
0
 10
30.74649685
 20
0.04766130
  0
VERTEX
  8
0
 10
30.73477372
 20
0.04128610
  0
VERTEX
  8
0
 10
30.72200901
 20
0.03607220
  0
VERTEX
  8
0
 10
30.70820271
 20
0.03201960
  0
VERTEX
  8
0
 10
30.69335482
 20
0.02912832
  0
VERTEX
  8
0
 10
30.67746535
 20
0.02739834
  0
VERTEX
  8
0
 10
30.66053429
 20
0.02682966
  0
SEQEND
  0
POLYLINE
  8
Default_Layer
 62
256
 66
   1
 39
0.000000
 70
    1
  0
VERTEX
  8
0
 10
30.66057300
 20
0.08322580
  0
VERTEX
  8
0
 10
30.68047594
 20
0.08458765
  0
VERTEX
  8
0
 10
30.68936424
 20
0.08630094
  0
VERTEX
  8
0
 10
30.69754376
 20
0.08870248
  0
VERTEX
  8
0
 10
30.70501450
 20
0.09179227
  0
VERTEX
  8
0
 10
30.71177647
 20
0.09557029
  0
VERTEX
  8
0
 10
30.71782966
 20
0.10003656
  0
VERTEX
  8
0
 10
30.72317407
 20
0.10519108
  0
VERTEX
  8
0
 10
30.72793330
 20
0.11107137
  0
VERTEX
  8
0
 10
30.73205892
 20
0.11754314
  0
VERTEX
  8
0
 10
30.73555092
 20
0.12460638
  0
VERTEX
  8
0
 10
30.73840930
 20
0.13226110
  0
VERTEX
  8
0
 10
30.74222519
 20
0.14934497
  0
VERTEX
  8
0
 10
30.74350659
 20
0.16879475
  0
VERTEX
  8
0
 10
30.74366263
 20
0.39609868
  0
VERTEX
  8
0
 10
30.74240802
 20
0.41567915
  0
VERTEX
  8
0
 10
30.74082905
 20
0.42455124
  0
VERTEX
  8
0
 10
30.73861562
 20
0.43281123
  0
VERTEX
  8
0
 10
30.73576775
 20
0.44045912
  0
VERTEX
  8
0
 10
30.73228543
 20
0.44749491
  0
VERTEX
  8
0
 10
30.72816867
 20
0.45391861
  0
VERTEX
  8
0
 10
30.72341745
 20
0.45973020
  0
VERTEX
  8
0
 10
30.71808013
 20
0.46489205
  0
VERTEX
  8
0
 10
30.71203308
 20
0.46936663
  0
VERTEX
  8
0
 10
30.70527630
 20
0.47315394
  0
VERTEX
  8
0
 10
30.69780981
 20
0.47625397
  0
VERTEX
  8
0
 10
30.68963359
 20
0.47866674
  0
VERTEX
  8
0
 10
30.68074765
 20
0.48039223
  0
VERTEX
  8
0
 10
30.66084661
 20
0.48178141
  0
VERTEX
  8
0
 10
30.64092218
 20
0.48041957
  0
VERTEX
  8
0
 10
30.63200702
 20
0.47870630
  0
VERTEX
  8
0
 10
30.62378988
 20
0.47630479
  0
VERTEX
  8
0
 10
30.61627078
 20
0.47321504
  0
VERTEX
  8
0
 10
30.60944971
 20
0.46943705
  0
VERTEX
  8
0
 10
30.60332667
 20
0.46497083
  0
VERTEX
  8
0
 10
30.59790166
 20
0.45981637
  0
VERTEX
  8
0
 10
30.59322307
 20
0.45401125
  0
VERTEX
  8
0
 10
30.58916734
 20
0.44759316
  0
VERTEX
  8
0
 10
30.58573447
 20
0.44056212
  0
VERTEX
  8
0
 10
30.58292446
 20
0.43291811
  0
VERTEX
  8
0
 10
30.57917302
 20
0.41579121
  0
VERTEX
  8
0
 10
30.57791302
 20
0.39621247
  0
VERTEX
  8
0
 10
30.57775697
 20
0.16890853
  0
VERTEX
  8
0
 10
30.57901168
 20
0.14945701
  0
VERTEX
  8
0
 10
30.58280411
 20
0.13236792
  0
VERTEX
  8
0
 10
30.58565197
 20
0.12470928
  0
VERTEX
  8
0
 10
30.58913427
 20
0.11764125
  0
VERTEX
  8
0
 10
30.59325099
 20
0.11116383
  0
VERTEX
  8
0
 10
30.59800216
 20
0.10527701
  0
VERTEX
  8
0
 10
30.60341471
 20
0.10011511
  0
VERTEX
  8
0
 10
30.60951549
 20
0.09564049
  0
VERTEX
  8
0
 10
30.61630450
 20
0.09185316
  0
VERTEX
  8
0
 10
30.62378174
 20
0.08875312
  0
VERTEX
  8
0
 10
30.63194721
 20
0.08634036
  0
VERTEX
  8
0
 10
30.64080091
 20
0.08461489
  0
VERTEX
  8
0
 10
30.66057300
 20
0.08322580
  0
SEQEND
  0
ENDSEC
  0
EOF
