  0
SECTION
  2
HEADER
  9
$ACADVER
  1
AC1032
  9
$ACADMAINTVER
 90
      197
  9
$DWGCODEPAGE
  3
ANSI_1252
  9
$REQUIREDVERSIONS
160
                 0
  9
$INSBASE
 10
0.0
 20
0.0
 30
0.0
  9
$EXTMIN
 10
1.000000000000000E+20
 20
1.000000000000000E+20
 30
1.000000000000000E+20
  9
$EXTMAX
 10
-1.000000000000000E+20
 20
-1.000000000000000E+20
 30
-1.000000000000000E+20
  9
$LIMMIN
 10
0.0
 20
0.0
  9
$LIMMAX
 10
12.0
 20
9.0
  9
$ORTHOMODE
 70
     0
  9
$REGENMODE
 70
     1
  9
$FILLMODE
 70
     1
  9
$QTEXTMODE
 70
     0
  9
$MIRRTEXT
 70
     0
  9
$LTSCALE
 40
1.0
  9
$ATTMODE
 70
     1
  9
$TEXTSIZE
 40
0.2
  9
$TRACEWID
 40
0.05
  9
$TEXTSTYLE
  7
Standard
  9
$CLAYER
  8
0
  9
$CELTYPE
  6
ByLayer
  9
$CECOLOR
 62
   256
  9
$CELTSCALE
 40
1.0
  9
$DISPSILH
 70
     0
  9
$DIMSCALE
 40
1.0
  9
$DIMASZ
 40
0.18
  9
$DIMEXO
 40
0.0625
  9
$DIMDLI
 40
0.38
  9
$DIMRND
 40
0.0
  9
$DIMDLE
 40
0.0
  9
$DIMEXE
 40
0.18
  9
$DIMTP
 40
0.0
  9
$DIMTM
 40
0.0
  9
$DIMTXT
 40
0.18
  9
$DIMCEN
 40
0.09
  9
$DIMTSZ
 40
0.0
  9
$DIMTOL
 70
     0
  9
$DIMLIM
 70
     0
  9
$DIMTIH
 70
     1
  9
$DIMTOH
 70
     1
  9
$DIMSE1
 70
     0
  9
$DIMSE2
 70
     0
  9
$DIMTAD
 70
     0
  9
$DIMZIN
 70
     0
  9
$DIMBLK
  1

  9
$DIMASO
 70
     1
  9
$DIMSHO
 70
     1
  9
$DIMPOST
  1

  9
$DIMAPOST
  1

  9
$DIMALT
 70
     0
  9
$DIMALTD
 70
     2
  9
$DIMALTF
 40
25.4
  9
$DIMLFAC
 40
1.0
  9
$DIMTOFL
 70
     0
  9
$DIMTVP
 40
0.0
  9
$DIMTIX
 70
     0
  9
$DIMSOXD
 70
     0
  9
$DIMSAH
 70
     0
  9
$DIMBLK1
  1

  9
$DIMBLK2
  1

  9
$DIMSTYLE
  2
Standard
  9
$DIMCLRD
 70
     0
  9
$DIMCLRE
 70
     0
  9
$DIMCLRT
 70
     0
  9
$DIMTFAC
 40
1.0
  9
$DIMGAP
 40
0.09
  9
$DIMJUST
 70
     0
  9
$DIMSD1
 70
     0
  9
$DIMSD2
 70
     0
  9
$DIMTOLJ
 70
     1
  9
$DIMTZIN
 70
     0
  9
$DIMALTZ
 70
     0
  9
$DIMALTTZ
 70
     0
  9
$DIMUPT
 70
     0
  9
$DIMDEC
 70
     4
  9
$DIMTDEC
 70
     4
  9
$DIMALTU
 70
     2
  9
$DIMALTTD
 70
     2
  9
$DIMTXSTY
  7
Standard
  9
$DIMAUNIT
 70
     0
  9
$DIMADEC
 70
     0
  9
$DIMALTRND
 40
0.0
  9
$DIMAZIN
 70
     0
  9
$DIMDSEP
 70
    46
  9
$DIMATFIT
 70
     3
  9
$DIMFRAC
 70
     0
  9
$DIMLDRBLK
  1

  9
$DIMLUNIT
 70
     2
  9
$DIMLWD
 70
    -2
  9
$DIMLWE
 70
    -2
  9
$DIMTMOVE
 70
     0
  9
$DIMFXL
 40
1.0
  9
$DIMFXLON
 70
     0
  9
$DIMJOGANG
 40
0.7853981633974483
  9
$DIMTFILL
 70
     0
  9
$DIMTFILLCLR
 70
     0
  9
$DIMARCSYM
 70
     0
  9
$DIMLTYPE
  6

  9
$DIMLTEX1
  6

  9
$DIMLTEX2
  6

  9
$DIMTXTDIRECTION
 70
     0
  9
$LUNITS
 70
     2
  9
$LUPREC
 70
     4
  9
$SKETCHINC
 40
0.1
  9
$FILLETRAD
 40
0.0
  9
$AUNITS
 70
     0
  9
$AUPREC
 70
     0
  9
$MENU
  1
.
  9
$ELEVATION
 40
0.0
  9
$PELEVATION
 40
0.0
  9
$THICKNESS
 40
0.0
  9
$LIMCHECK
 70
     0
  9
$CHAMFERA
 40
0.0
  9
$CHAMFERB
 40
0.0
  9
$CHAMFERC
 40
0.0
  9
$CHAMFERD
 40
0.0
  9
$SKPOLY
 70
     0
  9
$TDCREATE
 40
2459567.555810185
  9
$TDUCREATE
 40
2459567.889143519
  9
$TDUPDATE
 40
2459567.555810185
  9
$TDUUPDATE
 40
2459567.889143519
  9
$TDINDWG
 40
0.0000000000
  9
$TDUSRTIMER
 40
0.0000000000
  9
$USRTIMER
 70
     1
  9
$ANGBASE
 50
0.0
  9
$ANGDIR
 70
     0
  9
$PDMODE
 70
     0
  9
$PDSIZE
 40
0.0
  9
$PLINEWID
 40
0.0
  9
$SPLFRAME
 70
     0
  9
$SPLINETYPE
 70
     6
  9
$SPLINESEGS
 70
     8
  9
$HANDSEED
  5
A6
  9
$SURFTAB1
 70
     6
  9
$SURFTAB2
 70
     6
  9
$SURFTYPE
 70
     6
  9
$SURFU
 70
     6
  9
$SURFV
 70
     6
  9
$UCSBASE
  2

  9
$UCSNAME
  2

  9
$UCSORG
 10
0.0
 20
0.0
 30
0.0
  9
$UCSXDIR
 10
1.0
 20
0.0
 30
0.0
  9
$UCSYDIR
 10
0.0
 20
1.0
 30
0.0
  9
$UCSORTHOREF
  2

  9
$UCSORTHOVIEW
 70
     0
  9
$UCSORGTOP
 10
0.0
 20
0.0
 30
0.0
  9
$UCSORGBOTTOM
 10
0.0
 20
0.0
 30
0.0
  9
$UCSORGLEFT
 10
0.0
 20
0.0
 30
0.0
  9
$UCSORGRIGHT
 10
0.0
 20
0.0
 30
0.0
  9
$UCSORGFRONT
 10
0.0
 20
0.0
 30
0.0
  9
$UCSORGBACK
 10
0.0
 20
0.0
 30
0.0
  9
$PUCSBASE
  2

  9
$PUCSNAME
  2

  9
$PUCSORG
 10
0.0
 20
0.0
 30
0.0
  9
$PUCSXDIR
 10
1.0
 20
0.0
 30
0.0
  9
$PUCSYDIR
 10
0.0
 20
1.0
 30
0.0
  9
$PUCSORTHOREF
  2

  9
$PUCSORTHOVIEW
 70
     0
  9
$PUCSORGTOP
 10
0.0
 20
0.0
 30
0.0
  9
$PUCSORGBOTTOM
 10
0.0
 20
0.0
 30
0.0
  9
$PUCSORGLEFT
 10
0.0
 20
0.0
 30
0.0
  9
$PUCSORGRIGHT
 10
0.0
 20
0.0
 30
0.0
  9
$PUCSORGFRONT
 10
0.0
 20
0.0
 30
0.0
  9
$PUCSORGBACK
 10
0.0
 20
0.0
 30
0.0
  9
$USERI1
 70
     0
  9
$USERI2
 70
     0
  9
$USERI3
 70
     0
  9
$USERI4
 70
     0
  9
$USERI5
 70
     0
  9
$USERR1
 40
0.0
  9
$USERR2
 40
0.0
  9
$USERR3
 40
0.0
  9
$USERR4
 40
0.0
  9
$USERR5
 40
0.0
  9
$WORLDVIEW
 70
     1
  9
$SHADEDGE
 70
     3
  9
$SHADEDIF
 70
    70
  9
$TILEMODE
 70
     1
  9
$MAXACTVP
 70
    64
  9
$PINSBASE
 10
0.0
 20
0.0
 30
0.0
  9
$PLIMCHECK
 70
     0
  9
$PEXTMIN
 10
1.000000000000000E+20
 20
1.000000000000000E+20
 30
1.000000000000000E+20
  9
$PEXTMAX
 10
-1.000000000000000E+20
 20
-1.000000000000000E+20
 30
-1.000000000000000E+20
  9
$PLIMMIN
 10
0.0
 20
0.0
  9
$PLIMMAX
 10
12.0
 20
9.0
  9
$UNITMODE
 70
     0
  9
$VISRETAIN
 70
     1
  9
$PLINEGEN
 70
     0
  9
$PSLTSCALE
 70
     1
  9
$TREEDEPTH
 70
  3020
  9
$CMLSTYLE
  2
Standard
  9
$CMLJUST
 70
     0
  9
$CMLSCALE
 40
1.0
  9
$PROXYGRAPHICS
 70
     1
  9
$MEASUREMENT
 70
     0
  9
$CELWEIGHT
370
    -1
  9
$ENDCAPS
280
     0
  9
$JOINSTYLE
280
     0
  9
$LWDISPLAY
290
     1
  9
$INSUNITS
 70
     1
  9
$HYPERLINKBASE
  1

  9
$STYLESHEET
  1

  9
$XEDIT
290
     1
  9
$CEPSNTYPE
380
     0
  9
$PSTYLEMODE
290
     1
  9
$FINGERPRINTGUID
  2
{36EC269A-C3B8-A948-9D22-3DBC73E74764}
  9
$VERSIONGUID
  2
{5D7B96C5-3A4E-5A46-A994-50296D80B9D4}
  9
$EXTNAMES
290
     1
  9
$PSVPSCALE
 40
0.0
  9
$OLESTARTUP
290
     0
  9
$SORTENTS
280
   127
  9
$INDEXCTL
280
     0
  9
$HIDETEXT
280
     1
  9
$XCLIPFRAME
280
     2
  9
$HALOGAP
280
     0
  9
$OBSCOLOR
 70
   257
  9
$OBSLTYPE
280
     0
  9
$INTERSECTIONDISPLAY
280
     0
  9
$INTERSECTIONCOLOR
 70
   257
  9
$DIMASSOC
280
     2
  9
$PROJECTNAME
  1

  9
$CAMERADISPLAY
290
     0
  9
$LENSLENGTH
 40
50.0
  9
$CAMERAHEIGHT
 40
0.0
  9
$STEPSPERSEC
 40
2.0
  9
$STEPSIZE
 40
6.0
  9
$3DDWFPREC
 40
2.0
  9
$PSOLWIDTH
 40
0.25
  9
$PSOLHEIGHT
 40
4.0
  9
$LOFTANG1
 40
1.570796326794896
  9
$LOFTANG2
 40
1.570796326794896
  9
$LOFTMAG1
 40
0.0
  9
$LOFTMAG2
 40
0.0
  9
$LOFTPARAM
 70
     7
  9
$LOFTNORMALS
280
     1
  9
$LATITUDE
 40
37.795
  9
$LONGITUDE
 40
-122.394
  9
$NORTHDIRECTION
 40
0.0
  9
$TIMEZONE
 70
 -8000
  9
$LIGHTGLYPHDISPLAY
280
     1
  9
$TILEMODELIGHTSYNCH
280
     1
  9
$CMATERIAL
347
11
  9
$SOLIDHIST
280
     0
  9
$SHOWHIST
280
     1
  9
$DWFFRAME
280
     2
  9
$DGNFRAME
280
     0
  9
$REALWORLDSCALE
290
     1
  9
$INTERFERECOLOR
 62
     1
  9
$INTERFEREOBJVS
345
33
  9
$INTERFEREVPVS
346
30
  9
$CSHADOW
280
     0
  9
$SHADOWPLANELOCATION
 40
0.0
  0
ENDSEC
  0
SECTION
  2
CLASSES
  0
CLASS
  1
ACDBDICTIONARYWDFLT
  2
AcDbDictionaryWithDefault
  3
ObjectDBX Classes
 90
        0
 91
        1
280
     0
281
     0
  0
CLASS
  1
MATERIAL
  2
AcDbMaterial
  3
ObjectDBX Classes
 90
     1153
 91
        3
280
     0
281
     0
  0
CLASS
  1
VISUALSTYLE
  2
AcDbVisualStyle
  3
ObjectDBX Classes
 90
     4095
 91
       24
280
     0
281
     0
  0
CLASS
  1
SCALE
  2
AcDbScale
  3
ObjectDBX Classes
 90
     1153
 91
       17
280
     0
281
     0
  0
CLASS
  1
TABLESTYLE
  2
AcDbTableStyle
  3
ObjectDBX Classes
 90
     4095
 91
        1
280
     0
281
     0
  0
CLASS
  1
MLEADERSTYLE
  2
AcDbMLeaderStyle
  3
ACDB_MLEADERSTYLE_CLASS
 90
     4095
 91
        1
280
     0
281
     0
  0
CLASS
  1
ACDBSECTIONVIEWSTYLE
  2
AcDbSectionViewStyle
  3
ObjectDBX Classes
 90
     1025
 91
        1
280
     0
281
     0
  0
CLASS
  1
ACDBDETAILVIEWSTYLE
  2
AcDbDetailViewStyle
  3
ObjectDBX Classes
 90
     1025
 91
        1
280
     0
281
     0
  0
CLASS
  1
DICTIONARYVAR
  2
AcDbDictionaryVar
  3
ObjectDBX Classes
 90
        0
 91
        5
280
     0
281
     0
  0
CLASS
  1
CELLSTYLEMAP
  2
AcDbCellStyleMap
  3
ObjectDBX Classes
 90
     1152
 91
        1
280
     0
281
     0
  0
ENDSEC
  0
SECTION
  2
TABLES
  0
TABLE
  2
VPORT
  5
8
330
0
100
AcDbSymbolTable
 70
     1
  0
VPORT
  5
57
330
8
100
AcDbSymbolTableRecord
100
AcDbViewportTableRecord
  2
*Active
 70
     0
 10
0.0
 20
0.0
 11
1.0
 21
1.0
 12
0.0
 22
0.0
 13
0.0
 23
0.0
 14
1.0
 24
1.0
 15
0.0
 25
0.0
 16
0.0
 26
0.0
 36
1.0
 17
5.5
 27
4.25
 37
0.0
 40
8.669999999999999
 41
1.294117647058823
 42
50.0
 43
0.0
 44
0.0
 50
0.0
 51
0.0
 71
     0
 72
   100
 73
     1
 74
     1
 75
     0
 76
     0
 77
     0
 78
     0
281
     0
 65
     1
110
0.0
120
0.0
130
0.0
111
1.0
121
0.0
131
0.0
112
0.0
122
1.0
132
0.0
 79
     0
146
0.0
 60
     3
 61
     5
292
     1
282
     1
141
0.0
142
0.0
 63
   250
421
  3355443
  0
ENDTAB
  0
TABLE
  2
LTYPE
  5
5
330
0
100
AcDbSymbolTable
 70
     1
  0
LTYPE
  5
5B
330
5
100
AcDbSymbolTableRecord
100
AcDbLinetypeTableRecord
  2
ByBlock
 70
     0
  3

 72
    65
 73
     0
 40
0.0
  0
LTYPE
  5
5C
330
5
100
AcDbSymbolTableRecord
100
AcDbLinetypeTableRecord
  2
ByLayer
 70
     0
  3

 72
    65
 73
     0
 40
0.0
  0
LTYPE
  5
5D
330
5
100
AcDbSymbolTableRecord
100
AcDbLinetypeTableRecord
  2
Continuous
 70
     0
  3
Solid line
 72
    65
 73
     0
 40
0.0
  0
ENDTAB
  0
TABLE
  2
LAYER
  5
2
330
0
100
AcDbSymbolTable
 70
     2
  0
LAYER
  5
54
330
2
100
AcDbSymbolTableRecord
100
AcDbLayerTableRecord
  2
0
 70
     0
 62
     7
  6
Continuous
370
    -3
390
F
347
21
348
0
  0
LAYER
  5
78
330
2
100
AcDbSymbolTableRecord
100
AcDbLayerTableRecord
  2
Layer 1
 70
     0
 62
     7
  6
Continuous
370
     0
390
F
347
21
348
0
  0
ENDTAB
  0
TABLE
  2
STYLE
  5
3
330
0
100
AcDbSymbolTable
 70
     2
  0
STYLE
  5
55
330
3
100
AcDbSymbolTableRecord
100
AcDbTextStyleTableRecord
  2
Standard
 70
     0
 40
0.0
 41
1.0
 50
0.0
 71
     0
 42
0.2
  3
txt
  4

  0
STYLE
  5
5A
330
3
100
AcDbSymbolTableRecord
100
AcDbTextStyleTableRecord
  2
Annotative
 70
     0
 40
0.0
 41
1.0
 50
0.0
 71
     0
 42
0.2
  3
txt
  4

1001
AcadAnnotative
1000
AnnotativeData
1002
{
1070
     1
1070
     1
1002
}
  0
ENDTAB
  0
TABLE
  2
VIEW
  5
6
330
0
100
AcDbSymbolTable
 70
     0
  0
ENDTAB
  0
TABLE
  2
UCS
  5
7
330
0
100
AcDbSymbolTable
 70
     0
  0
ENDTAB
  0
TABLE
  2
APPID
  5
9
330
0
100
AcDbSymbolTable
 70
     2
  0
APPID
  5
56
330
9
100
AcDbSymbolTableRecord
100
AcDbRegAppTableRecord
  2
ACAD
 70
     0
  0
APPID
  5
5E
330
9
100
AcDbSymbolTableRecord
100
AcDbRegAppTableRecord
  2
AcadAnnotative
 70
     0
  0
ENDTAB
  0
TABLE
  2
DIMSTYLE
  5
A
330
0
100
AcDbSymbolTable
 70
     2
100
AcDbDimStyleTable
 71
     0
  0
DIMSTYLE
105
58
330
A
100
AcDbSymbolTableRecord
100
AcDbDimStyleTableRecord
  2
Standard
 70
     0
340
55
  0
DIMSTYLE
105
59
330
A
100
AcDbSymbolTableRecord
100
AcDbDimStyleTableRecord
  2
Annotative
 70
     0
340
55
1001
AcadAnnotative
1000
AnnotativeData
1002
{
1070
     1
1070
     1
1002
}
  0
ENDTAB
  0
TABLE
  2
BLOCK_RECORD
  5
1
330
0
100
AcDbSymbolTable
 70
     1
  0
BLOCK_RECORD
  5
70
330
1
100
AcDbSymbolTableRecord
100
AcDbBlockTableRecord
  2
*Model_Space
340
73
 70
     0
280
     1
281
     0
  0
BLOCK_RECORD
  5
6C
330
1
100
AcDbSymbolTableRecord
100
AcDbBlockTableRecord
  2
*Paper_Space
340
6F
 70
     0
280
     1
281
     0
  0
BLOCK_RECORD
  5
74
330
1
100
AcDbSymbolTableRecord
100
AcDbBlockTableRecord
  2
*Paper_Space0
340
77
 70
     0
280
     1
281
     0
  0
ENDTAB
  0
ENDSEC
  0
SECTION
  2
BLOCKS
  0
BLOCK
  5
71
330
70
100
AcDbEntity
  8
0
100
AcDbBlockBegin
  2
*Model_Space
 70
     0
 10
0.0
 20
0.0
 30
0.0
  3
*Model_Space
  1

  0
ENDBLK
  5
72
330
70
100
AcDbEntity
  8
0
100
AcDbBlockEnd
  0
BLOCK
  5
6D
330
6C
100
AcDbEntity
 67
     1
  8
0
100
AcDbBlockBegin
  2
*Paper_Space
 70
     0
 10
0.0
 20
0.0
 30
0.0
  3
*Paper_Space
  1

  0
ENDBLK
  5
6E
330
6C
100
AcDbEntity
 67
     1
  8
0
100
AcDbBlockEnd
  0
BLOCK
  5
75
330
74
100
AcDbEntity
 67
     1
  8
0
100
AcDbBlockBegin
  2
*Paper_Space0
 70
     0
 10
0.0
 20
0.0
 30
0.0
  3
*Paper_Space0
  1

  0
ENDBLK
  5
76
330
74
100
AcDbEntity
 67
     1
  8
0
100
AcDbBlockEnd
  0
ENDSEC
  0
SECTION
  2
ENTITIES
  0
SPLINE
  5
79
330
70
100
AcDbEntity
  8
Layer 1
 62
    18
420
        0
370
    25
100
AcDbSpline
210
0.0
220
0.0
230
1.0
 70
     8
 71
     3
 72
    29
 73
    25
 74
     0
 42
0.0000000001
 43
0.0000000001
 40
0.0
 40
0.0
 40
0.0
 40
0.0
 40
1.0
 40
1.0
 40
1.0
 40
2.0
 40
2.0
 40
2.0
 40
3.0
 40
3.0
 40
3.0
 40
4.0
 40
4.0
 40
4.0
 40
5.0
 40
5.0
 40
5.0
 40
6.0
 40
6.0
 40
6.0
 40
7.0
 40
7.0
 40
7.0
 40
8.0
 40
8.0
 40
8.0
 40
8.0
 10
5.956300099690754
 20
6.489192962646484
 30
0.0
 10
5.956300099690754
 20
6.489192962646484
 30
0.0
 10
5.950008392333984
 20
6.489234500461154
 30
0.0
 10
5.950008392333984
 20
6.489234500461154
 30
0.0
 10
5.950008392333984
 20
6.489234500461154
 30
0.0
 10
5.943841722276475
 20
6.487956576877169
 30
0.0
 10
5.943841722276475
 20
6.487956576877169
 30
0.0
 10
5.943841722276475
 20
6.487956576877169
 30
0.0
 10
5.938077714708115
 20
6.485428704155815
 30
0.0
 10
5.938077714708115
 20
6.485428704155815
 30
0.0
 10
5.938077714708115
 20
6.485428704155815
 30
0.0
 10
5.93296644422743
 20
6.481734381781683
 30
0.0
 10
5.93296644422743
 20
6.481734381781683
 30
0.0
 10
5.93296644422743
 20
6.481734381781683
 30
0.0
 10
5.928744422064887
 20
6.477067735460068
 30
0.0
 10
5.928744422064887
 20
6.477067735460068
 30
0.0
 10
5.928744422064887
 20
6.477067735460068
 30
0.0
 10
5.925577799479166
 20
6.471623314751518
 30
0.0
 10
5.925577799479166
 20
6.471623314751518
 30
0.0
 10
5.925577799479166
 20
6.471623314751518
 30
0.0
 10
5.923619164360894
 20
6.46563720703125
 30
0.0
 10
5.923619164360894
 20
6.46563720703125
 30
0.0
 10
5.923619164360894
 20
6.46563720703125
 30
0.0
 10
5.92296642727322
 20
6.459373474121093
 30
0.0
 10
5.92296642727322
 20
6.459373474121093
 30
0.0
  0
SPLINE
  5
7A
330
70
100
AcDbEntity
  8
Layer 1
 62
    18
420
        0
370
    25
100
AcDbSpline
210
0.0
220
0.0
230
1.0
 70
     8
 71
     3
 72
    29
 73
    25
 74
     0
 42
0.0000000001
 43
0.0000000001
 40
0.0
 40
0.0
 40
0.0
 40
0.0
 40
1.0
 40
1.0
 40
1.0
 40
2.0
 40
2.0
 40
2.0
 40
3.0
 40
3.0
 40
3.0
 40
4.0
 40
4.0
 40
4.0
 40
5.0
 40
5.0
 40
5.0
 40
6.0
 40
6.0
 40
6.0
 40
7.0
 40
7.0
 40
7.0
 40
8.0
 40
8.0
 40
8.0
 40
8.0
 10
5.48653581407335
 20
6.458998362223306
 30
0.0
 10
5.48653581407335
 20
6.458998362223306
 30
0.0
 10
5.485869513617621
 20
6.465262095133462
 30
0.0
 10
5.485869513617621
 20
6.465262095133462
 30
0.0
 10
5.485869513617621
 20
6.465262095133462
 30
0.0
 10
5.483910878499348
 20
6.471262190077039
 30
0.0
 10
5.483910878499348
 20
6.471262190077039
 30
0.0
 10
5.483910878499348
 20
6.471262190077039
 30
0.0
 10
5.480744255913628
 20
6.47670661078559
 30
0.0
 10
5.480744255913628
 20
6.47670661078559
 30
0.0
 10
5.480744255913628
 20
6.47670661078559
 30
0.0
 10
5.476508246527777
 20
6.481373257107204
 30
0.0
 10
5.476508246527777
 20
6.481373257107204
 30
0.0
 10
5.476508246527777
 20
6.481373257107204
 30
0.0
 10
5.471396976047091
 20
6.485054016113281
 30
0.0
 10
5.471396976047091
 20
6.485054016113281
 30
0.0
 10
5.471396976047091
 20
6.485054016113281
 30
0.0
 10
5.465633392333984
 20
6.48759545220269
 30
0.0
 10
5.465633392333984
 20
6.48759545220269
 30
0.0
 10
5.465633392333984
 20
6.48759545220269
 30
0.0
 10
5.459452735053168
 20
6.488859388563367
 30
0.0
 10
5.459452735053168
 20
6.488859388563367
 30
0.0
 10
5.459452735053168
 20
6.488859388563367
 30
0.0
 10
5.45314704047309
 20
6.48880386352539
 30
0.0
 10
5.45314704047309
 20
6.48880386352539
 30
0.0
  0
SPLINE
  5
7B
330
70
100
AcDbEntity
  8
Layer 1
 62
    18
420
        0
370
    25
100
AcDbSpline
210
0.0
220
0.0
230
1.0
 70
     8
 71
     3
 72
    29
 73
    25
 74
     0
 42
0.0000000001
 43
0.0000000001
 40
0.0
 40
0.0
 40
0.0
 40
0.0
 40
1.0
 40
1.0
 40
1.0
 40
2.0
 40
2.0
 40
2.0
 40
3.0
 40
3.0
 40
3.0
 40
4.0
 40
4.0
 40
4.0
 40
5.0
 40
5.0
 40
5.0
 40
6.0
 40
6.0
 40
6.0
 40
7.0
 40
7.0
 40
7.0
 40
8.0
 40
8.0
 40
8.0
 40
8.0
 10
5.44064712524414
 20
5.943595462375216
 30
0.0
 10
5.44064712524414
 20
5.943595462375216
 30
0.0
 10
5.450188954671223
 20
5.947081671820746
 30
0.0
 10
5.450188954671223
 20
5.947081671820746
 30
0.0
 10
5.450188954671223
 20
5.947081671820746
 30
0.0
 10
5.459036085340711
 20
5.952067905002169
 30
0.0
 10
5.459036085340711
 20
5.952067905002169
 30
0.0
 10
5.459036085340711
 20
5.952067905002169
 30
0.0
 10
5.466966417100693
 20
5.958428700764973
 30
0.0
 10
5.466966417100693
 20
5.958428700764973
 30
0.0
 10
5.466966417100693
 20
5.958428700764973
 30
0.0
 10
5.473758273654513
 20
5.965984344482421
 30
0.0
 10
5.473758273654513
 20
5.965984344482421
 30
0.0
 10
5.473758273654513
 20
5.965984344482421
 30
0.0
 10
5.479230668809678
 20
5.974539862738715
 30
0.0
 10
5.479230668809678
 20
5.974539862738715
 30
0.0
 10
5.479230668809678
 20
5.974539862738715
 30
0.0
 10
5.483244154188367
 20
5.983873155381943
 30
0.0
 10
5.483244154188367
 20
5.983873155381943
 30
0.0
 10
5.483244154188367
 20
5.983873155381943
 30
0.0
 10
5.485702514648437
 20
5.993720584445529
 30
0.0
 10
5.485702514648437
 20
5.993720584445529
 30
0.0
 10
5.485702514648437
 20
5.993720584445529
 30
0.0
 10
5.48653581407335
 20
6.003845638699001
 30
0.0
 10
5.48653581407335
 20
6.003845638699001
 30
0.0
  0
SPLINE
  5
7C
330
70
100
AcDbEntity
  8
Layer 1
 62
    18
420
        0
370
    25
100
AcDbSpline
210
0.0
220
0.0
230
1.0
 70
     8
 71
     3
 72
   263
 73
   259
 74
     0
 42
0.0000000001
 43
0.0000000001
 40
0.0
 40
0.0
 40
0.0
 40
0.0
 40
1.0
 40
1.0
 40
1.0
 40
2.0
 40
2.0
 40
2.0
 40
3.0
 40
3.0
 40
3.0
 40
4.0
 40
4.0
 40
4.0
 40
5.0
 40
5.0
 40
5.0
 40
6.0
 40
6.0
 40
6.0
 40
7.0
 40
7.0
 40
7.0
 40
8.0
 40
8.0
 40
8.0
 40
9.0
 40
9.0
 40
9.0
 40
10.0
 40
10.0
 40
10.0
 40
11.0
 40
11.0
 40
11.0
 40
12.0
 40
12.0
 40
12.0
 40
13.0
 40
13.0
 40
13.0
 40
14.0
 40
14.0
 40
14.0
 40
15.0
 40
15.0
 40
15.0
 40
16.0
 40
16.0
 40
16.0
 40
17.0
 40
17.0
 40
17.0
 40
18.0
 40
18.0
 40
18.0
 40
19.0
 40
19.0
 40
19.0
 40
20.0
 40
20.0
 40
20.0
 40
21.0
 40
21.0
 40
21.0
 40
22.0
 40
22.0
 40
22.0
 40
23.0
 40
23.0
 40
23.0
 40
24.0
 40
24.0
 40
24.0
 40
25.0
 40
25.0
 40
25.0
 40
26.0
 40
26.0
 40
26.0
 40
27.0
 40
27.0
 40
27.0
 40
28.0
 40
28.0
 40
28.0
 40
29.0
 40
29.0
 40
29.0
 40
30.0
 40
30.0
 40
30.0
 40
31.0
 40
31.0
 40
31.0
 40
32.0
 40
32.0
 40
32.0
 40
33.0
 40
33.0
 40
33.0
 40
34.0
 40
34.0
 40
34.0
 40
35.0
 40
35.0
 40
35.0
 40
36.0
 40
36.0
 40
36.0
 40
37.0
 40
37.0
 40
37.0
 40
38.0
 40
38.0
 40
38.0
 40
39.0
 40
39.0
 40
39.0
 40
40.0
 40
40.0
 40
40.0
 40
41.0
 40
41.0
 40
41.0
 40
42.0
 40
42.0
 40
42.0
 40
43.0
 40
43.0
 40
43.0
 40
44.0
 40
44.0
 40
44.0
 40
45.0
 40
45.0
 40
45.0
 40
46.0
 40
46.0
 40
46.0
 40
47.0
 40
47.0
 40
47.0
 40
48.0
 40
48.0
 40
48.0
 40
49.0
 40
49.0
 40
49.0
 40
50.0
 40
50.0
 40
50.0
 40
51.0
 40
51.0
 40
51.0
 40
52.0
 40
52.0
 40
52.0
 40
53.0
 40
53.0
 40
53.0
 40
54.0
 40
54.0
 40
54.0
 40
55.0
 40
55.0
 40
55.0
 40
56.0
 40
56.0
 40
56.0
 40
57.0
 40
57.0
 40
57.0
 40
58.0
 40
58.0
 40
58.0
 40
59.0
 40
59.0
 40
59.0
 40
60.0
 40
60.0
 40
60.0
 40
61.0
 40
61.0
 40
61.0
 40
62.0
 40
62.0
 40
62.0
 40
63.0
 40
63.0
 40
63.0
 40
64.0
 40
64.0
 40
64.0
 40
65.0
 40
65.0
 40
65.0
 40
66.0
 40
66.0
 40
66.0
 40
67.0
 40
67.0
 40
67.0
 40
68.0
 40
68.0
 40
68.0
 40
69.0
 40
69.0
 40
69.0
 40
70.0
 40
70.0
 40
70.0
 40
71.0
 40
71.0
 40
71.0
 40
72.0
 40
72.0
 40
72.0
 40
73.0
 40
73.0
 40
73.0
 40
74.0
 40
74.0
 40
74.0
 40
75.0
 40
75.0
 40
75.0
 40
76.0
 40
76.0
 40
76.0
 40
77.0
 40
77.0
 40
77.0
 40
78.0
 40
78.0
 40
78.0
 40
79.0
 40
79.0
 40
79.0
 40
80.0
 40
80.0
 40
80.0
 40
81.0
 40
81.0
 40
81.0
 40
82.0
 40
82.0
 40
82.0
 40
83.0
 40
83.0
 40
83.0
 40
84.0
 40
84.0
 40
84.0
 40
85.0
 40
85.0
 40
85.0
 40
86.0
 40
86.0
 40
86.0
 40
86.0
 10
5.44064712524414
 20
5.943595462375216
 30
0.0
 10
5.44064712524414
 20
5.943595462375216
 30
0.0
 10
5.376841651068793
 20
5.923692915174695
 30
0.0
 10
5.376841651068793
 20
5.923692915174695
 30
0.0
 10
5.376841651068793
 20
5.923692915174695
 30
0.0
 10
5.314522213406032
 20
5.899567921956379
 30
0.0
 10
5.314522213406032
 20
5.899567921956379
 30
0.0
 10
5.314522213406032
 20
5.899567921956379
 30
0.0
 10
5.253952874077691
 20
5.871345520019531
 30
0.0
 10
5.253952874077691
 20
5.871345520019531
 30
0.0
 10
5.253952874077691
 20
5.871345520019531
 30
0.0
 10
5.195397271050347
 20
5.839123196072048
 30
0.0
 10
5.195397271050347
 20
5.839123196072048
 30
0.0
 10
5.195397271050347
 20
5.839123196072048
 30
0.0
 10
5.139119466145833
 20
5.803081512451171
 30
0.0
 10
5.139119466145833
 20
5.803081512451171
 30
0.0
 10
5.139119466145833
 20
5.803081512451171
 30
0.0
 10
5.085383097330728
 20
5.763345506456162
 30
0.0
 10
5.085383097330728
 20
5.763345506456162
 30
0.0
 10
5.085383097330728
 20
5.763345506456162
 30
0.0
 10
5.034425099690754
 20
5.720109303792317
 30
0.0
 10
5.034425099690754
 20
5.720109303792317
 30
0.0
 10
5.034425099690754
 20
5.720109303792317
 30
0.0
 10
4.986466725667317
 20
5.67358186509874
 30
0.0
 10
4.986466725667317
 20
5.67358186509874
 30
0.0
 10
4.986466725667317
 20
5.67358186509874
 30
0.0
 10
4.94171651204427
 20
5.623942905002169
 30
0.0
 10
4.94171651204427
 20
5.623942905002169
 30
0.0
 10
4.94171651204427
 20
5.623942905002169
 30
0.0
 10
4.90038341946072
 20
5.571414947509765
 30
0.0
 10
4.90038341946072
 20
5.571414947509765
 30
0.0
 10
4.90038341946072
 20
5.571414947509765
 30
0.0
 10
4.862647162543402
 20
5.516262054443359
 30
0.0
 10
4.862647162543402
 20
5.516262054443359
 30
0.0
 10
4.862647162543402
 20
5.516262054443359
 30
0.0
 10
4.828688727484808
 20
5.458706749810112
 30
0.0
 10
4.828688727484808
 20
5.458706749810112
 30
0.0
 10
4.828688727484808
 20
5.458706749810112
 30
0.0
 10
4.798647138807508
 20
5.399012247721353
 30
0.0
 10
4.798647138807508
 20
5.399012247721353
 30
0.0
 10
4.798647138807508
 20
5.399012247721353
 30
0.0
 10
4.772660997178818
 20
5.337442609998914
 30
0.0
 10
4.772660997178818
 20
5.337442609998914
 30
0.0
 10
4.772660997178818
 20
5.337442609998914
 30
0.0
 10
4.750841776529947
 20
5.274276309543185
 30
0.0
 10
4.750841776529947
 20
5.274276309543185
 30
0.0
 10
4.750841776529947
 20
5.274276309543185
 30
0.0
 10
4.733286115858289
 20
5.20979012383355
 30
0.0
 10
4.733286115858289
 20
5.20979012383355
 30
0.0
 10
4.733286115858289
 20
5.20979012383355
 30
0.0
 10
4.720091501871744
 20
5.144276089138454
 30
0.0
 10
4.720091501871744
 20
5.144276089138454
 30
0.0
 10
4.720091501871744
 20
5.144276089138454
 30
0.0
 10
4.711285909016926
 20
5.078026241726345
 30
0.0
 10
4.711285909016926
 20
5.078026241726345
 30
0.0
 10
4.711285909016926
 20
5.078026241726345
 30
0.0
 10
4.706938849555121
 20
5.011331770155164
 30
0.0
 10
4.706938849555121
 20
5.011331770155164
 30
0.0
 10
4.706938849555121
 20
5.011331770155164
 30
0.0
 10
4.707035912407769
 20
4.944512261284722
 30
0.0
 10
4.707035912407769
 20
4.944512261284722
 30
0.0
 10
4.707035912407769
 20
4.944512261284722
 30
0.0
 10
4.711619483100043
 20
4.877831776936848
 30
0.0
 10
4.711619483100043
 20
4.877831776936848
 30
0.0
 10
4.711619483100043
 20
4.877831776936848
 30
0.0
 10
4.720633188883462
 20
4.811623467339409
 30
0.0
 10
4.720633188883462
 20
4.811623467339409
 30
0.0
 10
4.720633188883462
 20
4.811623467339409
 30
0.0
 10
4.734049903021918
 20
4.746150970458984
 30
0.0
 10
4.734049903021918
 20
4.746150970458984
 30
0.0
 10
4.734049903021918
 20
4.746150970458984
 30
0.0
 10
4.751813676622178
 20
4.681720733642578
 30
0.0
 10
4.751813676622178
 20
4.681720733642578
 30
0.0
 10
4.751813676622178
 20
4.681720733642578
 30
0.0
 10
4.773841434054904
 20
4.618623521592881
 30
0.0
 10
4.773841434054904
 20
4.618623521592881
 30
0.0
 10
4.773841434054904
 20
4.618623521592881
 30
0.0
 10
4.800036112467447
 20
4.557137383355034
 30
0.0
 10
4.800036112467447
 20
4.557137383355034
 30
0.0
 10
4.800036112467447
 20
4.557137383355034
 30
0.0
 10
4.830272250705294
 20
4.497539944118923
 30
0.0
 10
4.830272250705294
 20
4.497539944118923
 30
0.0
 10
4.830272250705294
 20
4.497539944118923
 30
0.0
 10
4.864424811469183
 20
4.440095689561632
 30
0.0
 10
4.864424811469183
 20
4.440095689561632
 30
0.0
 10
4.864424811469183
 20
4.440095689561632
 30
0.0
 10
4.902327643500433
 20
4.385067833794487
 30
0.0
 10
4.902327643500433
 20
4.385067833794487
 30
0.0
 10
4.902327643500433
 20
4.385067833794487
 30
0.0
 10
4.943841722276475
 20
4.33269288804796
 30
0.0
 10
4.943841722276475
 20
4.33269288804796
 30
0.0
 10
4.943841722276475
 20
4.33269288804796
 30
0.0
 10
4.988744523790146
 20
4.283192952473958
 30
0.0
 10
4.988744523790146
 20
4.283192952473958
 30
0.0
 10
4.988744523790146
 20
4.283192952473958
 30
0.0
 10
5.036855485704209
 20
4.236817677815754
 30
0.0
 10
5.036855485704209
 20
4.236817677815754
 30
0.0
 10
5.036855485704209
 20
4.236817677815754
 30
0.0
 10
5.08796649509006
 20
4.193748474121093
 30
0.0
 10
5.08796649509006
 20
4.193748474121093
 30
0.0
 10
5.08796649509006
 20
4.193748474121093
 30
0.0
 10
5.141841464572482
 20
4.154193030463324
 30
0.0
 10
5.141841464572482
 20
4.154193030463324
 30
0.0
 10
5.141841464572482
 20
4.154193030463324
 30
0.0
 10
5.19823031955295
 20
4.118331909179687
 30
0.0
 10
5.19823031955295
 20
4.118331909179687
 30
0.0
 10
5.19823031955295
 20
4.118331909179687
 30
0.0
 10
5.256883409288193
 20
4.086304134792751
 30
0.0
 10
5.256883409288193
 20
4.086304134792751
 30
0.0
 10
5.256883409288193
 20
4.086304134792751
 30
0.0
 10
5.317549811469183
 20
4.058276282416449
 30
0.0
 10
5.317549811469183
 20
4.058276282416449
 30
0.0
 10
5.317549811469183
 20
4.058276282416449
 30
0.0
 10
5.379952748616536
 20
4.034359402126735
 30
0.0
 10
5.379952748616536
 20
4.034359402126735
 30
0.0
 10
5.379952748616536
 20
4.034359402126735
 30
0.0
 10
5.44381374782986
 20
4.014664967854817
 30
0.0
 10
5.44381374782986
 20
4.014664967854817
 30
0.0
 10
5.44381374782986
 20
4.014664967854817
 30
0.0
 10
5.508855607774521
 20
3.999276055230034
 30
0.0
 10
5.508855607774521
 20
3.999276055230034
 30
0.0
 10
5.508855607774521
 20
3.999276055230034
 30
0.0
 10
5.574772304958766
 20
3.988276163736978
 30
0.0
 10
5.574772304958766
 20
3.988276163736978
 30
0.0
 10
5.574772304958766
 20
3.988276163736978
 30
0.0
 10
5.6412722269694
 20
3.981692843967013
 30
0.0
 10
5.6412722269694
 20
3.981692843967013
 30
0.0
 10
5.6412722269694
 20
3.981692843967013
 30
0.0
 10
5.708063761393228
 20
3.97956805759006
 30
0.0
 10
5.708063761393228
 20
3.97956805759006
 30
0.0
 10
5.708063761393228
 20
3.97956805759006
 30
0.0
 10
5.774855295817056
 20
3.981914944118923
 30
0.0
 10
5.774855295817056
 20
3.981914944118923
 30
0.0
 10
5.774855295817056
 20
3.981914944118923
 30
0.0
 10
5.841341654459634
 20
3.988706800672742
 30
0.0
 10
5.841341654459634
 20
3.988706800672742
 30
0.0
 10
5.841341654459634
 20
3.988706800672742
 30
0.0
 10
5.907216389973958
 20
3.999928792317708
 30
0.0
 10
5.907216389973958
 20
3.999928792317708
 30
0.0
 10
5.907216389973958
 20
3.999928792317708
 30
0.0
 10
5.972202724880641
 20
4.015526241726345
 30
0.0
 10
5.972202724880641
 20
4.015526241726345
 30
0.0
 10
5.972202724880641
 20
4.015526241726345
 30
0.0
 10
6.035994211832681
 20
4.035442776150173
 30
0.0
 10
6.035994211832681
 20
4.035442776150173
 30
0.0
 10
6.035994211832681
 20
4.035442776150173
 30
0.0
 10
6.09832763671875
 20
4.059553782145181
 30
0.0
 10
6.09832763671875
 20
4.059553782145181
 30
0.0
 10
6.09832763671875
 20
4.059553782145181
 30
0.0
 10
6.158896976047091
 20
4.087790171305337
 30
0.0
 10
6.158896976047091
 20
4.087790171305337
 30
0.0
 10
6.158896976047091
 20
4.087790171305337
 30
0.0
 10
6.217452579074435
 20
4.119998508029513
 30
0.0
 10
6.217452579074435
 20
4.119998508029513
 30
0.0
 10
6.217452579074435
 20
4.119998508029513
 30
0.0
 10
6.273730383978949
 20
4.156054178873697
 30
0.0
 10
6.273730383978949
 20
4.156054178873697
 30
0.0
 10
6.273730383978949
 20
4.156054178873697
 30
0.0
 10
6.327466752794053
 20
4.195790184868706
 30
0.0
 10
6.327466752794053
 20
4.195790184868706
 30
0.0
 10
6.327466752794053
 20
4.195790184868706
 30
0.0
 10
6.378424750434027
 20
4.239012400309244
 30
0.0
 10
6.378424750434027
 20
4.239012400309244
 30
0.0
 10
6.378424750434027
 20
4.239012400309244
 30
0.0
 10
6.426383124457465
 20
4.285553826226128
 30
0.0
 10
6.426383124457465
 20
4.285553826226128
 30
0.0
 10
6.426383124457465
 20
4.285553826226128
 30
0.0
 10
6.471133338080512
 20
4.335192786322699
 30
0.0
 10
6.471133338080512
 20
4.335192786322699
 30
0.0
 10
6.471133338080512
 20
4.335192786322699
 30
0.0
 10
6.512466430664062
 20
4.387706756591796
 30
0.0
 10
6.512466430664062
 20
4.387706756591796
 30
0.0
 10
6.512466430664062
 20
4.387706756591796
 30
0.0
 10
6.550202687581379
 20
4.442859649658203
 30
0.0
 10
6.550202687581379
 20
4.442859649658203
 30
0.0
 10
6.550202687581379
 20
4.442859649658203
 30
0.0
 10
6.584161122639973
 20
4.500414954291449
 30
0.0
 10
6.584161122639973
 20
4.500414954291449
 30
0.0
 10
6.584161122639973
 20
4.500414954291449
 30
0.0
 10
6.614202711317274
 20
4.560123443603515
 30
0.0
 10
6.614202711317274
 20
4.560123443603515
 30
0.0
 10
6.614202711317274
 20
4.560123443603515
 30
0.0
 10
6.640188852945962
 20
4.621692657470703
 30
0.0
 10
6.640188852945962
 20
4.621692657470703
 30
0.0
 10
6.640188852945962
 20
4.621692657470703
 30
0.0
 10
6.662008073594834
 20
4.684859381781683
 30
0.0
 10
6.662008073594834
 20
4.684859381781683
 30
0.0
 10
6.662008073594834
 20
4.684859381781683
 30
0.0
 10
6.679563734266492
 20
4.749331580268012
 30
0.0
 10
6.679563734266492
 20
4.749331580268012
 30
0.0
 10
6.679563734266492
 20
4.749331580268012
 30
0.0
 10
6.692772335476345
 20
4.814845614963107
 30
0.0
 10
6.692772335476345
 20
4.814845614963107
 30
0.0
 10
6.692772335476345
 20
4.814845614963107
 30
0.0
 10
6.701563941107855
 20
4.881095462375216
 30
0.0
 10
6.701563941107855
 20
4.881095462375216
 30
0.0
 10
6.701563941107855
 20
4.881095462375216
 30
0.0
 10
6.705924987792968
 20
4.947789933946396
 30
0.0
 10
6.705924987792968
 20
4.947789933946396
 30
0.0
 10
6.705924987792968
 20
4.947789933946396
 30
0.0
 10
6.705813937717013
 20
5.01460944281684
 30
0.0
 10
6.705813937717013
 20
5.01460944281684
 30
0.0
 10
6.705813937717013
 20
5.01460944281684
 30
0.0
 10
6.701244354248046
 20
5.081289927164712
 30
0.0
 10
6.701244354248046
 20
5.081289927164712
 30
0.0
 10
6.701244354248046
 20
5.081289927164712
 30
0.0
 10
6.692230648464626
 20
5.147512223985459
 30
0.0
 10
6.692230648464626
 20
5.147512223985459
 30
0.0
 10
6.692230648464626
 20
5.147512223985459
 30
0.0
 10
6.678799947102864
 20
5.212970733642578
 30
0.0
 10
6.678799947102864
 20
5.212970733642578
 30
0.0
 10
6.678799947102864
 20
5.212970733642578
 30
0.0
 10
6.661049736870658
 20
5.277400970458984
 30
0.0
 10
6.661049736870658
 20
5.277400970458984
 30
0.0
 10
6.661049736870658
 20
5.277400970458984
 30
0.0
 10
6.639021979437933
 20
5.34049818250868
 30
0.0
 10
6.639021979437933
 20
5.34049818250868
 30
0.0
 10
6.639021979437933
 20
5.34049818250868
 30
0.0
 10
6.612827724880641
 20
5.401984320746527
 30
0.0
 10
6.612827724880641
 20
5.401984320746527
 30
0.0
 10
6.612827724880641
 20
5.401984320746527
 30
0.0
 10
6.582591586642794
 20
5.461581759982638
 30
0.0
 10
6.582591586642794
 20
5.461581759982638
 30
0.0
 10
6.582591586642794
 20
5.461581759982638
 30
0.0
 10
6.548438602023654
 20
5.51902601453993
 30
0.0
 10
6.548438602023654
 20
5.51902601453993
 30
0.0
 10
6.548438602023654
 20
5.51902601453993
 30
0.0
 10
6.510522206624348
 20
5.574067857530381
 30
0.0
 10
6.510522206624348
 20
5.574067857530381
 30
0.0
 10
6.510522206624348
 20
5.574067857530381
 30
0.0
 10
6.469022115071614
 20
5.626442803276909
 30
0.0
 10
6.469022115071614
 20
5.626442803276909
 30
0.0
 10
6.469022115071614
 20
5.626442803276909
 30
0.0
 10
6.424119313557942
 20
5.675928751627603
 30
0.0
 10
6.424119313557942
 20
5.675928751627603
 30
0.0
 10
6.424119313557942
 20
5.675928751627603
 30
0.0
 10
6.375994364420572
 20
5.722317589653862
 30
0.0
 10
6.375994364420572
 20
5.722317589653862
 30
0.0
 10
6.375994364420572
 20
5.722317589653862
 30
0.0
 10
6.324896918402777
 20
5.765373229980468
 30
0.0
 10
6.324896918402777
 20
5.765373229980468
 30
0.0
 10
6.324896918402777
 20
5.765373229980468
 30
0.0
 10
6.271021948920355
 20
5.804929097493489
 30
0.0
 10
6.271021948920355
 20
5.804929097493489
 30
0.0
 10
6.271021948920355
 20
5.804929097493489
 30
0.0
 10
6.214633093939887
 20
5.840803782145181
 30
0.0
 10
6.214633093939887
 20
5.840803782145181
 30
0.0
 10
6.214633093939887
 20
5.840803782145181
 30
0.0
 10
6.155980428059895
 20
5.87281756930881
 30
0.0
 10
6.155980428059895
 20
5.87281756930881
 30
0.0
 10
6.155980428059895
 20
5.87281756930881
 30
0.0
 10
6.095313602023654
 20
5.900859408908419
 30
0.0
 10
6.095313602023654
 20
5.900859408908419
 30
0.0
 10
6.095313602023654
 20
5.900859408908419
 30
0.0
 10
6.032911088731553
 20
5.924776289198133
 30
0.0
 10
6.032911088731553
 20
5.924776289198133
 30
0.0
 10
6.032911088731553
 20
5.924776289198133
 30
0.0
 10
5.969050089518228
 20
5.944470723470051
 30
0.0
 10
5.969050089518228
 20
5.944470723470051
 30
0.0
  0
SPLINE
  5
7D
330
70
100
AcDbEntity
  8
Layer 1
 62
    18
420
        0
370
    25
100
AcDbSpline
210
0.0
220
0.0
230
1.0
 70
     8
 71
     3
 72
    29
 73
    25
 74
     0
 42
0.0000000001
 43
0.0000000001
 40
0.0
 40
0.0
 40
0.0
 40
0.0
 40
1.0
 40
1.0
 40
1.0
 40
2.0
 40
2.0
 40
2.0
 40
3.0
 40
3.0
 40
3.0
 40
4.0
 40
4.0
 40
4.0
 40
5.0
 40
5.0
 40
5.0
 40
6.0
 40
6.0
 40
6.0
 40
7.0
 40
7.0
 40
7.0
 40
8.0
 40
8.0
 40
8.0
 40
8.0
 10
5.92296642727322
 20
6.004776000976562
 30
0.0
 10
5.92296642727322
 20
6.004776000976562
 30
0.0
 10
5.923786163330078
 20
5.994623396131727
 30
0.0
 10
5.923786163330078
 20
5.994623396131727
 30
0.0
 10
5.923786163330078
 20
5.994623396131727
 30
0.0
 10
5.926258087158203
 20
5.984734429253472
 30
0.0
 10
5.926258087158203
 20
5.984734429253472
 30
0.0
 10
5.926258087158203
 20
5.984734429253472
 30
0.0
 10
5.930299970838758
 20
5.975387149386935
 30
0.0
 10
5.930299970838758
 20
5.975387149386935
 30
0.0
 10
5.930299970838758
 20
5.975387149386935
 30
0.0
 10
5.935799916585286
 20
5.966817643907334
 30
0.0
 10
5.935799916585286
 20
5.966817643907334
 30
0.0
 10
5.935799916585286
 20
5.966817643907334
 30
0.0
 10
5.942633310953775
 20
5.959262424045138
 30
0.0
 10
5.942633310953775
 20
5.959262424045138
 30
0.0
 10
5.942633310953775
 20
5.959262424045138
 30
0.0
 10
5.950591617160372
 20
5.95291519165039
 30
0.0
 10
5.950591617160372
 20
5.95291519165039
 30
0.0
 10
5.950591617160372
 20
5.95291519165039
 30
0.0
 10
5.959466722276475
 20
5.947928958468966
 30
0.0
 10
5.959466722276475
 20
5.947928958468966
 30
0.0
 10
5.959466722276475
 20
5.947928958468966
 30
0.0
 10
5.969050089518228
 20
5.944470723470051
 30
0.0
 10
5.969050089518228
 20
5.944470723470051
 30
0.0
  0
SPLINE
  5
7E
330
70
100
AcDbEntity
  8
Layer 1
 62
    18
420
        0
370
    25
100
AcDbSpline
210
0.0
220
0.0
230
1.0
 70
    24
 71
     3
 72
     8
 73
     4
 74
     0
 42
0.0000000001
 43
0.0000000001
 40
0.0
 40
0.0
 40
0.0
 40
0.0
 40
1.0
 40
1.0
 40
1.0
 40
1.0
 10
4.25421651204427
 20
5.607831743028428
 30
0.0
 10
4.25421651204427
 20
5.607831743028428
 30
0.0
 10
4.25421651204427
 20
4.7476929558648
 30
0.0
 10
4.25421651204427
 20
4.7476929558648
 30
0.0
  0
SPLINE
  5
7F
330
70
100
AcDbEntity
  8
Layer 1
 62
    18
420
        0
370
    25
100
AcDbSpline
210
0.0
220
0.0
230
1.0
 70
     8
 71
     3
 72
    32
 73
    28
 74
     0
 42
0.0000000001
 43
0.0000000001
 40
0.0
 40
0.0
 40
0.0
 40
0.0
 40
1.0
 40
1.0
 40
1.0
 40
2.0
 40
2.0
 40
2.0
 40
3.0
 40
3.0
 40
3.0
 40
4.0
 40
4.0
 40
4.0
 40
5.0
 40
5.0
 40
5.0
 40
6.0
 40
6.0
 40
6.0
 40
7.0
 40
7.0
 40
7.0
 40
8.0
 40
8.0
 40
8.0
 40
9.0
 40
9.0
 40
9.0
 40
9.0
 10
4.460035959879556
 20
6.104748196072048
 30
0.0
 10
4.460035959879556
 20
6.104748196072048
 30
0.0
 10
4.41921657986111
 20
6.059151119656032
 30
0.0
 10
4.41921657986111
 20
6.059151119656032
 30
0.0
 10
4.41921657986111
 20
6.059151119656032
 30
0.0
 10
4.382383134629991
 20
6.010262383355034
 30
0.0
 10
4.382383134629991
 20
6.010262383355034
 30
0.0
 10
4.382383134629991
 20
6.010262383355034
 30
0.0
 10
4.349800109863281
 20
5.958456675211587
 30
0.0
 10
4.349800109863281
 20
5.958456675211587
 30
0.0
 10
4.349800109863281
 20
5.958456675211587
 30
0.0
 10
4.321688758002387
 20
5.904095543755425
 30
0.0
 10
4.321688758002387
 20
5.904095543755425
 30
0.0
 10
4.321688758002387
 20
5.904095543755425
 30
0.0
 10
4.298272026909722
 20
5.847540113661024
 30
0.0
 10
4.298272026909722
 20
5.847540113661024
 30
0.0
 10
4.298272026909722
 20
5.847540113661024
 30
0.0
 10
4.279702928331163
 20
5.789220598008896
 30
0.0
 10
4.279702928331163
 20
5.789220598008896
 30
0.0
 10
4.279702928331163
 20
5.789220598008896
 30
0.0
 10
4.266105651855468
 20
5.729554070366753
 30
0.0
 10
4.266105651855468
 20
5.729554070366753
 30
0.0
 10
4.266105651855468
 20
5.729554070366753
 30
0.0
 10
4.257591671413845
 20
5.668942769368489
 30
0.0
 10
4.257591671413845
 20
5.668942769368489
 30
0.0
 10
4.257591671413845
 20
5.668942769368489
 30
0.0
 10
4.25421651204427
 20
5.607831743028428
 30
0.0
 10
4.25421651204427
 20
5.607831743028428
 30
0.0
  0
SPLINE
  5
80
330
70
100
AcDbEntity
  8
Layer 1
 62
    18
420
        0
370
    25
100
AcDbSpline
210
0.0
220
0.0
230
1.0
 70
     8
 71
     3
 72
    29
 73
    25
 74
     0
 42
0.0000000001
 43
0.0000000001
 40
0.0
 40
0.0
 40
0.0
 40
0.0
 40
1.0
 40
1.0
 40
1.0
 40
2.0
 40
2.0
 40
2.0
 40
3.0
 40
3.0
 40
3.0
 40
4.0
 40
4.0
 40
4.0
 40
5.0
 40
5.0
 40
5.0
 40
6.0
 40
6.0
 40
6.0
 40
7.0
 40
7.0
 40
7.0
 40
8.0
 40
8.0
 40
8.0
 40
8.0
 10
4.509188758002387
 20
6.099053700764973
 30
0.0
 10
4.509188758002387
 20
6.099053700764973
 30
0.0
 10
4.504841698540581
 20
6.104706658257378
 30
0.0
 10
4.504841698540581
 20
6.104706658257378
 30
0.0
 10
4.504841698540581
 20
6.104706658257378
 30
0.0
 10
4.499327765570746
 20
6.109220716688367
 30
0.0
 10
4.499327765570746
 20
6.109220716688367
 30
0.0
 10
4.499327765570746
 20
6.109220716688367
 30
0.0
 10
4.492938995361328
 20
6.112359364827473
 30
0.0
 10
4.492938995361328
 20
6.112359364827473
 30
0.0
 10
4.492938995361328
 20
6.112359364827473
 30
0.0
 10
4.486008114284938
 20
6.113984425862629
 30
0.0
 10
4.486008114284938
 20
6.113984425862629
 30
0.0
 10
4.486008114284938
 20
6.113984425862629
 30
0.0
 10
4.478883107503254
 20
6.113984425862629
 30
0.0
 10
4.478883107503254
 20
6.113984425862629
 30
0.0
 10
4.478883107503254
 20
6.113984425862629
 30
0.0
 10
4.471952650282117
 20
6.112387339274087
 30
0.0
 10
4.471952650282117
 20
6.112387339274087
 30
0.0
 10
4.471952650282117
 20
6.112387339274087
 30
0.0
 10
4.465549892849391
 20
6.10924826727973
 30
0.0
 10
4.465549892849391
 20
6.10924826727973
 30
0.0
 10
4.465549892849391
 20
6.10924826727973
 30
0.0
 10
4.460035959879556
 20
6.104748196072048
 30
0.0
 10
4.460035959879556
 20
6.104748196072048
 30
0.0
  0
SPLINE
  5
81
330
70
100
AcDbEntity
  8
Layer 1
 62
    18
420
        0
370
    25
100
AcDbSpline
210
0.0
220
0.0
230
1.0
 70
    24
 71
     3
 72
     8
 73
     4
 74
     0
 42
0.0000000001
 43
0.0000000001
 40
0.0
 40
0.0
 40
0.0
 40
0.0
 40
1.0
 40
1.0
 40
1.0
 40
1.0
 10
4.558980305989583
 20
6.016387091742621
 30
0.0
 10
4.558980305989583
 20
6.016387091742621
 30
0.0
 10
4.509188758002387
 20
6.099053700764973
 30
0.0
 10
4.509188758002387
 20
6.099053700764973
 30
0.0
  0
SPLINE
  5
82
330
70
100
AcDbEntity
  8
Layer 1
 62
    18
420
        0
370
    25
100
AcDbSpline
210
0.0
220
0.0
230
1.0
 70
     8
 71
     3
 72
    41
 73
    37
 74
     0
 42
0.0000000001
 43
0.0000000001
 40
0.0
 40
0.0
 40
0.0
 40
0.0
 40
1.0
 40
1.0
 40
1.0
 40
2.0
 40
2.0
 40
2.0
 40
3.0
 40
3.0
 40
3.0
 40
4.0
 40
4.0
 40
4.0
 40
5.0
 40
5.0
 40
5.0
 40
6.0
 40
6.0
 40
6.0
 40
7.0
 40
7.0
 40
7.0
 40
8.0
 40
8.0
 40
8.0
 40
9.0
 40
9.0
 40
9.0
 40
10.0
 40
10.0
 40
10.0
 40
11.0
 40
11.0
 40
11.0
 40
12.0
 40
12.0
 40
12.0
 40
12.0
 10
4.687480502658419
 20
6.0937622918023
 30
0.0
 10
4.687480502658419
 20
6.0937622918023
 30
0.0
 10
4.695299784342447
 20
6.0758179558648
 30
0.0
 10
4.695299784342447
 20
6.0758179558648
 30
0.0
 10
4.695299784342447
 20
6.0758179558648
 30
0.0
 10
4.698216756184895
 20
6.056456671820746
 30
0.0
 10
4.698216756184895
 20
6.056456671820746
 30
0.0
 10
4.698216756184895
 20
6.056456671820746
 30
0.0
 10
4.696022033691406
 20
6.036998324924044
 30
0.0
 10
4.696022033691406
 20
6.036998324924044
 30
0.0
 10
4.696022033691406
 20
6.036998324924044
 30
0.0
 10
4.688855489095051
 20
6.018775939941406
 30
0.0
 10
4.688855489095051
 20
6.018775939941406
 30
0.0
 10
4.688855489095051
 20
6.018775939941406
 30
0.0
 10
4.677230411105685
 20
6.003025902642144
 30
0.0
 10
4.677230411105685
 20
6.003025902642144
 30
0.0
 10
4.677230411105685
 20
6.003025902642144
 30
0.0
 10
4.661911010742187
 20
5.990817599826388
 30
0.0
 10
4.661911010742187
 20
5.990817599826388
 30
0.0
 10
4.661911010742187
 20
5.990817599826388
 30
0.0
 10
4.643966674804687
 20
5.98299831814236
 30
0.0
 10
4.643966674804687
 20
5.98299831814236
 30
0.0
 10
4.643966674804687
 20
5.98299831814236
 30
0.0
 10
4.624605390760633
 20
5.980081770155164
 30
0.0
 10
4.624605390760633
 20
5.980081770155164
 30
0.0
 10
4.624605390760633
 20
5.980081770155164
 30
0.0
 10
4.605147043863931
 20
5.982290056016709
 30
0.0
 10
4.605147043863931
 20
5.982290056016709
 30
0.0
 10
4.605147043863931
 20
5.982290056016709
 30
0.0
 10
4.586925082736544
 20
5.989442613389756
 30
0.0
 10
4.586925082736544
 20
5.989442613389756
 30
0.0
 10
4.586925082736544
 20
5.989442613389756
 30
0.0
 10
4.571175045437282
 20
6.001067691379122
 30
0.0
 10
4.571175045437282
 20
6.001067691379122
 30
0.0
 10
4.571175045437282
 20
6.001067691379122
 30
0.0
 10
4.558980305989583
 20
6.016387091742621
 30
0.0
 10
4.558980305989583
 20
6.016387091742621
 30
0.0
  0
SPLINE
  5
83
330
70
100
AcDbEntity
  8
Layer 1
 62
    18
420
        0
370
    25
100
AcDbSpline
210
0.0
220
0.0
230
1.0
 70
    24
 71
     3
 72
     8
 73
     4
 74
     0
 42
0.0000000001
 43
0.0000000001
 40
0.0
 40
0.0
 40
0.0
 40
0.0
 40
1.0
 40
1.0
 40
1.0
 40
1.0
 10
4.629035949707031
 20
6.19081793891059
 30
0.0
 10
4.629035949707031
 20
6.19081793891059
 30
0.0
 10
4.687480502658419
 20
6.0937622918023
 30
0.0
 10
4.687480502658419
 20
6.0937622918023
 30
0.0
  0
SPLINE
  5
84
330
70
100
AcDbEntity
  8
Layer 1
 62
    18
420
        0
370
    25
100
AcDbSpline
210
0.0
220
0.0
230
1.0
 70
     8
 71
     3
 72
    29
 73
    25
 74
     0
 42
0.0000000001
 43
0.0000000001
 40
0.0
 40
0.0
 40
0.0
 40
0.0
 40
1.0
 40
1.0
 40
1.0
 40
2.0
 40
2.0
 40
2.0
 40
3.0
 40
3.0
 40
3.0
 40
4.0
 40
4.0
 40
4.0
 40
5.0
 40
5.0
 40
5.0
 40
6.0
 40
6.0
 40
6.0
 40
7.0
 40
7.0
 40
7.0
 40
8.0
 40
8.0
 40
8.0
 40
8.0
 10
4.640980614556206
 20
6.234456804063584
 30
0.0
 10
4.640980614556206
 20
6.234456804063584
 30
0.0
 10
4.635758293999566
 20
6.230915069580078
 30
0.0
 10
4.635758293999566
 20
6.230915069580078
 30
0.0
 10
4.635758293999566
 20
6.230915069580078
 30
0.0
 10
4.631355285644531
 20
6.226401011149087
 30
0.0
 10
4.631355285644531
 20
6.226401011149087
 30
0.0
 10
4.631355285644531
 20
6.226401011149087
 30
0.0
 10
4.627939012315537
 20
6.2210816277398
 30
0.0
 10
4.627939012315537
 20
6.2210816277398
 30
0.0
 10
4.627939012315537
 20
6.2210816277398
 30
0.0
 10
4.625661214192708
 20
6.215192582872178
 30
0.0
 10
4.625661214192708
 20
6.215192582872178
 30
0.0
 10
4.625661214192708
 20
6.215192582872178
 30
0.0
 10
4.624619377983941
 20
6.208970387776692
 30
0.0
 10
4.624619377983941
 20
6.208970387776692
 30
0.0
 10
4.624619377983941
 20
6.208970387776692
 30
0.0
 10
4.62484147813585
 20
6.202665117051865
 30
0.0
 10
4.62484147813585
 20
6.202665117051865
 30
0.0
 10
4.62484147813585
 20
6.202665117051865
 30
0.0
 10
4.626341501871744
 20
6.19652599758572
 30
0.0
 10
4.626341501871744
 20
6.19652599758572
 30
0.0
 10
4.626341501871744
 20
6.19652599758572
 30
0.0
 10
4.629035949707031
 20
6.19081793891059
 30
0.0
 10
4.629035949707031
 20
6.19081793891059
 30
0.0
  0
SPLINE
  5
85
330
70
100
AcDbEntity
  8
Layer 1
 62
    18
420
        0
370
    25
100
AcDbSpline
210
0.0
220
0.0
230
1.0
 70
     8
 71
     3
 72
    29
 73
    25
 74
     0
 42
0.0000000001
 43
0.0000000001
 40
0.0
 40
0.0
 40
0.0
 40
0.0
 40
1.0
 40
1.0
 40
1.0
 40
2.0
 40
2.0
 40
2.0
 40
3.0
 40
3.0
 40
3.0
 40
4.0
 40
4.0
 40
4.0
 40
5.0
 40
5.0
 40
5.0
 40
6.0
 40
6.0
 40
6.0
 40
7.0
 40
7.0
 40
7.0
 40
8.0
 40
8.0
 40
8.0
 40
8.0
 10
5.45314704047309
 20
6.48880386352539
 30
0.0
 10
5.45314704047309
 20
6.48880386352539
 30
0.0
 10
5.347133212619357
 20
6.474220699734157
 30
0.0
 10
5.347133212619357
 20
6.474220699734157
 30
0.0
 10
5.347133212619357
 20
6.474220699734157
 30
0.0
 10
5.241924709743923
 20
6.454595353868271
 30
0.0
 10
5.241924709743923
 20
6.454595353868271
 30
0.0
 10
5.241924709743923
 20
6.454595353868271
 30
0.0
 10
5.137772030300563
 20
6.429984622531466
 30
0.0
 10
5.137772030300563
 20
6.429984622531466
 30
0.0
 10
5.137772030300563
 20
6.429984622531466
 30
0.0
 10
5.034911261664496
 20
6.400442759195962
 30
0.0
 10
5.034911261664496
 20
6.400442759195962
 30
0.0
 10
5.034911261664496
 20
6.400442759195962
 30
0.0
 10
4.933577643500433
 20
6.366026136610242
 30
0.0
 10
4.933577643500433
 20
6.366026136610242
 30
0.0
 10
4.933577643500433
 20
6.366026136610242
 30
0.0
 10
4.833994547526041
 20
6.326831817626953
 30
0.0
 10
4.833994547526041
 20
6.326831817626953
 30
0.0
 10
4.833994547526041
 20
6.326831817626953
 30
0.0
 10
4.736383226182725
 20
6.282942877875433
 30
0.0
 10
4.736383226182725
 20
6.282942877875433
 30
0.0
 10
4.736383226182725
 20
6.282942877875433
 30
0.0
 10
4.640980614556206
 20
6.234456804063584
 30
0.0
 10
4.640980614556206
 20
6.234456804063584
 30
0.0
  0
SPLINE
  5
86
330
70
100
AcDbEntity
  8
Layer 1
 62
    18
420
        0
370
    25
100
AcDbSpline
210
0.0
220
0.0
230
1.0
 70
    24
 71
     3
 72
     8
 73
     4
 74
     0
 42
0.0000000001
 43
0.0000000001
 40
0.0
 40
0.0
 40
0.0
 40
0.0
 40
1.0
 40
1.0
 40
1.0
 40
1.0
 10
5.48653581407335
 20
6.003845638699001
 30
0.0
 10
5.48653581407335
 20
6.003845638699001
 30
0.0
 10
5.48653581407335
 20
6.458998362223306
 30
0.0
 10
5.48653581407335
 20
6.458998362223306
 30
0.0
  0
SPLINE
  5
87
330
70
100
AcDbEntity
  8
Layer 1
 62
    18
420
        0
370
    25
100
AcDbSpline
210
0.0
220
0.0
230
1.0
 70
    24
 71
     3
 72
     8
 73
     4
 74
     0
 42
0.0000000001
 43
0.0000000001
 40
0.0
 40
0.0
 40
0.0
 40
0.0
 40
1.0
 40
1.0
 40
1.0
 40
1.0
 10
5.92296642727322
 20
6.459373474121093
 30
0.0
 10
5.92296642727322
 20
6.459373474121093
 30
0.0
 10
5.92296642727322
 20
6.004776000976562
 30
0.0
 10
5.92296642727322
 20
6.004776000976562
 30
0.0
  0
SPLINE
  5
88
330
70
100
AcDbEntity
  8
Layer 1
 62
    18
420
        0
370
    25
100
AcDbSpline
210
0.0
220
0.0
230
1.0
 70
     8
 71
     3
 72
    29
 73
    25
 74
     0
 42
0.0000000001
 43
0.0000000001
 40
0.0
 40
0.0
 40
0.0
 40
0.0
 40
1.0
 40
1.0
 40
1.0
 40
2.0
 40
2.0
 40
2.0
 40
3.0
 40
3.0
 40
3.0
 40
4.0
 40
4.0
 40
4.0
 40
5.0
 40
5.0
 40
5.0
 40
6.0
 40
6.0
 40
6.0
 40
7.0
 40
7.0
 40
7.0
 40
8.0
 40
8.0
 40
8.0
 40
8.0
 10
6.771869235568575
 20
6.234442816840277
 30
0.0
 10
6.771869235568575
 20
6.234442816840277
 30
0.0
 10
6.676077524820962
 20
6.283123440212673
 30
0.0
 10
6.676077524820962
 20
6.283123440212673
 30
0.0
 10
6.676077524820962
 20
6.283123440212673
 30
0.0
 10
6.578077528211805
 20
6.327164967854817
 30
0.0
 10
6.578077528211805
 20
6.327164967854817
 30
0.0
 10
6.578077528211805
 20
6.327164967854817
 30
0.0
 10
6.478077782524955
 20
6.366470336914062
 30
0.0
 10
6.478077782524955
 20
6.366470336914062
 30
0.0
 10
6.478077782524955
 20
6.366470336914062
 30
0.0
 10
6.376299964057074
 20
6.400942908393012
 30
0.0
 10
6.376299964057074
 20
6.400942908393012
 30
0.0
 10
6.376299964057074
 20
6.400942908393012
 30
0.0
 10
6.27300813462999
 20
6.430525885687933
 30
0.0
 10
6.27300813462999
 20
6.430525885687933
 30
0.0
 10
6.27300813462999
 20
6.430525885687933
 30
0.0
 10
6.16841083102756
 20
6.455123477511935
 30
0.0
 10
6.16841083102756
 20
6.455123477511935
 30
0.0
 10
6.16841083102756
 20
6.455123477511935
 30
0.0
 10
6.062758127848306
 20
6.474692874484591
 30
0.0
 10
6.062758127848306
 20
6.474692874484591
 30
0.0
 10
6.062758127848306
 20
6.474692874484591
 30
0.0
 10
5.956300099690754
 20
6.489192962646484
 30
0.0
 10
5.956300099690754
 20
6.489192962646484
 30
0.0
  0
SPLINE
  5
89
330
70
100
AcDbEntity
  8
Layer 1
 62
    18
420
        0
370
    25
100
AcDbSpline
210
0.0
220
0.0
230
1.0
 70
     8
 71
     3
 72
    29
 73
    25
 74
     0
 42
0.0000000001
 43
0.0000000001
 40
0.0
 40
0.0
 40
0.0
 40
0.0
 40
1.0
 40
1.0
 40
1.0
 40
2.0
 40
2.0
 40
2.0
 40
3.0
 40
3.0
 40
3.0
 40
4.0
 40
4.0
 40
4.0
 40
5.0
 40
5.0
 40
5.0
 40
6.0
 40
6.0
 40
6.0
 40
7.0
 40
7.0
 40
7.0
 40
8.0
 40
8.0
 40
8.0
 40
8.0
 10
6.783827887641058
 20
6.19081793891059
 30
0.0
 10
6.783827887641058
 20
6.19081793891059
 30
0.0
 10
6.786508348253037
 20
6.19652599758572
 30
0.0
 10
6.786508348253037
 20
6.19652599758572
 30
0.0
 10
6.786508348253037
 20
6.19652599758572
 30
0.0
 10
6.788008371988931
 20
6.202651129828558
 30
0.0
 10
6.788008371988931
 20
6.202651129828558
 30
0.0
 10
6.788008371988931
 20
6.202651129828558
 30
0.0
 10
6.788230472140841
 20
6.208970387776692
 30
0.0
 10
6.788230472140841
 20
6.208970387776692
 30
0.0
 10
6.788230472140841
 20
6.208970387776692
 30
0.0
 10
6.787188635932074
 20
6.215192582872178
 30
0.0
 10
6.787188635932074
 20
6.215192582872178
 30
0.0
 10
6.787188635932074
 20
6.215192582872178
 30
0.0
 10
6.784910837809244
 20
6.2210816277398
 30
0.0
 10
6.784910837809244
 20
6.2210816277398
 30
0.0
 10
6.784910837809244
 20
6.2210816277398
 30
0.0
 10
6.781508127848306
 20
6.226387023925781
 30
0.0
 10
6.781508127848306
 20
6.226387023925781
 30
0.0
 10
6.781508127848306
 20
6.226387023925781
 30
0.0
 10
6.777091556125216
 20
6.230915069580078
 30
0.0
 10
6.777091556125216
 20
6.230915069580078
 30
0.0
 10
6.777091556125216
 20
6.230915069580078
 30
0.0
 10
6.771869235568575
 20
6.234442816840277
 30
0.0
 10
6.771869235568575
 20
6.234442816840277
 30
0.0
  0
SPLINE
  5
8A
330
70
100
AcDbEntity
  8
Layer 1
 62
    18
420
        0
370
    25
100
AcDbSpline
210
0.0
220
0.0
230
1.0
 70
    24
 71
     3
 72
     8
 73
     4
 74
     0
 42
0.0000000001
 43
0.0000000001
 40
0.0
 40
0.0
 40
0.0
 40
0.0
 40
1.0
 40
1.0
 40
1.0
 40
1.0
 10
6.725383334689669
 20
6.0937622918023
 30
0.0
 10
6.725383334689669
 20
6.0937622918023
 30
0.0
 10
6.783827887641058
 20
6.19081793891059
 30
0.0
 10
6.783827887641058
 20
6.19081793891059
 30
0.0
  0
SPLINE
  5
8B
330
70
100
AcDbEntity
  8
Layer 1
 62
    18
420
        0
370
    25
100
AcDbSpline
210
0.0
220
0.0
230
1.0
 70
     8
 71
     3
 72
    41
 73
    37
 74
     0
 42
0.0000000001
 43
0.0000000001
 40
0.0
 40
0.0
 40
0.0
 40
0.0
 40
1.0
 40
1.0
 40
1.0
 40
2.0
 40
2.0
 40
2.0
 40
3.0
 40
3.0
 40
3.0
 40
4.0
 40
4.0
 40
4.0
 40
5.0
 40
5.0
 40
5.0
 40
6.0
 40
6.0
 40
6.0
 40
7.0
 40
7.0
 40
7.0
 40
8.0
 40
8.0
 40
8.0
 40
9.0
 40
9.0
 40
9.0
 40
10.0
 40
10.0
 40
10.0
 40
11.0
 40
11.0
 40
11.0
 40
12.0
 40
12.0
 40
12.0
 40
12.0
 10
6.853883107503254
 20
6.016387091742621
 30
0.0
 10
6.853883107503254
 20
6.016387091742621
 30
0.0
 10
6.8416748046875
 20
6.001067691379122
 30
0.0
 10
6.8416748046875
 20
6.001067691379122
 30
0.0
 10
6.8416748046875
 20
6.001067691379122
 30
0.0
 10
6.825924767388237
 20
5.989442613389756
 30
0.0
 10
6.825924767388237
 20
5.989442613389756
 30
0.0
 10
6.825924767388237
 20
5.989442613389756
 30
0.0
 10
6.80770280626085
 20
5.982290056016709
 30
0.0
 10
6.80770280626085
 20
5.982290056016709
 30
0.0
 10
6.80770280626085
 20
5.982290056016709
 30
0.0
 10
6.788244459364149
 20
5.980081770155164
 30
0.0
 10
6.788244459364149
 20
5.980081770155164
 30
0.0
 10
6.788244459364149
 20
5.980081770155164
 30
0.0
 10
6.768883175320095
 20
5.98299831814236
 30
0.0
 10
6.768883175320095
 20
5.98299831814236
 30
0.0
 10
6.768883175320095
 20
5.98299831814236
 30
0.0
 10
6.750938839382595
 20
5.990817599826388
 30
0.0
 10
6.750938839382595
 20
5.990817599826388
 30
0.0
 10
6.750938839382595
 20
5.990817599826388
 30
0.0
 10
6.735633426242404
 20
6.003025902642144
 30
0.0
 10
6.735633426242404
 20
6.003025902642144
 30
0.0
 10
6.735633426242404
 20
6.003025902642144
 30
0.0
 10
6.72399436102973
 20
6.018775939941406
 30
0.0
 10
6.72399436102973
 20
6.018775939941406
 30
0.0
 10
6.72399436102973
 20
6.018775939941406
 30
0.0
 10
6.716841379801431
 20
6.036998324924044
 30
0.0
 10
6.716841379801431
 20
6.036998324924044
 30
0.0
 10
6.716841379801431
 20
6.036998324924044
 30
0.0
 10
6.714647081163193
 20
6.056456671820746
 30
0.0
 10
6.714647081163193
 20
6.056456671820746
 30
0.0
 10
6.714647081163193
 20
6.056456671820746
 30
0.0
 10
6.717550065782334
 20
6.0758179558648
 30
0.0
 10
6.717550065782334
 20
6.0758179558648
 30
0.0
 10
6.717550065782334
 20
6.0758179558648
 30
0.0
 10
6.725383334689669
 20
6.0937622918023
 30
0.0
 10
6.725383334689669
 20
6.0937622918023
 30
0.0
  0
SPLINE
  5
8C
330
70
100
AcDbEntity
  8
Layer 1
 62
    18
420
        0
370
    25
100
AcDbSpline
210
0.0
220
0.0
230
1.0
 70
    24
 71
     3
 72
     8
 73
     4
 74
     0
 42
0.0000000001
 43
0.0000000001
 40
0.0
 40
0.0
 40
0.0
 40
0.0
 40
1.0
 40
1.0
 40
1.0
 40
1.0
 10
6.903661092122395
 20
6.099053700764973
 30
0.0
 10
6.903661092122395
 20
6.099053700764973
 30
0.0
 10
6.853883107503254
 20
6.016387091742621
 30
0.0
 10
6.853883107503254
 20
6.016387091742621
 30
0.0
  0
SPLINE
  5
8D
330
70
100
AcDbEntity
  8
Layer 1
 62
    18
420
        0
370
    25
100
AcDbSpline
210
0.0
220
0.0
230
1.0
 70
     8
 71
     3
 72
    29
 73
    25
 74
     0
 42
0.0000000001
 43
0.0000000001
 40
0.0
 40
0.0
 40
0.0
 40
0.0
 40
1.0
 40
1.0
 40
1.0
 40
2.0
 40
2.0
 40
2.0
 40
3.0
 40
3.0
 40
3.0
 40
4.0
 40
4.0
 40
4.0
 40
5.0
 40
5.0
 40
5.0
 40
6.0
 40
6.0
 40
6.0
 40
7.0
 40
7.0
 40
7.0
 40
8.0
 40
8.0
 40
8.0
 40
8.0
 10
6.952813890245225
 20
6.104748196072048
 30
0.0
 10
6.952813890245225
 20
6.104748196072048
 30
0.0
 10
6.94729995727539
 20
6.10924826727973
 30
0.0
 10
6.94729995727539
 20
6.10924826727973
 30
0.0
 10
6.94729995727539
 20
6.10924826727973
 30
0.0
 10
6.940911187065971
 20
6.112387339274087
 30
0.0
 10
6.940911187065971
 20
6.112387339274087
 30
0.0
 10
6.940911187065971
 20
6.112387339274087
 30
0.0
 10
6.933966742621527
 20
6.113984425862629
 30
0.0
 10
6.933966742621527
 20
6.113984425862629
 30
0.0
 10
6.933966742621527
 20
6.113984425862629
 30
0.0
 10
6.926841735839843
 20
6.113984425862629
 30
0.0
 10
6.926841735839843
 20
6.113984425862629
 30
0.0
 10
6.926841735839843
 20
6.113984425862629
 30
0.0
 10
6.919910854763454
 20
6.112359364827473
 30
0.0
 10
6.919910854763454
 20
6.112359364827473
 30
0.0
 10
6.919910854763454
 20
6.112359364827473
 30
0.0
 10
6.913522084554036
 20
6.109220716688367
 30
0.0
 10
6.913522084554036
 20
6.109220716688367
 30
0.0
 10
6.913522084554036
 20
6.109220716688367
 30
0.0
 10
6.9080081515842
 20
6.104706658257378
 30
0.0
 10
6.9080081515842
 20
6.104706658257378
 30
0.0
 10
6.9080081515842
 20
6.104706658257378
 30
0.0
 10
6.903661092122395
 20
6.099053700764973
 30
0.0
 10
6.903661092122395
 20
6.099053700764973
 30
0.0
  0
SPLINE
  5
8E
330
70
100
AcDbEntity
  8
Layer 1
 62
    18
420
        0
370
    25
100
AcDbSpline
210
0.0
220
0.0
230
1.0
 70
     8
 71
     3
 72
    32
 73
    28
 74
     0
 42
0.0000000001
 43
0.0000000001
 40
0.0
 40
0.0
 40
0.0
 40
0.0
 40
1.0
 40
1.0
 40
1.0
 40
2.0
 40
2.0
 40
2.0
 40
3.0
 40
3.0
 40
3.0
 40
4.0
 40
4.0
 40
4.0
 40
5.0
 40
5.0
 40
5.0
 40
6.0
 40
6.0
 40
6.0
 40
7.0
 40
7.0
 40
7.0
 40
8.0
 40
8.0
 40
8.0
 40
9.0
 40
9.0
 40
9.0
 40
9.0
 10
7.158647325303818
 20
5.607831743028428
 30
0.0
 10
7.158647325303818
 20
5.607831743028428
 30
0.0
 10
7.155271742078992
 20
5.668942769368489
 30
0.0
 10
7.155271742078992
 20
5.668942769368489
 30
0.0
 10
7.155271742078992
 20
5.668942769368489
 30
0.0
 10
7.146743774414062
 20
5.729554070366753
 30
0.0
 10
7.146743774414062
 20
5.729554070366753
 30
0.0
 10
7.146743774414062
 20
5.729554070366753
 30
0.0
 10
7.133160909016926
 20
5.789220598008896
 30
0.0
 10
7.133160909016926
 20
5.789220598008896
 30
0.0
 10
7.133160909016926
 20
5.789220598008896
 30
0.0
 10
7.114591810438367
 20
5.847540113661024
 30
0.0
 10
7.114591810438367
 20
5.847540113661024
 30
0.0
 10
7.114591810438367
 20
5.847540113661024
 30
0.0
 10
7.091161092122395
 20
5.904095543755425
 30
0.0
 10
7.091161092122395
 20
5.904095543755425
 30
0.0
 10
7.091161092122395
 20
5.904095543755425
 30
0.0
 10
7.063063727484808
 20
5.958456675211587
 30
0.0
 10
7.063063727484808
 20
5.958456675211587
 30
0.0
 10
7.063063727484808
 20
5.958456675211587
 30
0.0
 10
7.030480702718098
 20
6.010262383355034
 30
0.0
 10
7.030480702718098
 20
6.010262383355034
 30
0.0
 10
7.030480702718098
 20
6.010262383355034
 30
0.0
 10
6.993647257486978
 20
6.059151119656032
 30
0.0
 10
6.993647257486978
 20
6.059151119656032
 30
0.0
 10
6.993647257486978
 20
6.059151119656032
 30
0.0
 10
6.952813890245225
 20
6.104748196072048
 30
0.0
 10
6.952813890245225
 20
6.104748196072048
 30
0.0
  0
SPLINE
  5
8F
330
70
100
AcDbEntity
  8
Layer 1
 62
    18
420
        0
370
    25
100
AcDbSpline
210
0.0
220
0.0
230
1.0
 70
    24
 71
     3
 72
     8
 73
     4
 74
     0
 42
0.0000000001
 43
0.0000000001
 40
0.0
 40
0.0
 40
0.0
 40
0.0
 40
1.0
 40
1.0
 40
1.0
 40
1.0
 10
7.158647325303818
 20
4.7476929558648
 30
0.0
 10
7.158647325303818
 20
4.7476929558648
 30
0.0
 10
7.158647325303818
 20
5.607831743028428
 30
0.0
 10
7.158647325303818
 20
5.607831743028428
 30
0.0
  0
SPLINE
  5
90
330
70
100
AcDbEntity
  8
Layer 1
 62
    18
420
        0
370
    25
100
AcDbSpline
210
0.0
220
0.0
230
1.0
 70
     8
 71
     3
 72
    32
 73
    28
 74
     0
 42
0.0000000001
 43
0.0000000001
 40
0.0
 40
0.0
 40
0.0
 40
0.0
 40
1.0
 40
1.0
 40
1.0
 40
2.0
 40
2.0
 40
2.0
 40
3.0
 40
3.0
 40
3.0
 40
4.0
 40
4.0
 40
4.0
 40
5.0
 40
5.0
 40
5.0
 40
6.0
 40
6.0
 40
6.0
 40
7.0
 40
7.0
 40
7.0
 40
8.0
 40
8.0
 40
8.0
 40
9.0
 40
9.0
 40
9.0
 40
9.0
 10
6.734091440836587
 20
3.77130381266276
 30
0.0
 10
6.734091440836587
 20
3.77130381266276
 30
0.0
 10
6.819813622368705
 20
3.85916519165039
 30
0.0
 10
6.819813622368705
 20
3.85916519165039
 30
0.0
 10
6.819813622368705
 20
3.85916519165039
 30
0.0
 10
6.896647135416666
 20
3.953887091742621
 30
0.0
 10
6.896647135416666
 20
3.953887091742621
 30
0.0
 10
6.896647135416666
 20
3.953887091742621
 30
0.0
 10
6.964605543348524
 20
4.055290222167968
 30
0.0
 10
6.964605543348524
 20
4.055290222167968
 30
0.0
 10
6.964605543348524
 20
4.055290222167968
 30
0.0
 10
7.023424784342447
 20
4.163262261284722
 30
0.0
 10
7.023424784342447
 20
4.163262261284722
 30
0.0
 10
7.023424784342447
 20
4.163262261284722
 30
0.0
 10
7.072063869900173
 20
4.275789896647134
 30
0.0
 10
7.072063869900173
 20
4.275789896647134
 30
0.0
 10
7.072063869900173
 20
4.275789896647134
 30
0.0
 10
7.109369489881727
 20
4.389442867702907
 30
0.0
 10
7.109369489881727
 20
4.389442867702907
 30
0.0
 10
7.109369489881727
 20
4.389442867702907
 30
0.0
 10
7.136341518825954
 20
4.50652609931098
 30
0.0
 10
7.136341518825954
 20
4.50652609931098
 30
0.0
 10
7.136341518825954
 20
4.50652609931098
 30
0.0
 10
7.152897304958766
 20
4.626567840576171
 30
0.0
 10
7.152897304958766
 20
4.626567840576171
 30
0.0
 10
7.152897304958766
 20
4.626567840576171
 30
0.0
 10
7.158647325303818
 20
4.7476929558648
 30
0.0
 10
7.158647325303818
 20
4.7476929558648
 30
0.0
  0
SPLINE
  5
91
330
70
100
AcDbEntity
  8
Layer 1
 62
    18
420
        0
370
    25
100
AcDbSpline
210
0.0
220
0.0
230
1.0
 70
     8
 71
     3
 72
    29
 73
    25
 74
     0
 42
0.0000000001
 43
0.0000000001
 40
0.0
 40
0.0
 40
0.0
 40
0.0
 40
1.0
 40
1.0
 40
1.0
 40
2.0
 40
2.0
 40
2.0
 40
3.0
 40
3.0
 40
3.0
 40
4.0
 40
4.0
 40
4.0
 40
5.0
 40
5.0
 40
5.0
 40
6.0
 40
6.0
 40
6.0
 40
7.0
 40
7.0
 40
7.0
 40
8.0
 40
8.0
 40
8.0
 40
8.0
 10
6.521980285644531
 20
3.605790032280815
 30
0.0
 10
6.521980285644531
 20
3.605790032280815
 30
0.0
 10
6.550077650282117
 20
3.624359554714626
 30
0.0
 10
6.550077650282117
 20
3.624359554714626
 30
0.0
 10
6.550077650282117
 20
3.624359554714626
 30
0.0
 10
6.57774437798394
 20
3.643553839789496
 30
0.0
 10
6.57774437798394
 20
3.643553839789496
 30
0.0
 10
6.57774437798394
 20
3.643553839789496
 30
0.0
 10
6.604966481526692
 20
3.663373311360676
 30
0.0
 10
6.604966481526692
 20
3.663373311360676
 30
0.0
 10
6.604966481526692
 20
3.663373311360676
 30
0.0
 10
6.631744384765625
 20
3.683789994981553
 30
0.0
 10
6.631744384765625
 20
3.683789994981553
 30
0.0
 10
6.631744384765625
 20
3.683789994981553
 30
0.0
 10
6.658063676622178
 20
3.704803890652126
 30
0.0
 10
6.658063676622178
 20
3.704803890652126
 30
0.0
 10
6.658063676622178
 20
3.704803890652126
 30
0.0
 10
6.683897230360242
 20
3.726401011149088
 30
0.0
 10
6.683897230360242
 20
3.726401011149088
 30
0.0
 10
6.683897230360242
 20
3.726401011149088
 30
0.0
 10
6.709244198269313
 20
3.748567793104383
 30
0.0
 10
6.709244198269313
 20
3.748567793104383
 30
0.0
 10
6.709244198269313
 20
3.748567793104383
 30
0.0
 10
6.734091440836587
 20
3.77130381266276
 30
0.0
 10
6.734091440836587
 20
3.77130381266276
 30
0.0
  0
SPLINE
  5
92
330
70
100
AcDbEntity
  8
Layer 1
 62
    18
420
        0
370
    25
100
AcDbSpline
210
0.0
220
0.0
230
1.0
 70
    24
 71
     3
 72
     8
 73
     4
 74
     0
 42
0.0000000001
 43
0.0000000001
 40
0.0
 40
0.0
 40
0.0
 40
0.0
 40
1.0
 40
1.0
 40
1.0
 40
1.0
 10
6.113091362847222
 20
3.341915130615234
 30
0.0
 10
6.113091362847222
 20
3.341915130615234
 30
0.0
 10
6.521980285644531
 20
3.605790032280815
 30
0.0
 10
6.521980285644531
 20
3.605790032280815
 30
0.0
  0
SPLINE
  5
93
330
70
100
AcDbEntity
  8
Layer 1
 62
    18
420
        0
370
    25
100
AcDbSpline
210
0.0
220
0.0
230
1.0
 70
     8
 71
     3
 72
    29
 73
    25
 74
     0
 42
0.0000000001
 43
0.0000000001
 40
0.0
 40
0.0
 40
0.0
 40
0.0
 40
1.0
 40
1.0
 40
1.0
 40
2.0
 40
2.0
 40
2.0
 40
3.0
 40
3.0
 40
3.0
 40
4.0
 40
4.0
 40
4.0
 40
5.0
 40
5.0
 40
5.0
 40
6.0
 40
6.0
 40
6.0
 40
7.0
 40
7.0
 40
7.0
 40
8.0
 40
8.0
 40
8.0
 40
8.0
 10
5.817299736870659
 20
3.230331844753688
 30
0.0
 10
5.817299736870659
 20
3.230331844753688
 30
0.0
 10
5.856508043077256
 20
3.237262301974826
 30
0.0
 10
5.856508043077256
 20
3.237262301974826
 30
0.0
 10
5.856508043077256
 20
3.237262301974826
 30
0.0
 10
5.895286136203341
 20
3.24626244439019
 30
0.0
 10
5.895286136203341
 20
3.24626244439019
 30
0.0
 10
5.895286136203341
 20
3.24626244439019
 30
0.0
 10
5.933536105685763
 20
3.257304085625542
 30
0.0
 10
5.933536105685763
 20
3.257304085625542
 30
0.0
 10
5.933536105685763
 20
3.257304085625542
 30
0.0
 10
5.971146901448567
 20
3.270359675089518
 30
0.0
 10
5.971146901448567
 20
3.270359675089518
 30
0.0
 10
5.971146901448567
 20
3.270359675089518
 30
0.0
 10
6.008008321126301
 20
3.285401238335503
 30
0.0
 10
6.008008321126301
 20
3.285401238335503
 30
0.0
 10
6.008008321126301
 20
3.285401238335503
 30
0.0
 10
6.044022030300563
 20
3.302373462253146
 30
0.0
 10
6.044022030300563
 20
3.302373462253146
 30
0.0
 10
6.044022030300563
 20
3.302373462253146
 30
0.0
 10
6.079091389973958
 20
3.32122082180447
 30
0.0
 10
6.079091389973958
 20
3.32122082180447
 30
0.0
 10
6.079091389973958
 20
3.32122082180447
 30
0.0
 10
6.113091362847222
 20
3.341915130615234
 30
0.0
 10
6.113091362847222
 20
3.341915130615234
 30
0.0
  0
SPLINE
  5
94
330
70
100
AcDbEntity
  8
Layer 1
 62
    18
420
        0
370
    25
100
AcDbSpline
210
0.0
220
0.0
230
1.0
 70
     8
 71
     3
 72
    29
 73
    25
 74
     0
 42
0.0000000001
 43
0.0000000001
 40
0.0
 40
0.0
 40
0.0
 40
0.0
 40
1.0
 40
1.0
 40
1.0
 40
2.0
 40
2.0
 40
2.0
 40
3.0
 40
3.0
 40
3.0
 40
4.0
 40
4.0
 40
4.0
 40
5.0
 40
5.0
 40
5.0
 40
6.0
 40
6.0
 40
6.0
 40
7.0
 40
7.0
 40
7.0
 40
8.0
 40
8.0
 40
8.0
 40
8.0
 10
5.781425052218966
 20
3.261234707302516
 30
0.0
 10
5.781425052218966
 20
3.261234707302516
 30
0.0
 10
5.782147301567925
 20
3.254581875271266
 30
0.0
 10
5.782147301567925
 20
3.254581875271266
 30
0.0
 10
5.782147301567925
 20
3.254581875271266
 30
0.0
 10
5.784272087944878
 20
3.248220655653211
 30
0.0
 10
5.784272087944878
 20
3.248220655653211
 30
0.0
 10
5.784272087944878
 20
3.248220655653211
 30
0.0
 10
5.78770277235243
 20
3.242456860012477
 30
0.0
 10
5.78770277235243
 20
3.242456860012477
 30
0.0
 10
5.78770277235243
 20
3.242456860012477
 30
0.0
 10
5.792285919189453
 20
3.237567901611328
 30
0.0
 10
5.792285919189453
 20
3.237567901611328
 30
0.0
 10
5.792285919189453
 20
3.237567901611328
 30
0.0
 10
5.797799852159287
 20
3.233762317233615
 30
0.0
 10
5.797799852159287
 20
3.233762317233615
 30
0.0
 10
5.797799852159287
 20
3.233762317233615
 30
0.0
 10
5.803994496663411
 20
3.231220669216579
 30
0.0
 10
5.803994496663411
 20
3.231220669216579
 30
0.0
 10
5.803994496663411
 20
3.231220669216579
 30
0.0
 10
5.810605367024739
 20
3.230054007636176
 30
0.0
 10
5.810605367024739
 20
3.230054007636176
 30
0.0
 10
5.810605367024739
 20
3.230054007636176
 30
0.0
 10
5.817299736870659
 20
3.230331844753688
 30
0.0
 10
5.817299736870659
 20
3.230331844753688
 30
0.0
  0
SPLINE
  5
95
330
70
100
AcDbEntity
  8
Layer 1
 62
    18
420
        0
370
    25
100
AcDbSpline
210
0.0
220
0.0
230
1.0
 70
    24
 71
     3
 72
     8
 73
     4
 74
     0
 42
0.0000000001
 43
0.0000000001
 40
0.0
 40
0.0
 40
0.0
 40
0.0
 40
1.0
 40
1.0
 40
1.0
 40
1.0
 10
5.781425052218966
 20
3.303401311238606
 30
0.0
 10
5.781425052218966
 20
3.303401311238606
 30
0.0
 10
5.781425052218966
 20
3.261234707302516
 30
0.0
 10
5.781425052218966
 20
3.261234707302516
 30
0.0
  0
SPLINE
  5
96
330
70
100
AcDbEntity
  8
Layer 1
 62
    18
420
        0
370
    25
100
AcDbSpline
210
0.0
220
0.0
230
1.0
 70
     8
 71
     3
 72
    41
 73
    37
 74
     0
 42
0.0000000001
 43
0.0000000001
 40
0.0
 40
0.0
 40
0.0
 40
0.0
 40
1.0
 40
1.0
 40
1.0
 40
2.0
 40
2.0
 40
2.0
 40
3.0
 40
3.0
 40
3.0
 40
4.0
 40
4.0
 40
4.0
 40
5.0
 40
5.0
 40
5.0
 40
6.0
 40
6.0
 40
6.0
 40
7.0
 40
7.0
 40
7.0
 40
8.0
 40
8.0
 40
8.0
 40
9.0
 40
9.0
 40
9.0
 40
10.0
 40
10.0
 40
10.0
 40
11.0
 40
11.0
 40
11.0
 40
12.0
 40
12.0
 40
12.0
 40
12.0
 10
5.631424797905816
 20
3.303401311238606
 30
0.0
 10
5.631424797905816
 20
3.303401311238606
 30
0.0
 10
5.633980645073784
 20
3.32280413309733
 30
0.0
 10
5.633980645073784
 20
3.32280413309733
 30
0.0
 10
5.633980645073784
 20
3.32280413309733
 30
0.0
 10
5.641480339898003
 20
3.340901268853081
 30
0.0
 10
5.641480339898003
 20
3.340901268853081
 30
0.0
 10
5.641480339898003
 20
3.340901268853081
 30
0.0
 10
5.653397030300563
 20
3.356428994072807
 30
0.0
 10
5.653397030300563
 20
3.356428994072807
 30
0.0
 10
5.653397030300563
 20
3.356428994072807
 30
0.0
 10
5.668924967447916
 20
3.368345684475368
 30
0.0
 10
5.668924967447916
 20
3.368345684475368
 30
0.0
 10
5.668924967447916
 20
3.368345684475368
 30
0.0
 10
5.687022315131293
 20
3.375845803154839
 30
0.0
 10
5.687022315131293
 20
3.375845803154839
 30
0.0
 10
5.687022315131293
 20
3.375845803154839
 30
0.0
 10
5.706424713134765
 20
3.378401226467556
 30
0.0
 10
5.706424713134765
 20
3.378401226467556
 30
0.0
 10
5.706424713134765
 20
3.378401226467556
 30
0.0
 10
5.725841522216796
 20
3.375845803154839
 30
0.0
 10
5.725841522216796
 20
3.375845803154839
 30
0.0
 10
5.725841522216796
 20
3.375845803154839
 30
0.0
 10
5.743924882676865
 20
3.368345684475368
 30
0.0
 10
5.743924882676865
 20
3.368345684475368
 30
0.0
 10
5.743924882676865
 20
3.368345684475368
 30
0.0
 10
5.759466383192274
 20
3.356428994072807
 30
0.0
 10
5.759466383192274
 20
3.356428994072807
 30
0.0
 10
5.759466383192274
 20
3.356428994072807
 30
0.0
 10
5.771383073594834
 20
3.340901268853081
 30
0.0
 10
5.771383073594834
 20
3.340901268853081
 30
0.0
 10
5.771383073594834
 20
3.340901268853081
 30
0.0
 10
5.778869205050997
 20
3.32280413309733
 30
0.0
 10
5.778869205050997
 20
3.32280413309733
 30
0.0
 10
5.778869205050997
 20
3.32280413309733
 30
0.0
 10
5.781425052218966
 20
3.303401311238606
 30
0.0
 10
5.781425052218966
 20
3.303401311238606
 30
0.0
  0
SPLINE
  5
97
330
70
100
AcDbEntity
  8
Layer 1
 62
    18
420
        0
370
    25
100
AcDbSpline
210
0.0
220
0.0
230
1.0
 70
    24
 71
     3
 72
     8
 73
     4
 74
     0
 42
0.0000000001
 43
0.0000000001
 40
0.0
 40
0.0
 40
0.0
 40
0.0
 40
1.0
 40
1.0
 40
1.0
 40
1.0
 10
5.631424797905816
 20
3.261234707302516
 30
0.0
 10
5.631424797905816
 20
3.261234707302516
 30
0.0
 10
5.631424797905816
 20
3.303401311238606
 30
0.0
 10
5.631424797905816
 20
3.303401311238606
 30
0.0
  0
SPLINE
  5
98
330
70
100
AcDbEntity
  8
Layer 1
 62
    18
420
        0
370
    25
100
AcDbSpline
210
0.0
220
0.0
230
1.0
 70
     8
 71
     3
 72
    29
 73
    25
 74
     0
 42
0.0000000001
 43
0.0000000001
 40
0.0
 40
0.0
 40
0.0
 40
0.0
 40
1.0
 40
1.0
 40
1.0
 40
2.0
 40
2.0
 40
2.0
 40
3.0
 40
3.0
 40
3.0
 40
4.0
 40
4.0
 40
4.0
 40
5.0
 40
5.0
 40
5.0
 40
6.0
 40
6.0
 40
6.0
 40
7.0
 40
7.0
 40
7.0
 40
8.0
 40
8.0
 40
8.0
 40
8.0
 10
5.595563676622178
 20
3.230331844753688
 30
0.0
 10
5.595563676622178
 20
3.230331844753688
 30
0.0
 10
5.602258046468098
 20
3.230054007636176
 30
0.0
 10
5.602258046468098
 20
3.230054007636176
 30
0.0
 10
5.602258046468098
 20
3.230054007636176
 30
0.0
 10
5.608855353461371
 20
3.231220669216579
 30
0.0
 10
5.608855353461371
 20
3.231220669216579
 30
0.0
 10
5.608855353461371
 20
3.231220669216579
 30
0.0
 10
5.615063985188801
 20
3.233762317233615
 30
0.0
 10
5.615063985188801
 20
3.233762317233615
 30
0.0
 10
5.615063985188801
 20
3.233762317233615
 30
0.0
 10
5.620577494303384
 20
3.237567901611328
 30
0.0
 10
5.620577494303384
 20
3.237567901611328
 30
0.0
 10
5.620577494303384
 20
3.237567901611328
 30
0.0
 10
5.625161064995659
 20
3.242456860012477
 30
0.0
 10
5.625161064995659
 20
3.242456860012477
 30
0.0
 10
5.625161064995659
 20
3.242456860012477
 30
0.0
 10
5.628591749403211
 20
3.248220655653211
 30
0.0
 10
5.628591749403211
 20
3.248220655653211
 30
0.0
 10
5.628591749403211
 20
3.248220655653211
 30
0.0
 10
5.630702548556857
 20
3.254581875271266
 30
0.0
 10
5.630702548556857
 20
3.254581875271266
 30
0.0
 10
5.630702548556857
 20
3.254581875271266
 30
0.0
 10
5.631424797905816
 20
3.261234707302516
 30
0.0
 10
5.631424797905816
 20
3.261234707302516
 30
0.0
  0
SPLINE
  5
99
330
70
100
AcDbEntity
  8
Layer 1
 62
    18
420
        0
370
    25
100
AcDbSpline
210
0.0
220
0.0
230
1.0
 70
     8
 71
     3
 72
    29
 73
    25
 74
     0
 42
0.0000000001
 43
0.0000000001
 40
0.0
 40
0.0
 40
0.0
 40
0.0
 40
1.0
 40
1.0
 40
1.0
 40
2.0
 40
2.0
 40
2.0
 40
3.0
 40
3.0
 40
3.0
 40
4.0
 40
4.0
 40
4.0
 40
5.0
 40
5.0
 40
5.0
 40
6.0
 40
6.0
 40
6.0
 40
7.0
 40
7.0
 40
7.0
 40
8.0
 40
8.0
 40
8.0
 40
8.0
 10
5.299758063422308
 20
3.341915130615234
 30
0.0
 10
5.299758063422308
 20
3.341915130615234
 30
0.0
 10
5.333772023518879
 20
3.32122082180447
 30
0.0
 10
5.333772023518879
 20
3.32122082180447
 30
0.0
 10
5.333772023518879
 20
3.32122082180447
 30
0.0
 10
5.368827819824218
 20
3.302373462253146
 30
0.0
 10
5.368827819824218
 20
3.302373462253146
 30
0.0
 10
5.368827819824218
 20
3.302373462253146
 30
0.0
 10
5.40484152899848
 20
3.285401238335503
 30
0.0
 10
5.40484152899848
 20
3.285401238335503
 30
0.0
 10
5.40484152899848
 20
3.285401238335503
 30
0.0
 10
5.44171651204427
 20
3.270359675089518
 30
0.0
 10
5.44171651204427
 20
3.270359675089518
 30
0.0
 10
5.44171651204427
 20
3.270359675089518
 30
0.0
 10
5.479327731662325
 20
3.257304085625542
 30
0.0
 10
5.479327731662325
 20
3.257304085625542
 30
0.0
 10
5.479327731662325
 20
3.257304085625542
 30
0.0
 10
5.517577701144747
 20
3.24626244439019
 30
0.0
 10
5.517577701144747
 20
3.24626244439019
 30
0.0
 10
5.517577701144747
 20
3.24626244439019
 30
0.0
 10
5.556355370415581
 20
3.237262301974826
 30
0.0
 10
5.556355370415581
 20
3.237262301974826
 30
0.0
 10
5.556355370415581
 20
3.237262301974826
 30
0.0
 10
5.595563676622178
 20
3.230331844753688
 30
0.0
 10
5.595563676622178
 20
3.230331844753688
 30
0.0
  0
SPLINE
  5
9A
330
70
100
AcDbEntity
  8
Layer 1
 62
    18
420
        0
370
    25
100
AcDbSpline
210
0.0
220
0.0
230
1.0
 70
    24
 71
     3
 72
     8
 73
     4
 74
     0
 42
0.0000000001
 43
0.0000000001
 40
0.0
 40
0.0
 40
0.0
 40
0.0
 40
1.0
 40
1.0
 40
1.0
 40
1.0
 10
4.890869564480251
 20
3.605790032280815
 30
0.0
 10
4.890869564480251
 20
3.605790032280815
 30
0.0
 10
5.299758063422308
 20
3.341915130615234
 30
0.0
 10
5.299758063422308
 20
3.341915130615234
 30
0.0
  0
SPLINE
  5
9B
330
70
100
AcDbEntity
  8
Layer 1
 62
    18
420
        0
370
    25
100
AcDbSpline
210
0.0
220
0.0
230
1.0
 70
     8
 71
     3
 72
    29
 73
    25
 74
     0
 42
0.0000000001
 43
0.0000000001
 40
0.0
 40
0.0
 40
0.0
 40
0.0
 40
1.0
 40
1.0
 40
1.0
 40
2.0
 40
2.0
 40
2.0
 40
3.0
 40
3.0
 40
3.0
 40
4.0
 40
4.0
 40
4.0
 40
5.0
 40
5.0
 40
5.0
 40
6.0
 40
6.0
 40
6.0
 40
7.0
 40
7.0
 40
7.0
 40
8.0
 40
8.0
 40
8.0
 40
8.0
 10
4.675730387369791
 20
3.774137285020616
 30
0.0
 10
4.675730387369791
 20
3.774137285020616
 30
0.0
 10
4.700911204020181
 20
3.75099860297309
 30
0.0
 10
4.700911204020181
 20
3.75099860297309
 30
0.0
 10
4.700911204020181
 20
3.75099860297309
 30
0.0
 10
4.726591746012369
 20
3.728429158528645
 30
0.0
 10
4.726591746012369
 20
3.728429158528645
 30
0.0
 10
4.726591746012369
 20
3.728429158528645
 30
0.0
 10
4.752786000569661
 20
3.70644293891059
 30
0.0
 10
4.752786000569661
 20
3.70644293891059
 30
0.0
 10
4.752786000569661
 20
3.70644293891059
 30
0.0
 10
4.779480404324001
 20
3.685067918565537
 30
0.0
 10
4.779480404324001
 20
3.685067918565537
 30
0.0
 10
4.779480404324001
 20
3.685067918565537
 30
0.0
 10
4.806646982828775
 20
3.664304097493489
 30
0.0
 10
4.806646982828775
 20
3.664304097493489
 30
0.0
 10
4.806646982828775
 20
3.664304097493489
 30
0.0
 10
4.834272172715928
 20
3.6441650390625
 30
0.0
 10
4.834272172715928
 20
3.6441650390625
 30
0.0
 10
4.834272172715928
 20
3.6441650390625
 30
0.0
 10
4.862355550130208
 20
3.62465116712782
 30
0.0
 10
4.862355550130208
 20
3.62465116712782
 30
0.0
 10
4.862355550130208
 20
3.62465116712782
 30
0.0
 10
4.890869564480251
 20
3.605790032280815
 30
0.0
 10
4.890869564480251
 20
3.605790032280815
 30
0.0
  0
SPLINE
  5
9C
330
70
100
AcDbEntity
  8
Layer 1
 62
    18
420
        0
370
    25
100
AcDbSpline
210
0.0
220
0.0
230
1.0
 70
     8
 71
     3
 72
    32
 73
    28
 74
     0
 42
0.0000000001
 43
0.0000000001
 40
0.0
 40
0.0
 40
0.0
 40
0.0
 40
1.0
 40
1.0
 40
1.0
 40
2.0
 40
2.0
 40
2.0
 40
3.0
 40
3.0
 40
3.0
 40
4.0
 40
4.0
 40
4.0
 40
5.0
 40
5.0
 40
5.0
 40
6.0
 40
6.0
 40
6.0
 40
7.0
 40
7.0
 40
7.0
 40
8.0
 40
8.0
 40
8.0
 40
9.0
 40
9.0
 40
9.0
 40
9.0
 10
4.25421651204427
 20
4.7476929558648
 30
0.0
 10
4.25421651204427
 20
4.7476929558648
 30
0.0
 10
4.25979995727539
 20
4.625498453776041
 30
0.0
 10
4.25979995727539
 20
4.625498453776041
 30
0.0
 10
4.25979995727539
 20
4.625498453776041
 30
0.0
 10
4.276424831814235
 20
4.505123562282985
 30
0.0
 10
4.276424831814235
 20
4.505123562282985
 30
0.0
 10
4.276424831814235
 20
4.505123562282985
 30
0.0
 10
4.303952534993489
 20
4.386637369791666
 30
0.0
 10
4.303952534993489
 20
4.386637369791666
 30
0.0
 10
4.303952534993489
 20
4.386637369791666
 30
0.0
 10
4.342494540744357
 20
4.270345475938585
 30
0.0
 10
4.342494540744357
 20
4.270345475938585
 30
0.0
 10
4.342494540744357
 20
4.270345475938585
 30
0.0
 10
4.3912722269694
 20
4.15835952758789
 30
0.0
 10
4.3912722269694
 20
4.15835952758789
 30
0.0
 10
4.3912722269694
 20
4.15835952758789
 30
0.0
 10
4.44859144422743
 20
4.053845723470051
 30
0.0
 10
4.44859144422743
 20
4.053845723470051
 30
0.0
 10
4.44859144422743
 20
4.053845723470051
 30
0.0
 10
4.51542494032118
 20
3.954526265462239
 30
0.0
 10
4.51542494032118
 20
3.954526265462239
 30
0.0
 10
4.51542494032118
 20
3.954526265462239
 30
0.0
 10
4.591508229573567
 20
3.860762278238932
 30
0.0
 10
4.591508229573567
 20
3.860762278238932
 30
0.0
 10
4.591508229573567
 20
3.860762278238932
 30
0.0
 10
4.675730387369791
 20
3.774137285020616
 30
0.0
 10
4.675730387369791
 20
3.774137285020616
 30
0.0
  0
ENDSEC
  0
SECTION
  2
OBJECTS
  0
DICTIONARY
  5
C
330
0
100
AcDbDictionary
281
     1
  3
ACAD_COLOR
350
63
  3
ACAD_DETAILVIEWSTYLE
350
6A
  3
ACAD_GROUP
350
D
  3
ACAD_LAYOUT
350
62
  3
ACAD_MATERIAL
350
10
  3
ACAD_MLEADERSTYLE
350
66
  3
ACAD_MLINESTYLE
350
5F
  3
ACAD_PLOTSETTINGS
350
61
  3
ACAD_PLOTSTYLENAME
350
E
  3
ACAD_SCALELIST
350
42
  3
ACAD_SECTIONVIEWSTYLE
350
68
  3
ACAD_TABLESTYLE
350
64
  3
ACAD_VISUALSTYLE
350
29
  3
ACDB_RECOMPOSE_DATA
350
A5
  3
AcDbVariableDictionary
350
9D
  0
DICTIONARY
  5
63
102
{ACAD_REACTORS
330
C
102
}
330
C
100
AcDbDictionary
281
     1
  0
DICTIONARY
  5
6A
102
{ACAD_REACTORS
330
C
102
}
330
C
100
AcDbDictionary
281
     1
  3
Imperial24
350
6B
  0
DICTIONARY
  5
D
102
{ACAD_REACTORS
330
C
102
}
330
C
100
AcDbDictionary
281
     1
  0
DICTIONARY
  5
62
102
{ACAD_REACTORS
330
C
102
}
330
C
100
AcDbDictionary
281
     1
  3
Layout1
350
6F
  3
Layout2
350
77
  3
Model
350
73
  0
DICTIONARY
  5
10
102
{ACAD_REACTORS
330
C
102
}
330
C
100
AcDbDictionary
281
     1
  3
ByBlock
350
19
  3
ByLayer
350
11
  3
Global
350
21
  0
DICTIONARY
  5
66
102
{ACAD_REACTORS
330
C
102
}
330
C
100
AcDbDictionary
281
     1
  3
Standard
350
67
  0
DICTIONARY
  5
5F
102
{ACAD_REACTORS
330
C
102
}
330
C
100
AcDbDictionary
281
     1
  3
Standard
350
60
  0
DICTIONARY
  5
61
102
{ACAD_REACTORS
330
C
102
}
330
C
100
AcDbDictionary
281
     1
  0
ACDBDICTIONARYWDFLT
  5
E
102
{ACAD_REACTORS
330
C
102
}
330
C
100
AcDbDictionary
281
     1
  3
Normal
350
F
100
AcDbDictionaryWithDefault
340
F
  0
DICTIONARY
  5
42
102
{ACAD_REACTORS
330
C
102
}
330
C
100
AcDbDictionary
281
     1
  3
A0
350
43
  3
A1
350
44
  3
A2
350
45
  3
A3
350
46
  3
A4
350
47
  3
A5
350
48
  3
A6
350
49
  3
A7
350
4A
  3
A8
350
4B
  3
A9
350
4C
  3
B0
350
4D
  3
B1
350
4E
  3
B2
350
4F
  3
B3
350
50
  3
B4
350
51
  3
B5
350
52
  3
B6
350
53
  0
DICTIONARY
  5
68
102
{ACAD_REACTORS
330
C
102
}
330
C
100
AcDbDictionary
281
     1
  3
Imperial24
350
69
  0
DICTIONARY
  5
64
102
{ACAD_REACTORS
330
C
102
}
330
C
100
AcDbDictionary
281
     1
  3
Standard
350
65
  0
DICTIONARY
  5
29
102
{ACAD_REACTORS
330
C
102
}
330
C
100
AcDbDictionary
281
     1
  3
2dWireframe
350
2F
  3
Basic
350
2E
  3
Brighten
350
35
  3
ColorChange
350
39
  3
Conceptual
350
32
  3
Dim
350
34
  3
EdgeColorOff
350
41
  3
Facepattern
350
38
  3
Flat
350
2A
  3
FlatWithEdges
350
2B
  3
Gouraud
350
2C
  3
GouraudWithEdges
350
2D
  3
Hidden
350
31
  3
JitterOff
350
3F
  3
Linepattern
350
37
  3
OverhangOff
350
40
  3
Realistic
350
33
  3
Shaded
350
3E
  3
Shaded with edges
350
3D
  3
Shades of Gray
350
3A
  3
Sketchy
350
3B
  3
Thicken
350
36
  3
Wireframe
350
30
  3
X-Ray
350
3C
  0
XRECORD
  5
A5
102
{ACAD_REACTORS
330
C
102
}
330
C
100
AcDbXrecord
280
     1
 90
        1
330
65
  0
DICTIONARY
  5
9D
102
{ACAD_REACTORS
330
C
102
}
330
C
100
AcDbDictionary
281
     1
  3
CANNOSCALE
350
A2
  3
CMLEADERSTYLE
350
9F
  3
CTABLESTYLE
350
9E
  3
CVIEWDETAILSTYLE
350
A0
  3
CVIEWSECTIONSTYLE
350
A1
  0
ACDBDETAILVIEWSTYLE
  5
6B
102
{ACAD_REACTORS
330
6A
102
}
330
6A
100
AcDbModelDocViewStyle
 70
     0
  3
Imperial24
290
     1
300
Imperial24
 90
        0
100
AcDbDetailViewStyle
 70
     0
 71
     0
 90
        3
 71
     1
340
55
 62
   256
 40
0.24
340
0
 62
   256
 40
0.24
300

 40
0.36
280
     3
 71
     2
340
5D
 90
       25
 62
   256
 71
     3
340
55
 62
   256
 40
0.24
 90
        1
 40
0.75
 90
        1
300
%<\AcVar ViewType \f "%tc1">% %<\AcVar ViewDetailId>%\PSCALE %<\AcVar ViewScale \f "%sn">%
 71
     4
340
5D
 90
       25
 62
   256
340
5D
 90
       25
 62
   256
280
     0
  0
LAYOUT
  5
6F
102
{ACAD_REACTORS
330
62
102
}
330
62
100
AcDbPlotSettings
  1

  2

  4

  6

 40
0.0
 41
0.0
 42
0.0
 43
0.0
 44
0.0
 45
0.0
 46
0.0
 47
0.0
 48
0.0
 49
0.0
140
0.0
141
0.0
142
1.0
143
1.0
 70
   688
 72
     0
 73
     0
 74
     5
  7

 75
    16
147
1.0
 76
     0
 77
     2
 78
   300
148
0.0
149
0.0
100
AcDbLayout
  1
Layout1
 70
     1
 71
     1
 10
0.0
 20
0.0
 11
12.0
 21
9.0
 12
0.0
 22
0.0
 32
0.0
 14
0.0
 24
0.0
 34
0.0
 15
0.0
 25
0.0
 35
0.0
146
0.0
 13
0.0
 23
0.0
 33
0.0
 16
1.0
 26
0.0
 36
0.0
 17
0.0
 27
1.0
 37
0.0
 76
     0
330
6C
  0
LAYOUT
  5
77
102
{ACAD_REACTORS
330
62
102
}
330
62
100
AcDbPlotSettings
  1

  2

  4

  6

 40
0.0
 41
0.0
 42
0.0
 43
0.0
 44
0.0
 45
0.0
 46
0.0
 47
0.0
 48
0.0
 49
0.0
140
0.0
141
0.0
142
1.0
143
1.0
 70
   688
 72
     0
 73
     0
 74
     5
  7

 75
    16
147
1.0
 76
     0
 77
     2
 78
   300
148
0.0
149
0.0
100
AcDbLayout
  1
Layout2
 70
     1
 71
     2
 10
0.0
 20
0.0
 11
12.0
 21
9.0
 12
0.0
 22
0.0
 32
0.0
 14
0.0
 24
0.0
 34
0.0
 15
0.0
 25
0.0
 35
0.0
146
0.0
 13
0.0
 23
0.0
 33
0.0
 16
1.0
 26
0.0
 36
0.0
 17
0.0
 27
1.0
 37
0.0
 76
     0
330
74
  0
LAYOUT
  5
73
102
{ACAD_REACTORS
330
62
102
}
330
62
100
AcDbPlotSettings
  1

  2

  4

  6

 40
0.0
 41
0.0
 42
0.0
 43
0.0
 44
0.0
 45
0.0
 46
0.0
 47
0.0
 48
0.0
 49
0.0
140
0.0
141
0.0
142
1.0
143
1.0
 70
  1712
 72
     0
 73
     0
 74
     0
  7

 75
     0
147
1.0
 76
     0
 77
     2
 78
   300
148
0.0
149
0.0
100
AcDbLayout
  1
Model
 70
     1
 71
     0
 10
0.0
 20
0.0
 11
12.0
 21
9.0
 12
0.0
 22
0.0
 32
0.0
 14
0.0
 24
0.0
 34
0.0
 15
0.0
 25
0.0
 35
0.0
146
0.0
 13
0.0
 23
0.0
 33
0.0
 16
1.0
 26
0.0
 36
0.0
 17
0.0
 27
1.0
 37
0.0
 76
     0
330
70
  0
MATERIAL
  5
19
102
{ACAD_XDICTIONARY
360
1A
102
}
102
{ACAD_REACTORS
330
10
102
}
330
10
100
AcDbMaterial
  1
ByBlock
 72
     0
 43
0.0208333333333333
 43
0.0
 43
0.0
 43
0.0
 43
0.0
 43
0.0208333333333333
 43
0.0
 43
0.0
 43
0.0
 43
0.0
 43
1.0
 43
0.0
 43
0.0
 43
0.0
 43
0.0
 43
1.0
 77
     0
 47
0.0208333333333333
 47
0.0
 47
0.0
 47
0.0
 47
0.0
 47
0.0208333333333333
 47
0.0
 47
0.0
 47
0.0
 47
0.0
 47
1.0
 47
0.0
 47
0.0
 47
0.0
 47
0.0
 47
1.0
171
     0
 49
0.0208333333333333
 49
0.0
 49
0.0
 49
0.0
 49
0.0
 49
0.0208333333333333
 49
0.0
 49
0.0
 49
0.0
 49
0.0
 49
1.0
 49
0.0
 49
0.0
 49
0.0
 49
0.0
 49
1.0
175
     0
142
0.0208333333333333
142
0.0
142
0.0
142
0.0
142
0.0
142
0.0208333333333333
142
0.0
142
0.0
142
0.0
142
0.0
142
1.0
142
0.0
142
0.0
142
0.0
142
0.0
142
1.0
179
     0
144
0.0208333333333333
144
0.0
144
0.0
144
0.0
144
0.0
144
0.0208333333333333
144
0.0
144
0.0
144
0.0
144
0.0
144
1.0
144
0.0
144
0.0
144
0.0
144
0.0
144
1.0
147
0.0208333333333333
147
0.0
147
0.0
147
0.0
147
0.0
147
0.0208333333333333
147
0.0
147
0.0
147
0.0
147
0.0
147
1.0
147
0.0
147
0.0
147
0.0
147
0.0
147
1.0
  0
MATERIAL
  5
11
102
{ACAD_XDICTIONARY
360
12
102
}
102
{ACAD_REACTORS
330
10
102
}
330
10
100
AcDbMaterial
  1
ByLayer
 72
     0
 43
0.0208333333333333
 43
0.0
 43
0.0
 43
0.0
 43
0.0
 43
0.0208333333333333
 43
0.0
 43
0.0
 43
0.0
 43
0.0
 43
1.0
 43
0.0
 43
0.0
 43
0.0
 43
0.0
 43
1.0
 77
     0
 47
0.0208333333333333
 47
0.0
 47
0.0
 47
0.0
 47
0.0
 47
0.0208333333333333
 47
0.0
 47
0.0
 47
0.0
 47
0.0
 47
1.0
 47
0.0
 47
0.0
 47
0.0
 47
0.0
 47
1.0
171
     0
 49
0.0208333333333333
 49
0.0
 49
0.0
 49
0.0
 49
0.0
 49
0.0208333333333333
 49
0.0
 49
0.0
 49
0.0
 49
0.0
 49
1.0
 49
0.0
 49
0.0
 49
0.0
 49
0.0
 49
1.0
175
     0
142
0.0208333333333333
142
0.0
142
0.0
142
0.0
142
0.0
142
0.0208333333333333
142
0.0
142
0.0
142
0.0
142
0.0
142
1.0
142
0.0
142
0.0
142
0.0
142
0.0
142
1.0
179
     0
144
0.0208333333333333
144
0.0
144
0.0
144
0.0
144
0.0
144
0.0208333333333333
144
0.0
144
0.0
144
0.0
144
0.0
144
1.0
144
0.0
144
0.0
144
0.0
144
0.0
144
1.0
147
0.0208333333333333
147
0.0
147
0.0
147
0.0
147
0.0
147
0.0208333333333333
147
0.0
147
0.0
147
0.0
147
0.0
147
1.0
147
0.0
147
0.0
147
0.0
147
0.0
147
1.0
  0
MATERIAL
  5
21
102
{ACAD_XDICTIONARY
360
22
102
}
102
{ACAD_REACTORS
330
10
102
}
330
10
100
AcDbMaterial
  1
Global
 72
     0
 43
0.0208333333333333
 43
0.0
 43
0.0
 43
0.0
 43
0.0
 43
0.0208333333333333
 43
0.0
 43
0.0
 43
0.0
 43
0.0
 43
1.0
 43
0.0
 43
0.0
 43
0.0
 43
0.0
 43
1.0
 77
     0
 47
0.0208333333333333
 47
0.0
 47
0.0
 47
0.0
 47
0.0
 47
0.0208333333333333
 47
0.0
 47
0.0
 47
0.0
 47
0.0
 47
1.0
 47
0.0
 47
0.0
 47
0.0
 47
0.0
 47
1.0
171
     0
 49
0.0208333333333333
 49
0.0
 49
0.0
 49
0.0
 49
0.0
 49
0.0208333333333333
 49
0.0
 49
0.0
 49
0.0
 49
0.0
 49
1.0
 49
0.0
 49
0.0
 49
0.0
 49
0.0
 49
1.0
175
     0
142
0.0208333333333333
142
0.0
142
0.0
142
0.0
142
0.0
142
0.0208333333333333
142
0.0
142
0.0
142
0.0
142
0.0
142
1.0
142
0.0
142
0.0
142
0.0
142
0.0
142
1.0
179
     0
144
0.0208333333333333
144
0.0
144
0.0
144
0.0
144
0.0
144
0.0208333333333333
144
0.0
144
0.0
144
0.0
144
0.0
144
1.0
144
0.0
144
0.0
144
0.0
144
0.0
144
1.0
147
0.0208333333333333
147
0.0
147
0.0
147
0.0
147
0.0
147
0.0208333333333333
147
0.0
147
0.0
147
0.0
147
0.0
147
1.0
147
0.0
147
0.0
147
0.0
147
0.0
147
1.0
  0
MLEADERSTYLE
  5
67
102
{ACAD_REACTORS
330
66
102
}
330
66
100
AcDbMLeaderStyle
179
     2
170
     2
171
     1
172
     0
 90
        2
 40
0.0
 41
0.0
173
     1
 91
-1056964608
340
5B
 92
       -2
290
     1
 42
0.09
291
     1
 43
0.36
  3
Standard
 44
0.18
300

342
55
174
     1
178
     6
175
     1
176
     0
 93
-1056964608
 45
0.18
292
     0
297
     0
 46
0.18
 94
-1056964608
 47
1.0
 49
1.0
140
1.0
293
     1
141
0.0
294
     1
177
     0
142
1.0
295
     1
296
     0
143
0.125
271
     0
272
     9
273
     9
298
     1
  0
MLINESTYLE
  5
60
102
{ACAD_REACTORS
330
5F
102
}
330
5F
100
AcDbMlineStyle
  2
STANDARD
 70
     0
  3

 62
   256
 51
90.0
 52
90.0
 71
     2
 49
0.5
 62
   256
  6
BYLAYER
 49
-0.5
 62
   256
  6
BYLAYER
  0
ACDBPLACEHOLDER
  5
F
102
{ACAD_REACTORS
330
E
102
}
330
E
  0
SCALE
  5
43
102
{ACAD_REACTORS
330
42
102
}
330
42
100
AcDbScale
 70
     0
300
1:1
140
1.0
141
1.0
290
     1
  0
SCALE
  5
44
102
{ACAD_REACTORS
330
42
102
}
330
42
100
AcDbScale
 70
     0
300
1/128" = 1'-0"
140
0.0078125
141
12.0
290
     0
  0
SCALE
  5
45
102
{ACAD_REACTORS
330
42
102
}
330
42
100
AcDbScale
 70
     0
300
1/64" = 1'-0"
140
0.015625
141
12.0
290
     0
  0
SCALE
  5
46
102
{ACAD_REACTORS
330
42
102
}
330
42
100
AcDbScale
 70
     0
300
1/32" = 1'-0"
140
0.03125
141
12.0
290
     0
  0
SCALE
  5
47
102
{ACAD_REACTORS
330
42
102
}
330
42
100
AcDbScale
 70
     0
300
1/16" = 1'-0"
140
0.0625
141
12.0
290
     0
  0
SCALE
  5
48
102
{ACAD_REACTORS
330
42
102
}
330
42
100
AcDbScale
 70
     0
300
3/32" = 1'-0"
140
0.09375
141
12.0
290
     0
  0
SCALE
  5
49
102
{ACAD_REACTORS
330
42
102
}
330
42
100
AcDbScale
 70
     0
300
1/8" = 1'-0"
140
0.125
141
12.0
290
     0
  0
SCALE
  5
4A
102
{ACAD_REACTORS
330
42
102
}
330
42
100
AcDbScale
 70
     0
300
3/16" = 1'-0"
140
0.1875
141
12.0
290
     0
  0
SCALE
  5
4B
102
{ACAD_REACTORS
330
42
102
}
330
42
100
AcDbScale
 70
     0
300
1/4" = 1'-0"
140
0.25
141
12.0
290
     0
  0
SCALE
  5
4C
102
{ACAD_REACTORS
330
42
102
}
330
42
100
AcDbScale
 70
     0
300
3/8" = 1'-0"
140
0.375
141
12.0
290
     0
  0
SCALE
  5
4D
102
{ACAD_REACTORS
330
42
102
}
330
42
100
AcDbScale
 70
     0
300
1/2" = 1'-0"
140
0.5
141
12.0
290
     0
  0
SCALE
  5
4E
102
{ACAD_REACTORS
330
42
102
}
330
42
100
AcDbScale
 70
     0
300
3/4" = 1'-0"
140
0.75
141
12.0
290
     0
  0
SCALE
  5
4F
102
{ACAD_REACTORS
330
42
102
}
330
42
100
AcDbScale
 70
     0
300
1" = 1'-0"
140
1.0
141
12.0
290
     0
  0
SCALE
  5
50
102
{ACAD_REACTORS
330
42
102
}
330
42
100
AcDbScale
 70
     0
300
1-1/2" = 1'-0"
140
1.5
141
12.0
290
     0
  0
SCALE
  5
51
102
{ACAD_REACTORS
330
42
102
}
330
42
100
AcDbScale
 70
     0
300
3" = 1'-0"
140
3.0
141
12.0
290
     0
  0
SCALE
  5
52
102
{ACAD_REACTORS
330
42
102
}
330
42
100
AcDbScale
 70
     0
300
6" = 1'-0"
140
6.0
141
12.0
290
     0
  0
SCALE
  5
53
102
{ACAD_REACTORS
330
42
102
}
330
42
100
AcDbScale
 70
     0
300
1'-0" = 1'-0"
140
12.0
141
12.0
290
     0
  0
ACDBSECTIONVIEWSTYLE
  5
69
102
{ACAD_REACTORS
330
68
102
}
330
68
100
AcDbModelDocViewStyle
 70
     0
  3
Imperial24
290
     1
300
Imperial24
 90
        0
100
AcDbSectionViewStyle
 70
     0
 71
     0
 90
       78
 71
     1
340
55
 62
   256
 40
0.24
340
0
340
0
 62
   256
 40
0.24
300
I, O, Q, S, X, Z
 40
0.48
 90
        3
 40
0.18
 90
        1
 71
     2
340
5D
 90
       25
 62
   256
340
5D
 90
       50
 62
   256
 40
0.24
 40
0.0
 40
0.24
 71
     3
340
55
 62
   256
 40
0.24
 90
        1
 40
0.75
 90
        1
300
%<\AcVar ViewType \f "%tc1">% %<\AcVar ViewSectionStartId>%-%<\AcVar ViewSectionEndId>%\PSCALE %<\AcVar ViewScale \f "%sn">%
 71
     4
 62
   256
 62
   257
300
ANSI31
 40
1.0
 90
        0
290
     0
290
     0
 90
        6
 40
0.0
 40
1.570796326794896
 40
0.2617993877991494
 40
1.308996938995747
 40
-0.2617993877991494
 40
1.832595714594046
  0
TABLESTYLE
  5
65
102
{ACAD_XDICTIONARY
360
A3
102
}
102
{ACAD_REACTORS
330
64
102
}
330
64
100
AcDbTableStyle
280
     0
  3
Standard
 70
     0
 71
     0
 40
0.06
 41
0.06
280
     0
281
     0
  7
Standard
140
0.18
170
     2
 62
     0
 63
     7
283
     0
 90
      512
 91
        0
  1

274
    -2
284
     1
 64
     0
275
    -2
285
     1
 65
     0
276
    -2
286
     1
 66
     0
277
    -2
287
     1
 67
     0
278
    -2
288
     1
 68
     0
279
    -2
289
     1
 69
     0
  7
Standard
140
0.25
170
     5
 62
     0
 63
     7
283
     0
 90
      512
 91
        0
  1

274
    -2
284
     1
 64
     0
275
    -2
285
     1
 65
     0
276
    -2
286
     1
 66
     0
277
    -2
287
     1
 67
     0
278
    -2
288
     1
 68
     0
279
    -2
289
     1
 69
     0
  7
Standard
140
0.18
170
     5
 62
     0
 63
     7
283
     0
 90
      512
 91
        0
  1

274
    -2
284
     1
 64
     0
275
    -2
285
     1
 65
     0
276
    -2
286
     1
 66
     0
277
    -2
287
     1
 67
     0
278
    -2
288
     1
 68
     0
279
    -2
289
     1
 69
     0
  0
VISUALSTYLE
  5
2F
102
{ACAD_REACTORS
330
29
102
}
330
29
100
AcDbVisualStyle
  2
2dWireframe
 70
     4
177
     3
291
     0
 70
    58
 90
        0
176
     1
 90
        2
176
     1
 90
        0
176
     1
 90
        0
176
     1
 40
0.6
176
     1
 40
30.0
176
     1
 62
     7
420
 16777215
176
     1
 90
        1
176
     1
 90
        4
176
     1
 62
     7
176
     1
 62
   257
176
     1
 90
        1
176
     1
 90
        1
176
     1
 40
1.0
176
     1
 90
        0
176
     1
 62
   257
176
     1
 40
1.0
176
     1
 90
        1
176
     1
 90
        6
176
     1
 90
        2
176
     1
 62
     7
176
     1
 90
        5
176
     1
 90
        0
176
     1
 90
        0
176
     1
290
     0
176
     1
 90
        1
176
     1
 40
0.0
176
     1
 90
        0
176
     1
290
     1
176
     1
290
     1
176
     1
290
     0
176
     1
290
     0
176
     1
290
     0
176
     1
290
     0
176
     1
290
     0
176
     1
290
     0
176
     1
290
     0
176
     1
 90
       50
176
     1
 40
0.0
176
     1
 40
1.0
176
     1
 90
        0
176
     1
 62
    18
420
        0
176
     1
 90
       50
176
     1
 90
        3
176
     1
 62
     5
420
      255
176
     1
290
     0
176
     1
 90
       50
176
     1
 90
       50
176
     1
 90
       50
176
     1
290
     0
176
     1
 90
       50
176
     1
 62
   256
176
     0
 40
1.0
176
     0
 90
        2
176
     1
  1
strokes_ogs.tif
176
     1
290
     0
176
     1
 40
1.0
176
     1
 40
1.0
176
     1
  0
VISUALSTYLE
  5
2E
102
{ACAD_REACTORS
330
29
102
}
330
29
100
AcDbVisualStyle
  2
Basic
 70
     7
177
     3
291
     1
 70
    58
 90
        1
176
     1
 90
        0
176
     1
 90
        1
176
     1
 90
        0
176
     1
 40
0.6
176
     1
 40
30.0
176
     1
 62
     7
420
 16777215
176
     1
 90
        0
176
     1
 90
        4
176
     1
 62
     7
176
     1
 62
   257
176
     1
 90
        1
176
     1
 90
        1
176
     1
 40
1.0
176
     1
 90
        8
176
     1
 62
     7
176
     1
 40
1.0
176
     1
 90
        1
176
     1
 90
        6
176
     1
 90
        2
176
     1
 62
     7
176
     1
 90
        5
176
     1
 90
        0
176
     1
 90
        0
176
     1
290
     0
176
     1
 90
        1
176
     1
 40
0.0
176
     1
 90
        0
176
     1
290
     0
176
     1
290
     1
176
     1
290
     1
176
     1
290
     0
176
     1
290
     0
176
     1
290
     0
176
     1
290
     0
176
     1
290
     0
176
     1
290
     0
176
     1
 90
       50
176
     1
 40
0.0
176
     1
 40
1.0
176
     1
 90
        0
176
     1
 62
    18
420
        0
176
     1
 90
       50
176
     1
 90
        3
176
     1
 62
     5
420
      255
176
     1
290
     0
176
     1
 90
       50
176
     1
 90
       50
176
     1
 90
       50
176
     1
290
     0
176
     1
 90
       50
176
     1
 62
   256
176
     0
 40
1.0
176
     0
 90
        2
176
     1
  1
strokes_ogs.tif
176
     1
290
     0
176
     1
 40
1.0
176
     1
 40
1.0
176
     1
  0
VISUALSTYLE
  5
35
102
{ACAD_REACTORS
330
29
102
}
330
29
100
AcDbVisualStyle
  2
Brighten
 70
    12
177
     3
291
     1
 70
    58
 90
        2
176
     1
 90
        2
176
     1
 90
        0
176
     1
 90
        0
176
     1
 40
0.6
176
     1
 40
30.0
176
     1
 62
     7
420
 16777215
176
     1
 90
        1
176
     1
 90
        4
176
     1
 62
     7
176
     1
 62
   257
176
     1
 90
        1
176
     1
 90
        1
176
     1
 40
1.0
176
     1
 90
        8
176
     1
 62
     7
176
     1
 40
1.0
176
     1
 90
        1
176
     1
 90
        6
176
     1
 90
        2
176
     1
 62
     7
176
     1
 90
        5
176
     1
 90
        0
176
     1
 90
        0
176
     1
290
     0
176
     1
 90
        1
176
     1
 40
50.0
176
     1
 90
        0
176
     1
290
     0
176
     1
290
     1
176
     1
290
     1
176
     1
290
     0
176
     1
290
     0
176
     1
290
     0
176
     1
290
     0
176
     1
290
     0
176
     1
290
     0
176
     1
 90
       50
176
     1
 40
0.0
176
     1
 40
1.0
176
     1
 90
        0
176
     1
 62
    18
420
        0
176
     1
 90
       50
176
     1
 90
        3
176
     1
 62
     5
420
      255
176
     1
290
     0
176
     1
 90
       50
176
     1
 90
       50
176
     1
 90
       50
176
     1
290
     0
176
     1
 90
       50
176
     1
 62
   256
176
     0
 40
1.0
176
     0
 90
        2
176
     1
  1
strokes_ogs.tif
176
     1
290
     0
176
     1
 40
1.0
176
     1
 40
1.0
176
     1
  0
VISUALSTYLE
  5
39
102
{ACAD_REACTORS
330
29
102
}
330
29
100
AcDbVisualStyle
  2
ColorChange
 70
    16
177
     3
291
     1
 70
    58
 90
        2
176
     1
 90
        2
176
     1
 90
        3
176
     1
 90
        0
176
     1
 40
0.6
176
     1
 40
30.0
176
     1
 62
     8
420
  8421504
176
     1
 90
        1
176
     1
 90
        4
176
     1
 62
     7
176
     1
 62
   257
176
     1
 90
        1
176
     1
 90
        1
176
     1
 40
1.0
176
     1
 90
        8
176
     1
 62
     8
420
  8421504
176
     1
 40
1.0
176
     1
 90
        1
176
     1
 90
        6
176
     1
 90
        2
176
     1
 62
     7
176
     1
 90
        5
176
     1
 90
        0
176
     1
 90
        0
176
     1
290
     0
176
     1
 90
        1
176
     1
 40
0.0
176
     1
 90
        0
176
     1
290
     0
176
     1
290
     1
176
     1
290
     1
176
     1
290
     0
176
     1
290
     0
176
     1
290
     0
176
     1
290
     0
176
     1
290
     0
176
     1
290
     0
176
     1
 90
       50
176
     1
 40
0.0
176
     1
 40
1.0
176
     1
 90
        0
176
     1
 62
    18
420
        0
176
     1
 90
       50
176
     1
 90
        3
176
     1
 62
     5
420
      255
176
     1
290
     0
176
     1
 90
       50
176
     1
 90
       50
176
     1
 90
       50
176
     1
290
     0
176
     1
 90
       50
176
     1
 62
   256
176
     0
 40
1.0
176
     0
 90
        2
176
     1
  1
strokes_ogs.tif
176
     1
290
     0
176
     1
 40
1.0
176
     1
 40
1.0
176
     1
  0
VISUALSTYLE
  5
32
102
{ACAD_REACTORS
330
29
102
}
330
29
100
AcDbVisualStyle
  2
Conceptual
 70
     9
177
     3
291
     0
 70
    58
 90
        3
176
     1
 90
        2
176
     1
 90
        0
176
     1
 90
        0
176
     1
 40
0.6
176
     1
 40
30.0
176
     1
 62
     7
420
 16777215
176
     1
 90
        2
176
     1
 90
        2
176
     1
 62
     7
176
     1
 62
   257
176
     1
 90
        1
176
     1
 90
        1
176
     1
 40
179.0
176
     1
 90
        8
176
     1
 62
     7
176
     1
 40
1.0
176
     1
 90
        1
176
     1
 90
        6
176
     1
 90
        2
176
     1
 62
     7
176
     1
 90
        3
176
     1
 90
        0
176
     1
 90
        0
176
     1
290
     0
176
     1
 90
        1
176
     1
 40
0.0
176
     1
 90
        0
176
     1
290
     0
176
     1
290
     1
176
     1
290
     1
176
     1
290
     0
176
     1
290
     0
176
     1
290
     0
176
     1
290
     0
176
     1
290
     0
176
     1
290
     0
176
     1
 90
       50
176
     1
 40
0.0
176
     1
 40
1.0
176
     1
 90
        0
176
     1
 62
    18
420
        0
176
     1
 90
       50
176
     1
 90
        3
176
     1
 62
     5
420
      255
176
     1
290
     0
176
     1
 90
       50
176
     1
 90
       50
176
     1
 90
       50
176
     1
290
     0
176
     1
 90
       50
176
     1
 62
   256
176
     0
 40
1.0
176
     0
 90
        2
176
     1
  1
strokes_ogs.tif
176
     1
290
     0
176
     1
 40
1.0
176
     1
 40
1.0
176
     1
  0
VISUALSTYLE
  5
34
102
{ACAD_REACTORS
330
29
102
}
330
29
100
AcDbVisualStyle
  2
Dim
 70
    11
177
     3
291
     1
 70
    58
 90
        2
176
     1
 90
        2
176
     1
 90
        0
176
     1
 90
        0
176
     1
 40
0.6
176
     1
 40
30.0
176
     1
 62
     7
420
 16777215
176
     1
 90
        1
176
     1
 90
        4
176
     1
 62
     7
176
     1
 62
   257
176
     1
 90
        1
176
     1
 90
        1
176
     1
 40
1.0
176
     1
 90
        8
176
     1
 62
     7
176
     1
 40
1.0
176
     1
 90
        1
176
     1
 90
        6
176
     1
 90
        2
176
     1
 62
     7
176
     1
 90
        5
176
     1
 90
        0
176
     1
 90
        0
176
     1
290
     0
176
     1
 90
        1
176
     1
 40
-50.0
176
     1
 90
        0
176
     1
290
     0
176
     1
290
     1
176
     1
290
     1
176
     1
290
     0
176
     1
290
     0
176
     1
290
     0
176
     1
290
     0
176
     1
290
     0
176
     1
290
     0
176
     1
 90
       50
176
     1
 40
0.0
176
     1
 40
1.0
176
     1
 90
        0
176
     1
 62
    18
420
        0
176
     1
 90
       50
176
     1
 90
        3
176
     1
 62
     5
420
      255
176
     1
290
     0
176
     1
 90
       50
176
     1
 90
       50
176
     1
 90
       50
176
     1
290
     0
176
     1
 90
       50
176
     1
 62
   256
176
     0
 40
1.0
176
     0
 90
        2
176
     1
  1
strokes_ogs.tif
176
     1
290
     0
176
     1
 40
1.0
176
     1
 40
1.0
176
     1
  0
VISUALSTYLE
  5
41
102
{ACAD_REACTORS
330
29
102
}
330
29
100
AcDbVisualStyle
  2
EdgeColorOff
 70
    22
177
     3
291
     1
 70
    58
 90
        2
176
     0
 90
        2
176
     0
 90
        0
176
     0
 90
        0
176
     0
 40
0.6
176
     0
 40
30.0
176
     0
 62
     7
420
 16777215
176
     0
 90
        1
176
     0
 90
        4
176
     0
 62
     7
176
     0
 62
   257
176
     0
 90
        1
176
     0
 90
        1
176
     0
 40
1.0
176
     0
 90
        8
176
     2
 62
     7
176
     0
 40
1.0
176
     0
 90
        1
176
     0
 90
        6
176
     0
 90
        2
176
     0
 62
     7
176
     0
 90
        5
176
     0
 90
        0
176
     0
 90
        0
176
     0
290
     0
176
     0
 90
        1
176
     0
 40
0.0
176
     0
 90
        0
176
     0
290
     0
176
     0
290
     1
176
     0
290
     1
176
     0
290
     0
176
     0
290
     0
176
     0
290
     0
176
     0
290
     0
176
     0
290
     0
176
     0
290
     0
176
     0
 90
       50
176
     0
 40
0.0
176
     0
 40
1.0
176
     0
 90
        0
176
     0
 62
    18
420
        0
176
     0
 90
       50
176
     0
 90
        3
176
     0
 62
     5
420
      255
176
     0
290
     0
176
     0
 90
       50
176
     0
 90
       50
176
     0
 90
       50
176
     0
290
     0
176
     0
 90
       50
176
     0
 62
   256
176
     0
 40
1.0
176
     0
 90
        2
176
     0
  1
strokes_ogs.tif
176
     0
290
     0
176
     0
 40
1.0
176
     0
 40
1.0
176
     0
  0
VISUALSTYLE
  5
38
102
{ACAD_REACTORS
330
29
102
}
330
29
100
AcDbVisualStyle
  2
Facepattern
 70
    15
177
     3
291
     1
 70
    58
 90
        2
176
     1
 90
        2
176
     1
 90
        0
176
     1
 90
        0
176
     1
 40
0.6
176
     1
 40
30.0
176
     1
 62
     7
420
 16777215
176
     1
 90
        1
176
     1
 90
        4
176
     1
 62
     7
176
     1
 62
   257
176
     1
 90
        1
176
     1
 90
        1
176
     1
 40
1.0
176
     1
 90
        8
176
     1
 62
     7
176
     1
 40
1.0
176
     1
 90
        1
176
     1
 90
        6
176
     1
 90
        2
176
     1
 62
     7
176
     1
 90
        5
176
     1
 90
        0
176
     1
 90
        0
176
     1
290
     0
176
     1
 90
        1
176
     1
 40
0.0
176
     1
 90
        0
176
     1
290
     0
176
     1
290
     1
176
     1
290
     1
176
     1
290
     0
176
     1
290
     0
176
     1
290
     0
176
     1
290
     0
176
     1
290
     0
176
     1
290
     0
176
     1
 90
       50
176
     1
 40
0.0
176
     1
 40
1.0
176
     1
 90
        0
176
     1
 62
    18
420
        0
176
     1
 90
       50
176
     1
 90
        3
176
     1
 62
     5
420
      255
176
     1
290
     0
176
     1
 90
       50
176
     1
 90
       50
176
     1
 90
       50
176
     1
290
     0
176
     1
 90
       50
176
     1
 62
   256
176
     0
 40
1.0
176
     0
 90
        2
176
     1
  1
strokes_ogs.tif
176
     1
290
     0
176
     1
 40
1.0
176
     1
 40
1.0
176
     1
  0
VISUALSTYLE
  5
2A
102
{ACAD_REACTORS
330
29
102
}
330
29
100
AcDbVisualStyle
  2
Flat
 70
     0
177
     3
291
     1
 70
    58
 90
        2
176
     1
 90
        1
176
     1
 90
        1
176
     1
 90
        2
176
     1
 40
0.6
176
     1
 40
30.0
176
     1
 62
     7
420
 16777215
176
     1
 90
        0
176
     1
 90
        0
176
     1
 62
     7
176
     1
 62
   257
176
     1
 90
        1
176
     1
 90
        1
176
     1
 40
1.0
176
     1
 90
        8
176
     1
 62
     7
176
     1
 40
1.0
176
     1
 90
        1
176
     1
 90
        6
176
     1
 90
        2
176
     1
 62
     7
176
     1
 90
        5
176
     1
 90
        0
176
     1
 90
        0
176
     1
290
     0
176
     1
 90
       13
176
     1
 40
0.0
176
     1
 90
        0
176
     1
290
     0
176
     1
290
     1
176
     1
290
     1
176
     1
290
     0
176
     1
290
     0
176
     1
290
     0
176
     1
290
     0
176
     1
290
     0
176
     1
290
     0
176
     1
 90
       50
176
     1
 40
0.0
176
     1
 40
1.0
176
     1
 90
        0
176
     1
 62
    18
420
        0
176
     1
 90
       50
176
     1
 90
        3
176
     1
 62
     5
420
      255
176
     1
290
     0
176
     1
 90
       50
176
     1
 90
       50
176
     1
 90
       50
176
     1
290
     0
176
     1
 90
       50
176
     1
 62
   256
176
     0
 40
1.0
176
     0
 90
        2
176
     1
  1
strokes_ogs.tif
176
     1
290
     0
176
     1
 40
1.0
176
     1
 40
1.0
176
     1
  0
VISUALSTYLE
  5
2B
102
{ACAD_REACTORS
330
29
102
}
330
29
100
AcDbVisualStyle
  2
FlatWithEdges
 70
     1
177
     3
291
     1
 70
    58
 90
        2
176
     1
 90
        1
176
     1
 90
        1
176
     1
 90
        2
176
     1
 40
0.6
176
     1
 40
30.0
176
     1
 62
     7
420
 16777215
176
     1
 90
        1
176
     1
 90
        0
176
     1
 62
     7
176
     1
 62
   257
176
     1
 90
        1
176
     1
 90
        1
176
     1
 40
1.0
176
     1
 90
        0
176
     1
 62
   257
176
     1
 40
1.0
176
     1
 90
        1
176
     1
 90
        6
176
     1
 90
        2
176
     1
 62
     7
176
     1
 90
        5
176
     1
 90
        0
176
     1
 90
        0
176
     1
290
     0
176
     1
 90
       13
176
     1
 40
0.0
176
     1
 90
        0
176
     1
290
     0
176
     1
290
     1
176
     1
290
     1
176
     1
290
     0
176
     1
290
     0
176
     1
290
     0
176
     1
290
     0
176
     1
290
     0
176
     1
290
     0
176
     1
 90
       50
176
     1
 40
0.0
176
     1
 40
1.0
176
     1
 90
        0
176
     1
 62
    18
420
        0
176
     1
 90
       50
176
     1
 90
        3
176
     1
 62
     5
420
      255
176
     1
290
     0
176
     1
 90
       50
176
     1
 90
       50
176
     1
 90
       50
176
     1
290
     0
176
     1
 90
       50
176
     1
 62
   256
176
     0
 40
1.0
176
     0
 90
        2
176
     1
  1
strokes_ogs.tif
176
     1
290
     0
176
     1
 40
1.0
176
     1
 40
1.0
176
     1
  0
VISUALSTYLE
  5
2C
102
{ACAD_REACTORS
330
29
102
}
330
29
100
AcDbVisualStyle
  2
Gouraud
 70
     2
177
     3
291
     1
 70
    58
 90
        2
176
     1
 90
        2
176
     1
 90
        1
176
     1
 90
        2
176
     1
 40
0.6
176
     1
 40
30.0
176
     1
 62
     7
420
 16777215
176
     1
 90
        0
176
     1
 90
        0
176
     1
 62
     7
176
     1
 62
   257
176
     1
 90
        1
176
     1
 90
        1
176
     1
 40
1.0
176
     1
 90
        0
176
     1
 62
     7
176
     1
 40
1.0
176
     1
 90
        1
176
     1
 90
        6
176
     1
 90
        2
176
     1
 62
     7
176
     1
 90
        5
176
     1
 90
        0
176
     1
 90
        0
176
     1
290
     0
176
     1
 90
       13
176
     1
 40
0.0
176
     1
 90
        0
176
     1
290
     0
176
     1
290
     1
176
     1
290
     1
176
     1
290
     0
176
     1
290
     0
176
     1
290
     0
176
     1
290
     0
176
     1
290
     0
176
     1
290
     0
176
     1
 90
       50
176
     1
 40
0.0
176
     1
 40
1.0
176
     1
 90
        0
176
     1
 62
    18
420
        0
176
     1
 90
       50
176
     1
 90
        3
176
     1
 62
     5
420
      255
176
     1
290
     0
176
     1
 90
       50
176
     1
 90
       50
176
     1
 90
       50
176
     1
290
     0
176
     1
 90
       50
176
     1
 62
   256
176
     0
 40
1.0
176
     0
 90
        2
176
     1
  1
strokes_ogs.tif
176
     1
290
     0
176
     1
 40
1.0
176
     1
 40
1.0
176
     1
  0
VISUALSTYLE
  5
2D
102
{ACAD_REACTORS
330
29
102
}
330
29
100
AcDbVisualStyle
  2
GouraudWithEdges
 70
     3
177
     3
291
     1
 70
    58
 90
        2
176
     1
 90
        2
176
     1
 90
        1
176
     1
 90
        2
176
     1
 40
0.6
176
     1
 40
30.0
176
     1
 62
     7
420
 16777215
176
     1
 90
        1
176
     1
 90
        0
176
     1
 62
     7
176
     1
 62
   257
176
     1
 90
        1
176
     1
 90
        1
176
     1
 40
1.0
176
     1
 90
        0
176
     1
 62
   257
176
     1
 40
1.0
176
     1
 90
        1
176
     1
 90
        6
176
     1
 90
        2
176
     1
 62
     7
176
     1
 90
        5
176
     1
 90
        0
176
     1
 90
        0
176
     1
290
     0
176
     1
 90
       13
176
     1
 40
0.0
176
     1
 90
        0
176
     1
290
     0
176
     1
290
     1
176
     1
290
     1
176
     1
290
     0
176
     1
290
     0
176
     1
290
     0
176
     1
290
     0
176
     1
290
     0
176
     1
290
     0
176
     1
 90
       50
176
     1
 40
0.0
176
     1
 40
1.0
176
     1
 90
        0
176
     1
 62
    18
420
        0
176
     1
 90
       50
176
     1
 90
        3
176
     1
 62
     5
420
      255
176
     1
290
     0
176
     1
 90
       50
176
     1
 90
       50
176
     1
 90
       50
176
     1
290
     0
176
     1
 90
       50
176
     1
 62
   256
176
     0
 40
1.0
176
     0
 90
        2
176
     1
  1
strokes_ogs.tif
176
     1
290
     0
176
     1
 40
1.0
176
     1
 40
1.0
176
     1
  0
VISUALSTYLE
  5
31
102
{ACAD_REACTORS
330
29
102
}
330
29
100
AcDbVisualStyle
  2
Hidden
 70
     6
177
     3
291
     0
 70
    58
 90
        1
176
     1
 90
        2
176
     1
 90
        2
176
     1
 90
        0
176
     1
 40
0.6
176
     1
 40
30.0
176
     1
 62
     7
420
 16777215
176
     1
 90
        2
176
     1
 90
        2
176
     1
 62
     7
176
     1
 62
   257
176
     1
 90
        2
176
     1
 90
        1
176
     1
 40
40.0
176
     1
 90
        0
176
     1
 62
   257
176
     1
 40
1.0
176
     1
 90
        1
176
     1
 90
        6
176
     1
 90
        2
176
     1
 62
     7
176
     1
 90
        3
176
     1
 90
        0
176
     1
 90
        0
176
     1
290
     0
176
     1
 90
        1
176
     1
 40
0.0
176
     1
 90
        0
176
     1
290
     0
176
     1
290
     1
176
     1
290
     1
176
     1
290
     0
176
     1
290
     0
176
     1
290
     0
176
     1
290
     0
176
     1
290
     0
176
     1
290
     0
176
     1
 90
       50
176
     1
 40
0.0
176
     1
 40
1.0
176
     1
 90
        0
176
     1
 62
    18
420
        0
176
     1
 90
       50
176
     1
 90
        3
176
     1
 62
     5
420
      255
176
     1
290
     0
176
     1
 90
       50
176
     1
 90
       50
176
     1
 90
       50
176
     1
290
     0
176
     1
 90
       50
176
     1
 62
   256
176
     0
 40
1.0
176
     0
 90
        2
176
     1
  1
strokes_ogs.tif
176
     1
290
     0
176
     1
 40
1.0
176
     1
 40
1.0
176
     1
  0
VISUALSTYLE
  5
3F
102
{ACAD_REACTORS
330
29
102
}
330
29
100
AcDbVisualStyle
  2
JitterOff
 70
    20
177
     3
291
     1
 70
    58
 90
        2
176
     0
 90
        2
176
     0
 90
        0
176
     0
 90
        0
176
     0
 40
0.6
176
     0
 40
30.0
176
     0
 62
     7
420
 16777215
176
     0
 90
        1
176
     0
 90
        4
176
     0
 62
     7
176
     0
 62
   257
176
     0
 90
        1
176
     0
 90
        1
176
     0
 40
1.0
176
     0
 90
       10
176
     2
 62
     7
176
     0
 40
1.0
176
     0
 90
        1
176
     0
 90
        6
176
     0
 90
        2
176
     0
 62
     7
176
     0
 90
        5
176
     0
 90
        0
176
     0
 90
        0
176
     0
290
     0
176
     0
 90
        1
176
     0
 40
0.0
176
     0
 90
        0
176
     0
290
     0
176
     0
290
     1
176
     0
290
     1
176
     0
290
     0
176
     0
290
     0
176
     0
290
     0
176
     0
290
     0
176
     0
290
     0
176
     0
290
     0
176
     0
 90
       50
176
     0
 40
0.0
176
     0
 40
1.0
176
     0
 90
        0
176
     0
 62
    18
420
        0
176
     0
 90
       50
176
     0
 90
        3
176
     0
 62
     5
420
      255
176
     0
290
     0
176
     0
 90
       50
176
     0
 90
       50
176
     0
 90
       50
176
     0
290
     0
176
     0
 90
       50
176
     0
 62
   256
176
     0
 40
1.0
176
     0
 90
        2
176
     0
  1
strokes_ogs.tif
176
     0
290
     0
176
     0
 40
1.0
176
     0
 40
1.0
176
     0
  0
VISUALSTYLE
  5
37
102
{ACAD_REACTORS
330
29
102
}
330
29
100
AcDbVisualStyle
  2
Linepattern
 70
    14
177
     3
291
     1
 70
    58
 90
        2
176
     1
 90
        2
176
     1
 90
        0
176
     1
 90
        0
176
     1
 40
0.6
176
     1
 40
30.0
176
     1
 62
     7
420
 16777215
176
     1
 90
        1
176
     1
 90
        4
176
     1
 62
     7
176
     1
 62
   257
176
     1
 90
        7
176
     1
 90
        7
176
     1
 40
1.0
176
     1
 90
        8
176
     1
 62
     7
176
     1
 40
1.0
176
     1
 90
        1
176
     1
 90
        6
176
     1
 90
        2
176
     1
 62
     7
176
     1
 90
        5
176
     1
 90
        0
176
     1
 90
        0
176
     1
290
     0
176
     1
 90
        1
176
     1
 40
0.0
176
     1
 90
        0
176
     1
290
     0
176
     1
290
     1
176
     1
290
     1
176
     1
290
     0
176
     1
290
     0
176
     1
290
     0
176
     1
290
     0
176
     1
290
     0
176
     1
290
     0
176
     1
 90
       50
176
     1
 40
0.0
176
     1
 40
1.0
176
     1
 90
        0
176
     1
 62
    18
420
        0
176
     1
 90
       50
176
     1
 90
        3
176
     1
 62
     5
420
      255
176
     1
290
     0
176
     1
 90
       50
176
     1
 90
       50
176
     1
 90
       50
176
     1
290
     0
176
     1
 90
       50
176
     1
 62
   256
176
     0
 40
1.0
176
     0
 90
        2
176
     1
  1
strokes_ogs.tif
176
     1
290
     0
176
     1
 40
1.0
176
     1
 40
1.0
176
     1
  0
VISUALSTYLE
  5
40
102
{ACAD_REACTORS
330
29
102
}
330
29
100
AcDbVisualStyle
  2
OverhangOff
 70
    21
177
     3
291
     1
 70
    58
 90
        2
176
     0
 90
        2
176
     0
 90
        0
176
     0
 90
        0
176
     0
 40
0.6
176
     0
 40
30.0
176
     0
 62
     7
420
 16777215
176
     0
 90
        1
176
     0
 90
        4
176
     0
 62
     7
176
     0
 62
   257
176
     0
 90
        1
176
     0
 90
        1
176
     0
 40
1.0
176
     0
 90
        9
176
     2
 62
     7
176
     0
 40
1.0
176
     0
 90
        1
176
     0
 90
        6
176
     0
 90
        2
176
     0
 62
     7
176
     0
 90
        5
176
     0
 90
        0
176
     0
 90
        0
176
     0
290
     0
176
     0
 90
        1
176
     0
 40
0.0
176
     0
 90
        0
176
     0
290
     0
176
     0
290
     1
176
     0
290
     1
176
     0
290
     0
176
     0
290
     0
176
     0
290
     0
176
     0
290
     0
176
     0
290
     0
176
     0
290
     0
176
     0
 90
       50
176
     0
 40
0.0
176
     0
 40
1.0
176
     0
 90
        0
176
     0
 62
    18
420
        0
176
     0
 90
       50
176
     0
 90
        3
176
     0
 62
     5
420
      255
176
     0
290
     0
176
     0
 90
       50
176
     0
 90
       50
176
     0
 90
       50
176
     0
290
     0
176
     0
 90
       50
176
     0
 62
   256
176
     0
 40
1.0
176
     0
 90
        2
176
     0
  1
strokes_ogs.tif
176
     0
290
     0
176
     0
 40
1.0
176
     0
 40
1.0
176
     0
  0
VISUALSTYLE
  5
33
102
{ACAD_REACTORS
330
29
102
}
330
29
100
AcDbVisualStyle
  2
Realistic
 70
     8
177
     3
291
     0
 70
    58
 90
        2
176
     1
 90
        3
176
     1
 90
        0
176
     1
 90
        2
176
     1
 40
0.6
176
     1
 40
30.0
176
     1
 62
     7
420
 16777215
176
     1
 90
        0
176
     1
 90
        0
176
     1
 62
     7
176
     1
 62
   257
176
     1
 90
        1
176
     1
 90
        1
176
     1
 40
1.0
176
     1
 90
        8
176
     1
 62
   257
176
     1
 40
1.0
176
     1
 90
        1
176
     1
 90
        6
176
     1
 90
        2
176
     1
 62
     7
176
     1
 90
        3
176
     1
 90
        0
176
     1
 90
        0
176
     1
290
     0
176
     1
 90
       13
176
     1
 40
0.0
176
     1
 90
        0
176
     1
290
     0
176
     1
290
     1
176
     1
290
     1
176
     1
290
     0
176
     1
290
     0
176
     1
290
     0
176
     1
290
     0
176
     1
290
     0
176
     1
290
     0
176
     1
 90
       50
176
     1
 40
0.0
176
     1
 40
1.0
176
     1
 90
        0
176
     1
 62
    18
420
        0
176
     1
 90
       50
176
     1
 90
        3
176
     1
 62
     5
420
      255
176
     1
290
     0
176
     1
 90
       50
176
     1
 90
       50
176
     1
 90
       50
176
     1
290
     0
176
     1
 90
       50
176
     1
 62
   256
176
     0
 40
1.0
176
     0
 90
        2
176
     1
  1
strokes_ogs.tif
176
     1
290
     0
176
     1
 40
1.0
176
     1
 40
1.0
176
     1
  0
VISUALSTYLE
  5
3E
102
{ACAD_REACTORS
330
29
102
}
330
29
100
AcDbVisualStyle
  2
Shaded
 70
    27
177
     3
291
     0
 70
    58
 90
        2
176
     1
 90
        2
176
     1
 90
        1
176
     1
 90
        2
176
     1
 40
0.6
176
     1
 40
30.0
176
     1
 62
     7
420
 16777215
176
     1
 90
        0
176
     1
 90
        4
176
     1
 62
     7
176
     1
 62
   257
176
     1
 90
        1
176
     1
 90
        1
176
     1
 40
1.0
176
     1
 90
        8
176
     1
 62
   257
176
     1
 40
1.0
176
     1
 90
        1
176
     1
 90
        6
176
     1
 90
        2
176
     1
 62
     8
420
  7895160
176
     1
 90
        3
176
     1
 90
        0
176
     1
 90
        0
176
     1
290
     0
176
     1
 90
        5
176
     1
 40
0.0
176
     1
 90
        0
176
     1
290
     0
176
     1
290
     1
176
     1
290
     1
176
     1
290
     0
176
     1
290
     0
176
     1
290
     0
176
     1
290
     0
176
     1
290
     0
176
     1
290
     0
176
     1
 90
       50
176
     1
 40
0.0
176
     1
 40
1.0
176
     1
 90
        0
176
     1
 62
    18
420
        0
176
     1
 90
       50
176
     1
 90
        3
176
     1
 62
     5
420
      255
176
     1
290
     0
176
     1
 90
       50
176
     1
 90
       50
176
     1
 90
       50
176
     1
290
     0
176
     1
 90
       50
176
     1
 62
   256
176
     0
 40
1.0
176
     0
 90
        2
176
     1
  1
strokes_ogs.tif
176
     1
290
     0
176
     1
 40
1.0
176
     1
 40
1.0
176
     1
  0
VISUALSTYLE
  5
3D
102
{ACAD_REACTORS
330
29
102
}
330
29
100
AcDbVisualStyle
  2
Shaded with edges
 70
    26
177
     3
291
     0
 70
    58
 90
        2
176
     1
 90
        2
176
     1
 90
        1
176
     1
 90
        2
176
     1
 40
0.6
176
     1
 40
30.0
176
     1
 62
     7
420
 16777215
176
     1
 90
        1
176
     1
 90
        2
176
     1
 62
     7
176
     1
 62
   257
176
     1
 90
        2
176
     1
 90
        1
176
     1
 40
1.0
176
     1
 90
        8
176
     1
 62
   257
176
     1
 40
1.0
176
     1
 90
        1
176
     1
 90
        6
176
     1
 90
        2
176
     1
 62
     7
176
     1
 90
        3
176
     1
 90
        0
176
     1
 90
        0
176
     1
290
     0
176
     1
 90
        5
176
     1
 40
0.0
176
     1
 90
        0
176
     1
290
     0
176
     1
290
     1
176
     1
290
     1
176
     1
290
     0
176
     1
290
     0
176
     1
290
     0
176
     1
290
     0
176
     1
290
     0
176
     1
290
     0
176
     1
 90
       50
176
     1
 40
0.0
176
     1
 40
1.0
176
     1
 90
        0
176
     1
 62
    18
420
        0
176
     1
 90
       50
176
     1
 90
        3
176
     1
 62
     5
420
      255
176
     1
290
     0
176
     1
 90
       50
176
     1
 90
       50
176
     1
 90
       50
176
     1
290
     0
176
     1
 90
       50
176
     1
 62
   256
176
     0
 40
1.0
176
     0
 90
        2
176
     1
  1
strokes_ogs.tif
176
     1
290
     0
176
     1
 40
1.0
176
     1
 40
1.0
176
     1
  0
VISUALSTYLE
  5
3A
102
{ACAD_REACTORS
330
29
102
}
330
29
100
AcDbVisualStyle
  2
Shades of Gray
 70
    23
177
     3
291
     0
 70
    58
 90
        2
176
     1
 90
        2
176
     1
 90
        3
176
     1
 90
        0
176
     1
 40
0.6
176
     1
 40
30.0
176
     1
 62
     7
420
 16777215
176
     1
 90
        2
176
     1
 90
        2
176
     1
 62
     7
176
     1
 62
     7
176
     1
 90
        1
176
     1
 90
        1
176
     1
 40
40.0
176
     1
 90
        8
176
     1
 62
     7
176
     1
 40
1.0
176
     1
 90
        1
176
     1
 90
        6
176
     1
 90
        2
176
     1
 62
     7
176
     1
 90
        3
176
     1
 90
        0
176
     1
 90
        0
176
     1
290
     0
176
     1
 90
        1
176
     1
 40
0.0
176
     1
 90
        0
176
     1
290
     0
176
     1
290
     1
176
     1
290
     1
176
     1
290
     0
176
     1
290
     0
176
     1
290
     0
176
     1
290
     0
176
     1
290
     0
176
     1
290
     0
176
     1
 90
       50
176
     1
 40
0.0
176
     1
 40
1.0
176
     1
 90
        0
176
     1
 62
    18
420
        0
176
     1
 90
       50
176
     1
 90
        3
176
     1
 62
     5
420
      255
176
     1
290
     0
176
     1
 90
       50
176
     1
 90
       50
176
     1
 90
       50
176
     1
290
     0
176
     1
 90
       50
176
     1
 62
   256
176
     0
 40
1.0
176
     0
 90
        2
176
     1
  1
strokes_ogs.tif
176
     1
290
     0
176
     1
 40
1.0
176
     1
 40
1.0
176
     1
  0
VISUALSTYLE
  5
3B
102
{ACAD_REACTORS
330
29
102
}
330
29
100
AcDbVisualStyle
  2
Sketchy
 70
    24
177
     3
291
     0
 70
    58
 90
        1
176
     1
 90
        2
176
     1
 90
        2
176
     1
 90
        0
176
     1
 40
0.6
176
     1
 40
30.0
176
     1
 62
     7
420
 16777215
176
     1
 90
        2
176
     1
 90
        2
176
     1
 62
     7
176
     1
 62
     7
176
     1
 90
        1
176
     1
 90
        1
176
     1
 40
40.0
176
     1
 90
       11
176
     1
 62
     7
176
     1
 40
1.0
176
     1
 90
        1
176
     1
 90
        6
176
     1
 90
        2
176
     1
 62
     7
176
     1
 90
        6
176
     1
 90
        0
176
     1
 90
        0
176
     1
290
     0
176
     1
 90
        1
176
     1
 40
0.0
176
     1
 90
        0
176
     1
290
     0
176
     1
290
     1
176
     1
290
     1
176
     1
290
     0
176
     1
290
     0
176
     1
290
     0
176
     1
290
     0
176
     1
290
     0
176
     1
290
     0
176
     1
 90
       50
176
     1
 40
0.0
176
     1
 40
1.0
176
     1
 90
        0
176
     1
 62
    18
420
        0
176
     1
 90
       50
176
     1
 90
        3
176
     1
 62
     5
420
      255
176
     1
290
     0
176
     1
 90
       50
176
     1
 90
       50
176
     1
 90
       50
176
     1
290
     0
176
     1
 90
       50
176
     1
 62
   256
176
     0
 40
1.0
176
     0
 90
        2
176
     1
  1
strokes_ogs.tif
176
     1
290
     0
176
     1
 40
1.0
176
     1
 40
1.0
176
     1
  0
VISUALSTYLE
  5
36
102
{ACAD_REACTORS
330
29
102
}
330
29
100
AcDbVisualStyle
  2
Thicken
 70
    13
177
     3
291
     1
 70
    58
 90
        2
176
     1
 90
        2
176
     1
 90
        0
176
     1
 90
        0
176
     1
 40
0.6
176
     1
 40
30.0
176
     1
 62
     7
420
 16777215
176
     1
 90
        1
176
     1
 90
        4
176
     1
 62
     7
176
     1
 62
   257
176
     1
 90
        1
176
     1
 90
        1
176
     1
 40
1.0
176
     1
 90
       12
176
     1
 62
     7
176
     1
 40
1.0
176
     1
 90
        1
176
     1
 90
        6
176
     1
 90
        2
176
     1
 62
     7
176
     1
 90
        5
176
     1
 90
        0
176
     1
 90
        0
176
     1
290
     0
176
     1
 90
        1
176
     1
 40
0.0
176
     1
 90
        0
176
     1
290
     0
176
     1
290
     1
176
     1
290
     1
176
     1
290
     0
176
     1
290
     0
176
     1
290
     0
176
     1
290
     0
176
     1
290
     0
176
     1
290
     0
176
     1
 90
       50
176
     1
 40
0.0
176
     1
 40
1.0
176
     1
 90
        0
176
     1
 62
    18
420
        0
176
     1
 90
       50
176
     1
 90
        3
176
     1
 62
     5
420
      255
176
     1
290
     0
176
     1
 90
       50
176
     1
 90
       50
176
     1
 90
       50
176
     1
290
     0
176
     1
 90
       50
176
     1
 62
   256
176
     0
 40
1.0
176
     0
 90
        2
176
     1
  1
strokes_ogs.tif
176
     1
290
     0
176
     1
 40
1.0
176
     1
 40
1.0
176
     1
  0
VISUALSTYLE
  5
30
102
{ACAD_REACTORS
330
29
102
}
330
29
100
AcDbVisualStyle
  2
Wireframe
 70
     5
177
     3
291
     0
 70
    58
 90
        0
176
     1
 90
        2
176
     1
 90
        0
176
     1
 90
        0
176
     1
 40
0.6
176
     1
 40
30.0
176
     1
 62
     7
420
 16777215
176
     1
 90
        1
176
     1
 90
        4
176
     1
 62
     7
176
     1
 62
   257
176
     1
 90
        1
176
     1
 90
        1
176
     1
 40
1.0
176
     1
 90
        0
176
     1
 62
   257
176
     1
 40
1.0
176
     1
 90
        1
176
     1
 90
        6
176
     1
 90
        2
176
     1
 62
     7
176
     1
 90
        3
176
     1
 90
        0
176
     1
 90
        0
176
     1
290
     0
176
     1
 90
        1
176
     1
 40
0.0
176
     1
 90
        0
176
     1
290
     0
176
     1
290
     1
176
     1
290
     1
176
     1
290
     0
176
     1
290
     0
176
     1
290
     0
176
     1
290
     0
176
     1
290
     0
176
     1
290
     0
176
     1
 90
       50
176
     1
 40
0.0
176
     1
 40
1.0
176
     1
 90
        0
176
     1
 62
    18
420
        0
176
     1
 90
       50
176
     1
 90
        3
176
     1
 62
     5
420
      255
176
     1
290
     0
176
     1
 90
       50
176
     1
 90
       50
176
     1
 90
       50
176
     1
290
     0
176
     1
 90
       50
176
     1
 62
   256
176
     0
 40
1.0
176
     0
 90
        2
176
     1
  1
strokes_ogs.tif
176
     1
290
     0
176
     1
 40
1.0
176
     1
 40
1.0
176
     1
  0
VISUALSTYLE
  5
3C
102
{ACAD_REACTORS
330
29
102
}
330
29
100
AcDbVisualStyle
  2
X-Ray
 70
    25
177
     3
291
     0
 70
    58
 90
        2
176
     1
 90
        2
176
     1
 90
        1
176
     1
 90
        1
176
     1
 40
0.5
176
     1
 40
30.0
176
     1
 62
     7
420
 16777215
176
     1
 90
        1
176
     1
 90
        0
176
     1
 62
     7
176
     1
 62
   257
176
     1
 90
        1
176
     1
 90
        1
176
     1
 40
1.0
176
     1
 90
        8
176
     1
 62
     7
176
     1
 40
1.0
176
     1
 90
        1
176
     1
 90
        6
176
     1
 90
        2
176
     1
 62
     7
176
     1
 90
        3
176
     1
 90
        0
176
     1
 90
        0
176
     1
290
     0
176
     1
 90
       13
176
     1
 40
0.0
176
     1
 90
        0
176
     1
290
     0
176
     1
290
     1
176
     1
290
     1
176
     1
290
     0
176
     1
290
     0
176
     1
290
     0
176
     1
290
     0
176
     1
290
     0
176
     1
290
     0
176
     1
 90
       50
176
     1
 40
0.0
176
     1
 40
1.0
176
     1
 90
        0
176
     1
 62
    18
420
        0
176
     1
 90
       50
176
     1
 90
        3
176
     1
 62
     5
420
      255
176
     1
290
     0
176
     1
 90
       50
176
     1
 90
       50
176
     1
 90
       50
176
     1
290
     0
176
     1
 90
       50
176
     1
 62
   256
176
     0
 40
1.0
176
     0
 90
        2
176
     1
  1
strokes_ogs.tif
176
     1
290
     0
176
     1
 40
1.0
176
     1
 40
1.0
176
     1
  0
DICTIONARYVAR
  5
A2
102
{ACAD_REACTORS
330
9D
102
}
330
9D
100
DictionaryVariables
280
     0
  1
1:1
  0
DICTIONARYVAR
  5
9F
102
{ACAD_REACTORS
330
9D
102
}
330
9D
100
DictionaryVariables
280
     0
  1
STANDARD
  0
DICTIONARYVAR
  5
9E
102
{ACAD_REACTORS
330
9D
102
}
330
9D
100
DictionaryVariables
280
     0
  1
STANDARD
  0
DICTIONARYVAR
  5
A0
102
{ACAD_REACTORS
330
9D
102
}
330
9D
100
DictionaryVariables
280
     0
  1
Imperial24
  0
DICTIONARYVAR
  5
A1
102
{ACAD_REACTORS
330
9D
102
}
330
9D
100
DictionaryVariables
280
     0
  1
Imperial24
  0
DICTIONARY
  5
1A
330
19
100
AcDbDictionary
280
     1
281
     1
  3
BUMPTILE
360
1C
  3
DIFFUSETILE
360
1B
  3
OPACITYTILE
360
1F
  3
REFLECTIONTILE
360
1E
  3
REFRACTIONTILE
360
20
  3
SPECULARTILE
360
1D
  0
DICTIONARY
  5
12
330
11
100
AcDbDictionary
280
     1
281
     1
  3
BUMPTILE
360
14
  3
DIFFUSETILE
360
13
  3
OPACITYTILE
360
17
  3
REFLECTIONTILE
360
16
  3
REFRACTIONTILE
360
18
  3
SPECULARTILE
360
15
  0
DICTIONARY
  5
22
330
21
100
AcDbDictionary
280
     1
281
     1
  3
BUMPTILE
360
24
  3
DIFFUSETILE
360
23
  3
OPACITYTILE
360
27
  3
REFLECTIONTILE
360
26
  3
REFRACTIONTILE
360
28
  3
SPECULARTILE
360
25
  0
DICTIONARY
  5
A3
330
65
100
AcDbDictionary
280
     1
281
     1
  3
ACAD_ROUNDTRIP_2008_TABLESTYLE_CELLSTYLEMAP
360
A4
  0
XRECORD
  5
1C
102
{ACAD_REACTORS
330
1A
102
}
330
1A
100
AcDbXrecord
280
     1
270
     1
271
     1
  0
XRECORD
  5
1B
102
{ACAD_REACTORS
330
1A
102
}
330
1A
100
AcDbXrecord
280
     1
270
     1
271
     1
  0
XRECORD
  5
1F
102
{ACAD_REACTORS
330
1A
102
}
330
1A
100
AcDbXrecord
280
     1
270
     1
271
     1
  0
XRECORD
  5
1E
102
{ACAD_REACTORS
330
1A
102
}
330
1A
100
AcDbXrecord
280
     1
270
     1
271
     1
  0
XRECORD
  5
20
102
{ACAD_REACTORS
330
1A
102
}
330
1A
100
AcDbXrecord
280
     1
270
     1
271
     1
  0
XRECORD
  5
1D
102
{ACAD_REACTORS
330
1A
102
}
330
1A
100
AcDbXrecord
280
     1
270
     1
271
     1
  0
XRECORD
  5
14
102
{ACAD_REACTORS
330
12
102
}
330
12
100
AcDbXrecord
280
     1
270
     1
271
     1
  0
XRECORD
  5
13
102
{ACAD_REACTORS
330
12
102
}
330
12
100
AcDbXrecord
280
     1
270
     1
271
     1
  0
XRECORD
  5
17
102
{ACAD_REACTORS
330
12
102
}
330
12
100
AcDbXrecord
280
     1
270
     1
271
     1
  0
XRECORD
  5
16
102
{ACAD_REACTORS
330
12
102
}
330
12
100
AcDbXrecord
280
     1
270
     1
271
     1
  0
XRECORD
  5
18
102
{ACAD_REACTORS
330
12
102
}
330
12
100
AcDbXrecord
280
     1
270
     1
271
     1
  0
XRECORD
  5
15
102
{ACAD_REACTORS
330
12
102
}
330
12
100
AcDbXrecord
280
     1
270
     1
271
     1
  0
XRECORD
  5
24
102
{ACAD_REACTORS
330
22
102
}
330
22
100
AcDbXrecord
280
     1
270
     1
271
     1
  0
XRECORD
  5
23
102
{ACAD_REACTORS
330
22
102
}
330
22
100
AcDbXrecord
280
     1
270
     1
271
     1
  0
XRECORD
  5
27
102
{ACAD_REACTORS
330
22
102
}
330
22
100
AcDbXrecord
280
     1
270
     1
271
     1
  0
XRECORD
  5
26
102
{ACAD_REACTORS
330
22
102
}
330
22
100
AcDbXrecord
280
     1
270
     1
271
     1
  0
XRECORD
  5
28
102
{ACAD_REACTORS
330
22
102
}
330
22
100
AcDbXrecord
280
     1
270
     1
271
     1
  0
XRECORD
  5
25
102
{ACAD_REACTORS
330
22
102
}
330
22
100
AcDbXrecord
280
     1
270
     1
271
     1
  0
CELLSTYLEMAP
  5
A4
102
{ACAD_REACTORS
330
A3
102
}
330
A3
100
AcDbCellStyleMap
 90
        3
300
CELLSTYLE
  1
TABLEFORMAT_BEGIN
 90
        5
170
     1
 91
        0
 92
    32768
 62
   257
 93
        1
300
CONTENTFORMAT
  1
CONTENTFORMAT_BEGIN
 90
        0
 91
        0
 92
      512
 93
        0
300

 40
0.0
140
1.0
 94
        5
 62
     0
340
55
144
0.25
309
CONTENTFORMAT_END
171
     0
 94
        0
309
TABLEFORMAT_END
  1
CELLSTYLE_BEGIN
 90
        1
 91
        1
300
_TITLE
309
CELLSTYLE_END
300
CELLSTYLE
  1
TABLEFORMAT_BEGIN
 90
        5
170
     1
 91
        0
 92
        0
 62
   257
 93
        1
300
CONTENTFORMAT
  1
CONTENTFORMAT_BEGIN
 90
        0
 91
        0
 92
      512
 93
        0
300

 40
0.0
140
1.0
 94
        5
 62
     0
340
55
144
0.18
309
CONTENTFORMAT_END
171
     0
 94
        0
309
TABLEFORMAT_END
  1
CELLSTYLE_BEGIN
 90
        2
 91
        1
300
_HEADER
309
CELLSTYLE_END
300
CELLSTYLE
  1
TABLEFORMAT_BEGIN
 90
        5
170
     1
 91
        0
 92
        0
 62
   257
 93
        1
300
CONTENTFORMAT
  1
CONTENTFORMAT_BEGIN
 90
        0
 91
        0
 92
      512
 93
        0
300

 40
0.0
140
1.0
 94
        2
 62
     0
340
55
144
0.18
309
CONTENTFORMAT_END
171
     0
 94
        0
309
TABLEFORMAT_END
  1
CELLSTYLE_BEGIN
 90
        3
 91
        2
300
_DATA
309
CELLSTYLE_END
  0
ENDSEC
  0
EOF
